  0
SECTION
  2
HEADER
  9
$ACADVER
  1
AC1018
  9
$ACADMAINTVER
 70
   104
  9
$DWGCODEPAGE
  3
ANSI_932
  9
$LASTSAVEDBY
  1
0803015
  9
$INSBASE
 10
0.0
 20
0.0
 30
0.0
  9
$EXTMIN
 10
-0.37369062
 20
-0.74670741
 30
0.0
  9
$EXTMAX
 10
13750.57554181
 20
10000.68999506
 30
0.00000001
  9
$LIMMIN
 10
0.0
 20
0.0
  9
$LIMMAX
 10
420.0
 20
330.0
  9
$ORTHOMODE
 70
     1
  9
$REGENMODE
 70
     1
  9
$FILLMODE
 70
     1
  9
$QTEXTMODE
 70
     0
  9
$MIRRTEXT
 70
     0
  9
$LTSCALE
 40
1.0
  9
$ATTMODE
 70
     1
  9
$TEXTSIZE
 40
0.2
  9
$TRACEWID
 40
0.05
  9
$TEXTSTYLE
  7
STANDARD
  9
$CLAYER
  8
0
  9
$CELTYPE
  6
BYLAYER
  9
$CECOLOR
 62
   256
  9
$CELTSCALE
 40
1.0
  9
$DISPSILH
 70
     1
  9
$DIMSCALE
 40
1.0
  9
$DIMASZ
 40
0.18
  9
$DIMEXO
 40
0.0625
  9
$DIMDLI
 40
0.38
  9
$DIMRND
 40
0.0
  9
$DIMDLE
 40
0.0
  9
$DIMEXE
 40
0.18
  9
$DIMTP
 40
0.0
  9
$DIMTM
 40
0.0
  9
$DIMTXT
 40
0.18
  9
$DIMCEN
 40
0.09
  9
$DIMTSZ
 40
0.0
  9
$DIMTOL
 70
     0
  9
$DIMLIM
 70
     0
  9
$DIMTIH
 70
     1
  9
$DIMTOH
 70
     1
  9
$DIMSE1
 70
     0
  9
$DIMSE2
 70
     0
  9
$DIMTAD
 70
     0
  9
$DIMZIN
 70
     0
  9
$DIMBLK
  1

  9
$DIMASO
 70
     1
  9
$DIMSHO
 70
     0
  9
$DIMPOST
  1

  9
$DIMAPOST
  1

  9
$DIMALT
 70
     0
  9
$DIMALTD
 70
     2
  9
$DIMALTF
 40
25.4
  9
$DIMLFAC
 40
1.0
  9
$DIMTOFL
 70
     0
  9
$DIMTVP
 40
0.0
  9
$DIMTIX
 70
     0
  9
$DIMSOXD
 70
     0
  9
$DIMSAH
 70
     0
  9
$DIMBLK1
  1

  9
$DIMBLK2
  1

  9
$DIMSTYLE
  2
STANDARD
  9
$DIMCLRD
 70
     0
  9
$DIMCLRE
 70
     0
  9
$DIMCLRT
 70
     0
  9
$DIMTFAC
 40
1.0
  9
$DIMGAP
 40
0.09
  9
$DIMJUST
 70
     0
  9
$DIMSD1
 70
     0
  9
$DIMSD2
 70
     0
  9
$DIMTOLJ
 70
     1
  9
$DIMTZIN
 70
     0
  9
$DIMALTZ
 70
     0
  9
$DIMALTTZ
 70
     0
  9
$DIMUPT
 70
     0
  9
$DIMDEC
 70
     4
  9
$DIMTDEC
 70
     4
  9
$DIMALTU
 70
     2
  9
$DIMALTTD
 70
     2
  9
$DIMTXSTY
  7
STANDARD
  9
$DIMAUNIT
 70
     0
  9
$DIMADEC
 70
     0
  9
$DIMALTRND
 40
0.0
  9
$DIMAZIN
 70
     0
  9
$DIMDSEP
 70
    46
  9
$DIMATFIT
 70
     3
  9
$DIMFRAC
 70
     0
  9
$DIMLDRBLK
  1

  9
$DIMLUNIT
 70
     2
  9
$DIMLWD
 70
    -2
  9
$DIMLWE
 70
    -2
  9
$DIMTMOVE
 70
     2
  9
$LUNITS
 70
     2
  9
$LUPREC
 70
     4
  9
$SKETCHINC
 40
0.1
  9
$FILLETRAD
 40
1.0
  9
$AUNITS
 70
     0
  9
$AUPREC
 70
     0
  9
$MENU
  1
acad
  9
$ELEVATION
 40
0.0
  9
$PELEVATION
 40
0.0
  9
$THICKNESS
 40
0.0
  9
$LIMCHECK
 70
     0
  9
$CHAMFERA
 40
0.0
  9
$CHAMFERB
 40
0.0
  9
$CHAMFERC
 40
0.0
  9
$CHAMFERD
 40
0.0
  9
$SKPOLY
 70
     0
  9
$TDCREATE
 40
2452970.385810186
  9
$TDUCREATE
 40
2452970.010810185
  9
$TDUPDATE
 40
2459629.487013889
  9
$TDUUPDATE
 40
2459629.112013889
  9
$TDINDWG
 40
0.0279280093
  9
$TDUSRTIMER
 40
0.0279280093
  9
$USRTIMER
 70
     1
  9
$ANGBASE
 50
0.0
  9
$ANGDIR
 70
     0
  9
$PDMODE
 70
     0
  9
$PDSIZE
 40
0.0
  9
$PLINEWID
 40
0.0
  9
$SPLFRAME
 70
     0
  9
$SPLINETYPE
 70
     6
  9
$SPLINESEGS
 70
     8
  9
$HANDSEED
  5
862
  9
$SURFTAB1
 70
     6
  9
$SURFTAB2
 70
     6
  9
$SURFTYPE
 70
     6
  9
$SURFU
 70
     6
  9
$SURFV
 70
     6
  9
$UCSBASE
  2

  9
$UCSNAME
  2

  9
$UCSORG
 10
0.0
 20
0.0
 30
0.0
  9
$UCSXDIR
 10
1.0
 20
0.0
 30
0.0
  9
$UCSYDIR
 10
0.0
 20
1.0
 30
0.0
  9
$UCSORTHOREF
  2

  9
$UCSORTHOVIEW
 70
     0
  9
$UCSORGTOP
 10
0.0
 20
0.0
 30
0.0
  9
$UCSORGBOTTOM
 10
0.0
 20
0.0
 30
0.0
  9
$UCSORGLEFT
 10
0.0
 20
0.0
 30
0.0
  9
$UCSORGRIGHT
 10
0.0
 20
0.0
 30
0.0
  9
$UCSORGFRONT
 10
0.0
 20
0.0
 30
0.0
  9
$UCSORGBACK
 10
0.0
 20
0.0
 30
0.0
  9
$PUCSBASE
  2

  9
$PUCSNAME
  2

  9
$PUCSORG
 10
0.0
 20
0.0
 30
0.0
  9
$PUCSXDIR
 10
1.0
 20
0.0
 30
0.0
  9
$PUCSYDIR
 10
0.0
 20
1.0
 30
0.0
  9
$PUCSORTHOREF
  2

  9
$PUCSORTHOVIEW
 70
     0
  9
$PUCSORGTOP
 10
0.0
 20
0.0
 30
0.0
  9
$PUCSORGBOTTOM
 10
0.0
 20
0.0
 30
0.0
  9
$PUCSORGLEFT
 10
0.0
 20
0.0
 30
0.0
  9
$PUCSORGRIGHT
 10
0.0
 20
0.0
 30
0.0
  9
$PUCSORGFRONT
 10
0.0
 20
0.0
 30
0.0
  9
$PUCSORGBACK
 10
0.0
 20
0.0
 30
0.0
  9
$USERI1
 70
     0
  9
$USERI2
 70
     0
  9
$USERI3
 70
     0
  9
$USERI4
 70
     0
  9
$USERI5
 70
     0
  9
$USERR1
 40
0.0
  9
$USERR2
 40
0.0
  9
$USERR3
 40
0.0
  9
$USERR4
 40
0.0
  9
$USERR5
 40
0.0
  9
$WORLDVIEW
 70
     1
  9
$SHADEDGE
 70
     3
  9
$SHADEDIF
 70
    70
  9
$TILEMODE
 70
     1
  9
$MAXACTVP
 70
    16
  9
$PINSBASE
 10
0.0
 20
0.0
 30
0.0
  9
$PLIMCHECK
 70
     0
  9
$PEXTMIN
 10
1.00000000E+20
 20
1.00000000E+20
 30
1.00000000E+20
  9
$PEXTMAX
 10
-1.00000000E+20
 20
-1.00000000E+20
 30
-1.00000000E+20
  9
$PLIMMIN
 10
0.0
 20
0.0
  9
$PLIMMAX
 10
12.0
 20
9.0
  9
$UNITMODE
 70
     0
  9
$VISRETAIN
 70
     0
  9
$PLINEGEN
 70
     0
  9
$PSLTSCALE
 70
     0
  9
$TREEDEPTH
 70
  3020
  9
$CMLSTYLE
  2
STANDARD
  9
$CMLJUST
 70
     0
  9
$CMLSCALE
 40
1.0
  9
$PROXYGRAPHICS
 70
     1
  9
$MEASUREMENT
 70
     1
  9
$CELWEIGHT
370
    -1
  9
$ENDCAPS
280
     0
  9
$JOINSTYLE
280
     0
  9
$LWDISPLAY
290
     0
  9
$INSUNITS
 70
     0
  9
$HYPERLINKBASE
  1

  9
$STYLESHEET
  1

  9
$XEDIT
290
     1
  9
$CEPSNTYPE
380
     0
  9
$PSTYLEMODE
290
     1
  9
$FINGERPRINTGUID
  2
{CAAB3654-21F1-BD49-8A1E-EB116D500C4B}
  9
$VERSIONGUID
  2
{F1233244-1E15-3F47-A324-98AD5AA4A286}
  9
$EXTNAMES
290
     1
  9
$PSVPSCALE
 40
0.0
  9
$OLESTARTUP
290
     0
  9
$SORTENTS
280
   127
  9
$INDEXCTL
280
     0
  9
$HIDETEXT
280
     0
  9
$XCLIPFRAME
290
     0
  9
$HALOGAP
280
     0
  9
$OBSCOLOR
 70
   257
  9
$OBSLTYPE
280
     0
  9
$INTERSECTIONDISPLAY
280
     0
  9
$INTERSECTIONCOLOR
 70
   257
  9
$DIMASSOC
280
     1
  9
$PROJECTNAME
  1

  0
ENDSEC
  0
SECTION
  2
CLASSES
  0
CLASS
  1
DICTIONARYVAR
  2
AcDbDictionaryVar
  3
ObjectDBX Classes
 90
        0
 91
        7
280
     0
281
     0
  0
CLASS
  1
ACDBDICTIONARYWDFLT
  2
AcDbDictionaryWithDefault
  3
ObjectDBX Classes
 90
        0
 91
        1
280
     1
281
     0
  0
CLASS
  1
MATERIAL
  2
AcDbMaterial
  3
ObjectDBX Classes
 90
     1153
 91
        3
280
     0
281
     0
  0
CLASS
  1
VISUALSTYLE
  2
AcDbVisualStyle
  3
ObjectDBX Classes
 90
     4095
 91
       24
280
     0
281
     0
  0
CLASS
  1
TABLESTYLE
  2
AcDbTableStyle
  3
ObjectDBX Classes
 90
     4095
 91
        1
280
     0
281
     0
  0
CLASS
  1
SCALE
  2
AcDbScale
  3
ObjectDBX Classes
 90
     1153
 91
       17
280
     0
281
     0
  0
CLASS
  1
MLEADERSTYLE
  2
AcDbMLeaderStyle
  3
ACDB_MLEADERSTYLE_CLASS
 90
     4095
 91
        1
280
     0
281
     0
  0
CLASS
  1
ACDBSECTIONVIEWSTYLE
  2
AcDbSectionViewStyle
  3
ObjectDBX Classes
 90
     1025
 91
        2
280
     0
281
     0
  0
CLASS
  1
ACDBDETAILVIEWSTYLE
  2
AcDbDetailViewStyle
  3
ObjectDBX Classes
 90
     1025
 91
        2
280
     0
281
     0
  0
CLASS
  1
RAPIDRTRENDERSETTINGS
  2
AcDbRapidRTRenderSettings
  3
ObjectDBX Classes
 90
     1024
 91
        1
280
     0
281
     0
  0
CLASS
  1
CELLSTYLEMAP
  2
AcDbCellStyleMap
  3
ObjectDBX Classes
 90
     1152
 91
        2
280
     0
281
     0
  0
CLASS
  1
MENTALRAYRENDERSETTINGS
  2
AcDbMentalRayRenderSettings
  3
SCENEOE
 90
     1024
 91
        1
280
     0
281
     0
  0
CLASS
  1
SOLID_BACKGROUND
  2
AcDbSolidBackground
  3
SCENEOE
 90
     4095
 91
        0
280
     0
281
     0
  0
CLASS
  1
NPOCOLLECTION
  2
AcDbImpNonPersistentObjectsCollection
  3
ObjectDBX Classes
 90
     1153
 91
        0
280
     0
281
     0
  0
ENDSEC
  0
SECTION
  2
TABLES
  0
TABLE
  2
VPORT
  5
16
102
{ACAD_XDICTIONARY
360
705
102
}
330
0
100
AcDbSymbolTable
 70
     1
  0
VPORT
  5
45
330
16
100
AcDbSymbolTableRecord
100
AcDbViewportTableRecord
  2
*ACTIVE
 70
     0
 10
0.0
 20
0.0
 11
1.0
 21
1.0
 12
6875.10092559
 22
4999.97164383
 13
0.0
 23
0.0
 14
1.0
 24
1.0
 15
10.0
 25
10.0
 16
0.0
 26
0.0
 36
1.0
 17
0.0
 27
0.0
 37
0.0
 40
10117.06024817
 41
2.57722008
 42
50.0
 43
0.0
 44
0.0
 50
0.0
 51
0.0
 71
     0
 72
   100
 73
     1
 74
     0
 75
     0
 76
     0
 77
     0
 78
     0
281
     0
 65
     1
110
0.0
120
0.0
130
0.0
111
1.0
121
0.0
131
0.0
112
0.0
122
1.0
132
0.0
 79
     0
146
0.0
1001
ACAD_NAV_VCDISPLAY
1070
     1
  0
ENDTAB
  0
TABLE
  2
LTYPE
  5
11
330
0
100
AcDbSymbolTable
 70
     3
  0
LTYPE
  5
12
330
11
100
AcDbSymbolTableRecord
100
AcDbLinetypeTableRecord
  2
BYBLOCK
 70
     0
  3

 72
    65
 73
     0
 40
0.0
  0
LTYPE
  5
13
330
11
100
AcDbSymbolTableRecord
100
AcDbLinetypeTableRecord
  2
BYLAYER
 70
     0
  3

 72
    65
 73
     0
 40
0.0
  0
LTYPE
  5
7
330
11
100
AcDbSymbolTableRecord
100
AcDbLinetypeTableRecord
  2
CONTINUOUS
 70
     0
  3
Solid line
 72
    65
 73
     0
 40
0.0
  0
LTYPE
  5
101
330
11
100
AcDbSymbolTableRecord
100
AcDbLinetypeTableRecord
  2
YDIVIDE_1
 70
     0
  3
2点鎖線尺度1-- - - -- - - ---
 72
    65
 73
     6
 40
15.0
 49
10.0
 74
     0
 49
-1.0
 74
     0
 49
1.0
 74
     0
 49
-1.0
 74
     0
 49
1.0
 74
     0
 49
-1.0
 74
     0
  0
LTYPE
  5
102
330
11
100
AcDbSymbolTableRecord
100
AcDbLinetypeTableRecord
  2
PHANTOM
 70
     0
  3
_____ _ _ _____ _ _ _____ _ _ _____ _ _ ____  
 72
    65
 73
     6
 40
15.5
 49
8.0
 74
     0
 49
-1.5
 74
     0
 49
1.5
 74
     0
 49
-1.5
 74
     0
 49
1.5
 74
     0
 49
-1.5
 74
     0
  0
ENDTAB
  0
TABLE
  2
LAYER
  5
E
102
{ACAD_XDICTIONARY
360
116
102
}
330
0
100
AcDbSymbolTable
 70
    11
  0
LAYER
  5
6
102
{ACAD_XDICTIONARY
360
B2
102
}
330
E
100
AcDbSymbolTableRecord
100
AcDbLayerTableRecord
  2
0
 70
     0
 62
     7
  6
CONTINUOUS
370
    -3
390
48
  0
LAYER
  5
24
102
{ACAD_XDICTIONARY
360
B4
102
}
330
E
100
AcDbSymbolTableRecord
100
AcDbLayerTableRecord
  2
YKK_F1
 70
     0
 62
     7
  6
CONTINUOUS
370
    -3
390
48
  0
LAYER
  5
103
330
E
100
AcDbSymbolTableRecord
100
AcDbLayerTableRecord
  2
YKK_A1
 70
     0
 62
     4
  6
CONTINUOUS
370
    30
390
48
1001
AcAecLayerStandard
1000

1000
姿図
  0
LAYER
  5
104
102
{ACAD_XDICTIONARY
360
105
102
}
330
E
100
AcDbSymbolTableRecord
100
AcDbLayerTableRecord
  2
YKK_B1
 70
     0
 62
     4
  6
CONTINUOUS
370
    -3
390
48
  0
LAYER
  5
106
102
{ACAD_XDICTIONARY
360
107
102
}
330
E
100
AcDbSymbolTableRecord
100
AcDbLayerTableRecord
  2
YKK_C1
 70
     0
 62
     4
  6
CONTINUOUS
370
    -3
390
48
  0
LAYER
  5
108
102
{ACAD_XDICTIONARY
360
109
102
}
330
E
100
AcDbSymbolTableRecord
100
AcDbLayerTableRecord
  2
YKK_N1
 70
     0
 62
     2
  6
CONTINUOUS
370
    -3
390
48
  0
LAYER
  5
10A
102
{ACAD_XDICTIONARY
360
10B
102
}
330
E
100
AcDbSymbolTableRecord
100
AcDbLayerTableRecord
  2
YKK_Z1
 70
     0
 62
     7
  6
CONTINUOUS
370
    -3
390
48
  0
LAYER
  5
10C
102
{ACAD_XDICTIONARY
360
10D
102
}
330
E
100
AcDbSymbolTableRecord
100
AcDbLayerTableRecord
  2
YKK_B2
 70
     0
 62
     5
  6
CONTINUOUS
370
    -3
390
48
  0
LAYER
  5
10E
102
{ACAD_XDICTIONARY
360
10F
102
}
330
E
100
AcDbSymbolTableRecord
100
AcDbLayerTableRecord
  2
YKK_C2
 70
     0
 62
     5
  6
CONTINUOUS
370
    -3
390
48
  0
LAYER
  5
110
330
E
100
AcDbSymbolTableRecord
100
AcDbLayerTableRecord
  2
YKK_B1E
 70
     2
 62
     7
  6
CONTINUOUS
370
    30
390
48
1001
AcAecLayerStandard
1000

1000
姿図
1001
AcCmTransparency
1071
        0
  0
LAYER
  5
111
330
E
100
AcDbSymbolTableRecord
100
AcDbLayerTableRecord
  2
YKK_C1E
 70
     2
 62
     7
  6
CONTINUOUS
370
    30
390
48
1001
AcAecLayerStandard
1000

1000
姿図
1001
AcCmTransparency
1071
        0
  0
ENDTAB
  0
TABLE
  2
STYLE
  5
F
330
0
100
AcDbSymbolTable
 70
     3
  0
STYLE
  5
10
330
F
100
AcDbSymbolTableRecord
100
AcDbTextStyleTableRecord
  2
STANDARD
 70
     0
 40
0.0
 41
1.0
 50
0.0
 71
     0
 42
0.2
  3
txt
  4

  0
STYLE
  5
3C
330
F
100
AcDbSymbolTableRecord
100
AcDbTextStyleTableRecord
  2
EXTFONT
 70
     0
 40
60.0
 41
1.0
 50
0.0
 71
     0
 42
60.0
  3
txt.shx
  4
EXTFONT
  0
STYLE
  5
112
330
F
100
AcDbSymbolTableRecord
100
AcDbTextStyleTableRecord
  2
MX_NOTE_STANDARD
 70
     0
 40
0.0
 41
1.0
 50
0.0
 71
     0
 42
3.0
  3
txt.shx
  4
extfont.shx
  0
ENDTAB
  0
TABLE
  2
VIEW
  5
14
330
0
100
AcDbSymbolTable
 70
     0
  0
ENDTAB
  0
TABLE
  2
UCS
  5
15
330
0
100
AcDbSymbolTable
 70
     0
  0
ENDTAB
  0
TABLE
  2
APPID
  5
18
330
0
100
AcDbSymbolTable
 70
     8
  0
APPID
  5
19
330
18
100
AcDbSymbolTableRecord
100
AcDbRegAppTableRecord
  2
ACAD
 70
     0
  0
APPID
  5
9E
330
18
100
AcDbSymbolTableRecord
100
AcDbRegAppTableRecord
  2
ACAD_NAV_VCDISPLAY
 70
     0
  0
APPID
  5
9F
330
18
100
AcDbSymbolTableRecord
100
AcDbRegAppTableRecord
  2
YKK_AP_LOCKLAYER
 70
     0
  0
APPID
  5
113
330
18
100
AcDbSymbolTableRecord
100
AcDbRegAppTableRecord
  2
AcAecLayerStandard
 70
     0
  0
APPID
  5
114
330
18
100
AcDbSymbolTableRecord
100
AcDbRegAppTableRecord
  2
YOBJCUT10427141548
 70
     0
  0
APPID
  5
115
330
18
100
AcDbSymbolTableRecord
100
AcDbRegAppTableRecord
  2
AcCmTransparency
 70
     0
  0
APPID
  5
6CE
330
18
100
AcDbSymbolTableRecord
100
AcDbRegAppTableRecord
  2
ACAD_EXEMPT_FROM_CAD_STANDARDS
 70
     0
  0
APPID
  5
73B
330
18
100
AcDbSymbolTableRecord
100
AcDbRegAppTableRecord
  2
ACAD_MLEADERVER
 70
     0
  0
ENDTAB
  0
TABLE
  2
DIMSTYLE
  5
1A
330
0
100
AcDbSymbolTable
 70
     1
100
AcDbDimStyleTable
 71
     1
340
20
  0
DIMSTYLE
105
20
330
1A
100
AcDbSymbolTableRecord
100
AcDbDimStyleTableRecord
  2
STANDARD
 70
     0
279
     2
340
10
  0
ENDTAB
  0
TABLE
  2
BLOCK_RECORD
  5
1
330
0
100
AcDbSymbolTable
 70
     0
  0
BLOCK_RECORD
  5
2
102
{ACAD_XDICTIONARY
360
3
102
}
330
1
100
AcDbSymbolTableRecord
100
AcDbBlockTableRecord
  2
*MODEL_SPACE
340
98
  0
BLOCK_RECORD
  5
9
102
{ACAD_XDICTIONARY
360
A
102
}
330
1
100
AcDbSymbolTableRecord
100
AcDbBlockTableRecord
  2
*PAPER_SPACE
340
99
  0
ENDTAB
  0
ENDSEC
  0
SECTION
  2
BLOCKS
  0
BLOCK
  5
5
330
2
100
AcDbEntity
  8
0
100
AcDbBlockBegin
  2
*MODEL_SPACE
 70
     0
 10
0.0
 20
0.0
 30
0.0
  3
*MODEL_SPACE
  1

  0
ENDBLK
  5
8
330
2
100
AcDbEntity
  8
0
100
AcDbBlockEnd
  0
BLOCK
  5
C
330
9
100
AcDbEntity
 67
     1
  8
0
100
AcDbBlockBegin
  2
*PAPER_SPACE
 70
     0
 10
0.0
 20
0.0
 30
0.0
  3
*PAPER_SPACE
  1

  0
ENDBLK
  5
D
330
9
100
AcDbEntity
 67
     1
  8
0
100
AcDbBlockEnd
  0
ENDSEC
  0
SECTION
  2
ENTITIES
  0
LINE
  5
2C
330
2
100
AcDbEntity
  8
YKK_F1
 62
     7
100
AcDbLine
 10
0.0
 20
9300.0
 30
0.0
 11
13500.0
 21
9300.0
 31
0.0
  0
LINE
  5
2D
330
2
100
AcDbEntity
  8
YKK_F1
 62
     7
100
AcDbLine
 10
0.0
 20
9525.0
 30
0.0
 11
13500.0
 21
9525.0
 31
0.0
  0
LINE
  5
32
330
2
100
AcDbEntity
  8
YKK_F1
 62
     7
100
AcDbLine
 10
0.0
 20
9750.0
 30
0.0
 11
13500.0
 21
9750.0
 31
0.0
  0
LINE
  5
33
330
2
100
AcDbEntity
  8
YKK_F1
 62
     7
100
AcDbLine
 10
0.0
 20
0.0
 30
0.0
 11
13750.0
 21
0.0
 31
0.0
  0
LINE
  5
34
330
2
100
AcDbEntity
  8
YKK_F1
 62
     7
100
AcDbLine
 10
0.0
 20
10000.0
 30
0.0
 11
13750.0
 21
10000.0
 31
0.0
  0
LINE
  5
3A
330
2
100
AcDbEntity
  8
YKK_F1
 62
     7
100
AcDbLine
 10
0.0
 20
0.0
 30
0.0
 11
0.0
 21
10000.0
 31
0.0
  0
TEXT
  5
3B
330
2
100
AcDbEntity
  8
0
100
AcDbText
 10
50.0
 20
9368.75
 30
0.0
 40
87.5
  1
新設窓W=642 H=1,170
  7
EXTFONT
100
AcDbText
  0
TEXT
  5
3D
330
2
100
AcDbEntity
  8
0
100
AcDbText
 10
50.0
 20
9593.75
 30
0.0
 40
87.5
  1
居室仕様 【既設窓】：FIX窓：樹脂窓 例：プラマード 【新設窓】：トリプルガラス樹脂窓 たてすべり出し窓 意匠図 
  7
EXTFONT
100
AcDbText
  0
TEXT
  5
3E
330
2
100
AcDbEntity
  8
0
100
AcDbText
 10
250.0
 20
9812.5
 30
0.0
 40
125.0
  1
ＭＡＤＲＸ０１　かんたんマドリモ　断熱窓　戸建用
  7
EXTFONT
100
AcDbText
  0
LINE
  5
3F
330
2
100
AcDbEntity
  8
YKK_F1
 62
     7
100
AcDbLine
 10
13500.0
 20
0.0
 30
0.0
 11
13500.0
 21
9750.0
 31
0.0
  0
LINE
  5
40
330
2
100
AcDbEntity
  8
YKK_F1
 62
     7
100
AcDbLine
 10
13750.0
 20
0.0
 30
0.0
 11
13750.0
 21
10000.0
 31
0.0
  0
LINE
  5
3C6
330
2
100
AcDbEntity
  8
YKK_Z1
  6
Continuous
 48
1.5
100
AcDbLine
 10
5770.01451065
 20
3216.99997279
 30
0.0
 11
5704.50428137
 21
3216.99997279
 31
0.0
  0
LINE
  5
3C7
330
2
100
AcDbEntity
  8
YKK_Z1
  6
Continuous
 48
1.5
100
AcDbLine
 10
5704.50428137
 20
3216.99997279
 30
0.0
 11
5704.50428137
 21
3111.99997279
 31
0.0
  0
LINE
  5
3C8
330
2
100
AcDbEntity
  8
YKK_Z1
  6
Continuous
 48
1.5
100
AcDbLine
 10
5704.50428137
 20
3111.99997279
 30
0.0
 11
5770.01451065
 21
3111.99997279
 31
0.0
  0
LINE
  5
3C9
330
2
100
AcDbEntity
  8
YKK_Z1
  6
Continuous
 48
1.5
100
AcDbLine
 10
5704.50428137
 20
3111.99997279
 30
0.0
 11
5770.01451065
 21
3177.51020207
 31
0.0
  0
LINE
  5
3CA
330
2
100
AcDbEntity
  8
YKK_Z1
  6
Continuous
 48
1.5
100
AcDbLine
 10
5704.50428137
 20
3216.99997279
 30
0.0
 11
5770.01451065
 21
3151.48974351
 31
0.0
  0
LINE
  5
3CB
330
2
100
AcDbEntity
  8
YKK_Z1
  6
Continuous
 48
1.5
100
AcDbLine
 10
5770.01451065
 20
3216.99587465
 30
0.0
 11
5704.50018323
 21
3216.99587465
 31
0.0
  0
LINE
  5
3CC
330
2
100
AcDbEntity
  8
YKK_Z1
 48
1.5
100
AcDbLine
 10
5737.00018323
 20
3216.99587465
 30
0.0
 11
5770.01451065
 21
3216.99587465
 31
0.0
  0
LINE
  5
3CD
330
2
100
AcDbEntity
  8
YKK_Z1
  6
Continuous
 48
1.5
100
AcDbLine
 10
7698.99999998
 20
5238.57775674
 30
0.0
 11
7698.99999998
 21
5196.07775674
 31
0.0
  0
LINE
  5
3CE
330
2
100
AcDbEntity
  8
YKK_Z1
  6
Continuous
 48
1.5
100
AcDbLine
 10
7698.99998445
 20
5145.53468345
 30
0.0
 11
7698.99998445
 21
5196.07775674
 31
0.0
  0
LINE
  5
3CF
330
2
100
AcDbEntity
  8
YKK_Z1
 48
1.5
100
AcDbLine
 10
7711.49999998
 20
5241.07774987
 30
0.0
 11
7698.99999998
 21
5241.07774987
 31
0.0
  0
LINE
  5
3D0
330
2
100
AcDbEntity
  8
YKK_Z1
 48
1.5
100
AcDbLine
 10
7698.99999998
 20
5145.53468345
 30
0.0
 11
7698.99999998
 21
5241.07774987
 31
0.0
1001
YOBJCUT10427141548
1000
DET2
  0
LINE
  5
3D1
330
2
100
AcDbEntity
  8
YKK_Z1
  6
Continuous
 48
1.5
100
AcDbLine
 10
7698.99999998
 20
6531.50010005
 30
0.0
 11
7698.99999998
 21
6574.00010005
 31
0.0
  0
LINE
  5
3D2
330
2
100
AcDbEntity
  8
YKK_Z1
  6
Continuous
 48
1.5
100
AcDbLine
 10
7698.99998445
 20
6647.81059734
 30
0.0
 11
7698.99998445
 21
6574.00010005
 31
0.0
  0
LINE
  5
3D3
330
2
100
AcDbEntity
  8
YKK_Z1
 48
1.5
100
AcDbLine
 10
7711.49999998
 20
6529.00010692
 30
0.0
 11
7698.99999998
 21
6529.00010692
 31
0.0
  0
LINE
  5
3D4
330
2
100
AcDbEntity
  8
YKK_Z1
 48
1.5
100
AcDbLine
 10
7698.99998445
 20
5206.07783776
 30
0.0
 11
7673.99998445
 21
5206.07783776
 31
0.0
  0
LINE
  5
3D5
330
2
100
AcDbEntity
  8
YKK_Z1
 48
1.5
100
AcDbLine
 10
7698.99999998
 20
5213.57774987
 30
0.0
 11
7698.99999998
 21
5176.86233324
 31
0.0
  0
LINE
  5
3D6
330
2
100
AcDbEntity
  8
YKK_Z1
 48
1.5
100
AcDbLine
 10
7643.99998445
 20
5216.07792611
 30
0.0
 11
7643.99998445
 21
5145.53468345
 31
0.0
  0
LINE
  5
3D7
330
2
100
AcDbEntity
  8
YKK_Z1
 48
1.5
100
AcDbLine
 10
7803.99999998
 20
6529.00010692
 30
0.0
 11
7698.99999998
 21
6524.00010692
 31
0.0
  0
LINE
  5
3D8
330
2
100
AcDbEntity
  8
YKK_C2
 48
1.5
100
AcDbLine
 10
7714.00000498
 20
5264.57774987
 30
0.0
 11
7816.00000552
 21
5264.57774987
 31
0.0
  0
LINE
  5
3D9
330
2
100
AcDbEntity
  8
YKK_Z1
 48
1.5
100
AcDbLine
 10
7698.99998445
 20
6559.00001903
 30
0.0
 11
7673.99998445
 21
6559.00001903
 31
0.0
  0
LINE
  5
3DA
330
2
100
AcDbEntity
  8
YKK_Z1
 48
1.5
100
AcDbLine
 10
7673.99998445
 20
6559.00001903
 30
0.0
 11
7673.99998445
 21
6595.71543565
 31
0.0
  0
LINE
  5
3DB
330
2
100
AcDbEntity
  8
YKK_Z1
 48
1.5
100
AcDbLine
 10
7643.99998445
 20
6548.99993067
 30
0.0
 11
7643.99998445
 21
6647.81059734
 31
0.0
  0
LINE
  5
3DC
330
2
100
AcDbEntity
  8
YKK_Z1
 48
1.5
100
AcDbLine
 10
7803.99999998
 20
5245.07774987
 30
0.0
 11
7728.99999998
 21
5241.07774987
 31
0.0
  0
LINE
  5
3DD
330
2
100
AcDbEntity
  8
YKK_Z1
 48
1.5
100
AcDbLine
 10
7803.99999998
 20
6524.00010692
 30
0.0
 11
7728.99999998
 21
6520.00010692
 31
0.0
  0
LINE
  5
3DE
330
2
100
AcDbEntity
  8
YKK_Z1
  6
Continuous
 48
1.5
100
AcDbLine
 10
4829.9855406
 20
3216.99587465
 30
0.0
 11
4895.49986802
 21
3216.99587465
 31
0.0
  0
LINE
  5
3DF
330
2
100
AcDbEntity
  8
YKK_Z1
 48
1.5
100
AcDbLine
 10
4863.49998442
 20
3216.99589018
 30
0.0
 11
4863.49998442
 21
3241.99589018
 31
0.0
  0
LINE
  5
3E0
330
2
100
AcDbEntity
  8
YKK_Z1
 48
1.5
100
AcDbLine
 10
4862.99986802
 20
3216.99587465
 30
0.0
 11
4829.9855406
 21
3216.99587465
 31
0.0
  0
LINE
  5
3E1
330
2
100
AcDbEntity
  8
YKK_Z1
 48
1.5
100
AcDbLine
 10
4881.000027
 20
3271.99589018
 30
0.0
 11
4829.9855406
 21
3271.99589018
 31
0.0
  0
LINE
  5
3E2
330
2
100
AcDbEntity
  8
YKK_Z1
 48
1.5
100
AcDbLine
 10
4895.49986802
 20
3216.99587465
 30
0.0
 11
4905.99986802
 21
3111.99587465
 31
0.0
  0
LINE
  5
3E3
330
2
100
AcDbEntity
  8
YKK_Z1
 48
1.5
100
AcDbLine
 10
4905.99997435
 20
3186.99853409
 30
0.0
 11
4909.99997435
 21
3111.99853409
 31
0.0
  0
LINE
  5
3E4
330
2
100
AcDbEntity
  8
YKK_C2
 48
1.5
100
AcDbLine
 10
7816.00001668
 20
5250.07774987
 30
0.0
 11
7816.00001668
 21
5264.57774987
 31
0.0
  0
LINE
  5
3E5
330
2
100
AcDbEntity
  8
YKK_Z1
 48
1.5
100
AcDbLine
 10
5736.50006683
 20
3216.99589018
 30
0.0
 11
5736.50006683
 21
3241.99589018
 31
0.0
  0
LINE
  5
3E6
330
2
100
AcDbEntity
  8
YKK_Z1
 48
1.5
100
AcDbLine
 10
5719.00002424
 20
3271.99589018
 30
0.0
 11
5770.01451065
 21
3271.99589018
 31
0.0
  0
LINE
  5
3E7
330
2
100
AcDbEntity
  8
YKK_Z1
 48
1.5
100
AcDbLine
 10
5704.50018323
 20
3216.99587465
 30
0.0
 11
5694.00018323
 21
3111.99587465
 31
0.0
  0
LINE
  5
3E8
330
2
100
AcDbEntity
  8
YKK_Z1
 48
1.5
100
AcDbLine
 10
5694.0000769
 20
3186.99853409
 30
0.0
 11
5690.0000769
 21
3111.99853409
 31
0.0
  0
LINE
  5
3E9
330
2
100
AcDbEntity
  8
YKK_Z1
  6
Continuous
 48
1.5
100
AcDbLine
 10
7803.99999998
 20
6647.81059734
 30
0.0
 11
7803.99999998
 21
6520.00010692
 31
0.0
  0
LINE
  5
3EA
330
2
100
AcDbEntity
  8
YKK_Z1
  6
Continuous
 48
1.5
100
AcDbLine
 10
7815.99999998
 20
6647.81059734
 30
0.0
 11
7815.99999998
 21
6520.00010692
 31
0.0
  0
LINE
  5
3EB
330
2
100
AcDbEntity
  8
YKK_Z1
 48
1.5
100
AcDbLine
 10
7803.99999998
 20
6520.00010692
 30
0.0
 11
7815.99999998
 21
6520.00010692
 31
0.0
  0
LINE
  5
3EC
330
2
100
AcDbEntity
  8
YKK_Z1
  6
Continuous
 48
1.5
100
AcDbLine
 10
7803.99999998
 20
6529.00011832
 30
0.0
 11
7803.99999998
 21
6574.00011832
 31
0.0
  0
LINE
  5
3ED
330
2
100
AcDbEntity
  8
YKK_Z1
  6
Continuous
 48
1.5
100
AcDbLine
 10
7803.99999998
 20
6574.00011832
 30
0.0
 11
7698.99999998
 21
6574.00011832
 31
0.0
  0
LINE
  5
3EE
330
2
100
AcDbEntity
  8
YKK_Z1
  6
Continuous
 48
1.5
100
AcDbLine
 10
7698.99999998
 20
6574.00011832
 30
0.0
 11
7698.99999998
 21
6529.00011832
 31
0.0
  0
LINE
  5
3EF
330
2
100
AcDbEntity
  8
YKK_Z1
  6
Continuous
 48
1.5
100
AcDbLine
 10
7698.99999998
 20
6529.00011832
 30
0.0
 11
7803.99999998
 21
6529.00011832
 31
0.0
  0
LINE
  5
3F0
330
2
100
AcDbEntity
  8
YKK_Z1
  6
Continuous
 48
1.5
100
AcDbLine
 10
7698.99999998
 20
6529.00011832
 30
0.0
 11
7803.99999998
 21
6574.00011832
 31
0.0
  0
LINE
  5
3F1
330
2
100
AcDbEntity
  8
YKK_Z1
  6
Continuous
 48
1.5
100
AcDbLine
 10
7816.00001668
 20
6520.00006318
 30
0.0
 11
7714.00003704
 21
6520.00006318
 31
0.0
  0
LINE
  5
3F2
330
2
100
AcDbEntity
  8
YKK_Z1
  6
Continuous
 48
1.5
100
AcDbLine
 10
7816.00001668
 20
6508.00006318
 30
0.0
 11
7714.00003704
 21
6508.00006318
 31
0.0
  0
LINE
  5
3F3
330
2
100
AcDbEntity
  8
YKK_Z1
 48
1.5
100
AcDbLine
 10
7714.00003704
 20
6520.00006318
 30
0.0
 11
7714.00003704
 21
6508.00006318
 31
0.0
  0
LINE
  5
3F4
330
2
100
AcDbEntity
  8
YKK_Z1
 48
1.5
100
AcDbLine
 10
7816.00001668
 20
6520.00010692
 30
0.0
 11
7816.00001668
 21
6508.00006318
 31
0.0
  0
LINE
  5
3F5
330
2
100
AcDbEntity
  8
YKK_Z1
  6
Continuous
 48
1.5
100
AcDbLine
 10
7803.99892228
 20
5145.53468345
 30
0.0
 11
7803.99892228
 21
5250.07774987
 31
0.0
  0
LINE
  5
3F6
330
2
100
AcDbEntity
  8
YKK_Z1
  6
Continuous
 48
1.5
100
AcDbLine
 10
7815.99892228
 20
5145.53468345
 30
0.0
 11
7815.99892228
 21
5250.07774987
 31
0.0
  0
LINE
  5
3F7
330
2
100
AcDbEntity
  8
YKK_C2
 48
1.5
100
AcDbLine
 10
7803.99892228
 20
5250.07774987
 30
0.0
 11
7815.99892228
 21
5250.07774987
 31
0.0
  0
LINE
  5
3F8
330
2
100
AcDbEntity
  8
YKK_Z1
  6
Continuous
 48
1.5
100
AcDbLine
 10
7803.99892228
 20
5196.07773847
 30
0.0
 11
7803.99892228
 21
5241.07773847
 31
0.0
  0
LINE
  5
3F9
330
2
100
AcDbEntity
  8
YKK_Z1
  6
Continuous
 48
1.5
100
AcDbLine
 10
7803.99892228
 20
5241.07773847
 30
0.0
 11
7698.99892228
 21
5241.07773847
 31
0.0
  0
LINE
  5
3FA
330
2
100
AcDbEntity
  8
YKK_Z1
  6
Continuous
 48
1.5
100
AcDbLine
 10
7698.99892228
 20
5241.07773847
 30
0.0
 11
7698.99892228
 21
5196.07773847
 31
0.0
  0
LINE
  5
3FB
330
2
100
AcDbEntity
  8
YKK_Z1
  6
Continuous
 48
1.5
100
AcDbLine
 10
7698.99892228
 20
5196.07773847
 30
0.0
 11
7803.99892228
 21
5196.07773847
 31
0.0
  0
LINE
  5
3FC
330
2
100
AcDbEntity
  8
YKK_Z1
  6
Continuous
 48
1.5
100
AcDbLine
 10
7698.99892228
 20
5196.07773847
 30
0.0
 11
7803.99892228
 21
5241.07773847
 31
0.0
  0
LINE
  5
3FD
330
2
100
AcDbEntity
  8
YKK_Z1
  6
Continuous
 48
1.5
100
AcDbLine
 10
5770.01451065
 20
3112.0
 30
0.0
 11
5690.00033263
 21
3112.0
 31
0.0
  0
LINE
  5
3FE
330
2
100
AcDbEntity
  8
YKK_Z1
  6
Continuous
 48
1.5
100
AcDbLine
 10
5770.01451065
 20
3100.0
 30
0.0
 11
5690.00033263
 21
3100.0
 31
0.0
  0
LINE
  5
3FF
330
2
100
AcDbEntity
  8
YKK_Z1
 48
1.5
100
AcDbLine
 10
5690.00033263
 20
3112.0
 30
0.0
 11
5690.00033263
 21
3100.0
 31
0.0
  0
LINE
  5
400
330
2
100
AcDbEntity
  8
YKK_Z1
  6
Continuous
 48
1.5
100
AcDbLine
 10
5690.00013949
 20
3100.0
 30
0.0
 11
5690.00013949
 21
3201.99585865
 31
0.0
  0
LINE
  5
401
330
2
100
AcDbEntity
  8
YKK_Z1
  6
Continuous
 48
1.5
100
AcDbLine
 10
5678.00013949
 20
3100.0
 30
0.0
 11
5678.00013949
 21
3201.99585865
 31
0.0
  0
LINE
  5
402
330
2
100
AcDbEntity
  8
YKK_Z1
 48
1.5
100
AcDbLine
 10
5690.00013949
 20
3201.99585865
 30
0.0
 11
5678.00013949
 21
3201.99585865
 31
0.0
  0
LINE
  5
403
330
2
100
AcDbEntity
  8
YKK_Z1
 48
1.5
100
AcDbLine
 10
5678.00013949
 20
3100.0
 30
0.0
 11
5690.00013949
 21
3100.0
 31
0.0
  0
LINE
  5
404
330
2
100
AcDbEntity
  8
YKK_Z1
  6
Continuous
 48
1.5
100
AcDbLine
 10
4829.99373689
 20
3112.0
 30
0.0
 11
4910.0079149
 21
3112.0
 31
0.0
  0
LINE
  5
405
330
2
100
AcDbEntity
  8
YKK_Z1
  6
Continuous
 48
1.5
100
AcDbLine
 10
4829.99373689
 20
3100.0
 30
0.0
 11
4910.0079149
 21
3100.0
 31
0.0
  0
LINE
  5
406
330
2
100
AcDbEntity
  8
YKK_Z1
 48
1.5
100
AcDbLine
 10
4910.0079149
 20
3112.0
 30
0.0
 11
4910.0079149
 21
3100.0
 31
0.0
  0
LINE
  5
407
330
2
100
AcDbEntity
  8
YKK_Z1
  6
Continuous
 48
1.5
100
AcDbLine
 10
4910.00810805
 20
3100.0
 30
0.0
 11
4910.00810805
 21
3201.99585865
 31
0.0
  0
LINE
  5
408
330
2
100
AcDbEntity
  8
YKK_Z1
  6
Continuous
 48
1.5
100
AcDbLine
 10
4922.00810805
 20
3100.0
 30
0.0
 11
4922.00810805
 21
3201.99585865
 31
0.0
  0
LINE
  5
409
330
2
100
AcDbEntity
  8
YKK_Z1
 48
1.5
100
AcDbLine
 10
4910.00810805
 20
3201.99585865
 30
0.0
 11
4922.00810805
 21
3201.99585865
 31
0.0
  0
LINE
  5
40A
330
2
100
AcDbEntity
  8
YKK_Z1
 48
1.5
100
AcDbLine
 10
4922.00810805
 20
3100.0
 30
0.0
 11
4910.00810805
 21
3100.0
 31
0.0
  0
LINE
  5
40B
330
2
100
AcDbEntity
  8
YKK_Z1
  6
Continuous
 48
1.5
100
AcDbLine
 10
4829.99373689
 20
3216.99997279
 30
0.0
 11
4895.50396616
 21
3216.99997279
 31
0.0
  0
LINE
  5
40C
330
2
100
AcDbEntity
  8
YKK_Z1
  6
Continuous
 48
1.5
100
AcDbLine
 10
4895.50396616
 20
3216.99997279
 30
0.0
 11
4895.50396616
 21
3111.99997279
 31
0.0
  0
LINE
  5
40D
330
2
100
AcDbEntity
  8
YKK_Z1
  6
Continuous
 48
1.5
100
AcDbLine
 10
4895.50396616
 20
3111.99997279
 30
0.0
 11
4829.99373689
 21
3111.99997279
 31
0.0
  0
LINE
  5
40E
330
2
100
AcDbEntity
  8
YKK_Z1
  6
Continuous
 48
1.5
100
AcDbLine
 10
4895.50396616
 20
3111.99997279
 30
0.0
 11
4829.99373689
 21
3177.51020207
 31
0.0
  0
LINE
  5
40F
330
2
100
AcDbEntity
  8
YKK_Z1
  6
Continuous
 48
1.5
100
AcDbLine
 10
4895.50396616
 20
3216.99997279
 30
0.0
 11
4829.99373689
 21
3151.48974351
 31
0.0
  0
LINE
  5
410
330
2
100
AcDbEntity
  8
YKK_Z1
  6
Continuous
 48
1.5
100
AcDbLine
 10
7699.00482421
 20
6481.00000011
 30
0.0
 11
7769.99992003
 21
6471.00000011
 31
0.0
  0
LINE
  5
411
330
2
100
AcDbEntity
  8
YKK_Z1
  6
Continuous
 48
1.5
100
AcDbLine
 10
7754.99992003
 20
6471.00000011
 30
0.0
 11
7769.99992003
 21
6456.0000001
 31
0.0
  0
LINE
  5
412
330
2
100
AcDbEntity
  8
YKK_Z1
  6
Continuous
 48
1.5
100
AcDbLine
 10
7769.99991606
 20
5283.99999999
 30
0.0
 11
7714.00010666
 21
5264.57774987
 31
0.0
  0
LINE
  5
413
330
2
100
AcDbEntity
  8
YKK_Z1
  6
Continuous
 48
1.5
100
AcDbLine
 10
7714.00003704
 20
6508.00006318
 30
0.0
 11
7769.99992003
 21
6481.00000011
 31
0.0
  0
LINE
  5
414
330
2
100
AcDbEntity
  8
YKK_Z1
  6
Continuous
 48
1.5
100
AcDbLine
 10
4948.99978441
 20
3183.49596593
 30
0.0
 11
4979.00000002
 21
3145.99596591
 31
0.0
  0
LINE
  5
415
330
2
100
AcDbEntity
  8
YKK_Z1
  6
Continuous
 48
1.5
100
AcDbLine
 10
5651.0002156
 20
3183.49589012
 30
0.0
 11
5620.99999999
 21
3145.9958901
 31
0.0
  0
LINE
  5
416
330
2
100
AcDbEntity
  8
YKK_Z1
  6
Continuous
 48
1.5
100
AcDbLine
 10
4922.00810805
 20
3201.99585865
 30
0.0
 11
4948.99978441
 21
3145.99596591
 31
0.0
  0
LINE
  5
417
330
2
100
AcDbEntity
  8
YKK_Z1
  6
Continuous
 48
1.5
100
AcDbLine
 10
5678.00013949
 20
3201.99585865
 30
0.0
 11
5651.0002156
 21
3145.9958901
 31
0.0
  0
LINE
  5
418
330
2
100
AcDbEntity
  8
YKK_Z1
100
AcDbLine
 10
4922.00810805
 20
3100.00000032
 30
0.0
 11
5678.00013949
 21
3100.00000155
 31
0.0
  0
LINE
  5
419
330
2
100
AcDbEntity
  8
YKK_Z1
100
AcDbLine
 10
7816.00001668
 20
5264.57774987
 30
0.0
 11
7816.00001668
 21
6508.00006318
 31
0.0
  0
LINE
  5
41A
330
2
100
AcDbEntity
  8
YKK_B2
100
AcDbLine
 10
5668.70013731
 20
3291.99596593
 30
0.0
 11
5700.54146528
 21
3286.99603162
 31
0.0
  0
LINE
  5
41B
330
2
100
AcDbEntity
  8
YKK_B2
100
AcDbLine
 10
4931.29986266
 20
3291.99596593
 30
0.0
 11
4899.4585347
 21
3286.99603162
 31
0.0
  0
LINE
  5
41C
330
2
100
AcDbEntity
  8
YKK_C2
100
AcDbLine
 10
7623.99991606
 20
6520.78406262
 30
0.0
 11
7628.99990843
 21
6538.00001537
 31
0.0
  0
LINE
  5
41D
330
2
100
AcDbEntity
  8
YKK_B2
  6
Continuous
 48
1.5
100
AcDbLine
 10
4890.99998442
 20
3268.08484774
 30
0.0
 11
4887.91101864
 21
3264.9958984
 31
0.0
  0
LINE
  5
41E
330
2
100
AcDbEntity
  8
YKK_B2
  6
Continuous
 48
1.5
100
AcDbLine
 10
4889.25417838
 20
3271.99589018
 30
0.0
 11
4882.25416439
 21
3264.99591346
 31
0.0
  0
LINE
  5
41F
330
2
100
AcDbEntity
  8
YKK_B2
  6
Continuous
 48
1.5
100
AcDbLine
 10
4883.59730907
 20
3271.99589018
 30
0.0
 11
4880.99999348
 21
3269.39858841
 31
0.0
  0
ARC
  5
420
330
2
100
AcDbEntity
  8
YKK_Z1
  6
Continuous
 48
1.5
100
AcDbCircle
 10
7654.99996049
 20
5217.07787022
 30
0.0
 40
1.000000000000472
100
AcDbArc
 50
269.99984751
 51
359.99984751
  0
LINE
  5
421
330
2
100
AcDbEntity
  8
YKK_Z1
  6
Continuous
 48
1.5
100
AcDbLine
 10
7655.99996049
 20
5217.07786756
 30
0.0
 11
7655.99998179
 21
5225.07788087
 31
0.0
  0
ARC
  5
422
330
2
100
AcDbEntity
  8
YKK_Z1
  6
Continuous
 48
1.5
100
AcDbCircle
 10
7654.99998179
 20
5225.07788353
 30
0.0
 40
0.9999999999999321
100
AcDbArc
 50
359.99984751
 51
90.0
  0
LINE
  5
423
330
2
100
AcDbEntity
  8
YKK_Z1
  6
Continuous
 48
1.5
100
AcDbLine
 10
7654.99998179
 20
5226.07788353
 30
0.0
 11
7651.99998179
 21
5226.07788353
 31
0.0
  0
ARC
  5
424
330
2
100
AcDbEntity
  8
YKK_Z1
  6
Continuous
 48
1.5
100
AcDbCircle
 10
7651.99998179
 20
5225.07788353
 30
0.0
 40
0.9999999999999431
100
AcDbArc
 50
90.0
 51
179.99984751
  0
LINE
  5
425
330
2
100
AcDbEntity
  8
YKK_Z1
  6
Continuous
 48
1.5
100
AcDbLine
 10
7650.99998179
 20
5225.07788619
 30
0.0
 11
7650.99996049
 21
5217.07788087
 31
0.0
  0
ARC
  5
426
330
2
100
AcDbEntity
  8
YKK_Z1
  6
Continuous
 48
1.5
100
AcDbCircle
 10
7651.99996049
 20
5217.07787821
 30
0.0
 40
1.000000000000472
100
AcDbArc
 50
179.99984751
 51
269.99984751
  0
LINE
  5
427
330
2
100
AcDbEntity
  8
YKK_Z1
  6
Continuous
 48
1.5
100
AcDbLine
 10
7651.99995783
 20
5216.07787821
 30
0.0
 11
7654.99995783
 21
5216.07787022
 31
0.0
  0
LINE
  5
428
330
2
100
AcDbEntity
  8
YKK_C2
  6
Continuous
 48
1.5
100
AcDbLine
 10
7644.74997473
 20
5222.42813031
 30
0.0
 11
7648.39974739
 21
5226.07788353
 31
0.0
  0
LINE
  5
429
330
2
100
AcDbEntity
  8
YKK_C2
  6
Continuous
 48
1.5
100
AcDbLine
 10
7644.05657928
 20
5216.07789935
 30
0.0
 11
7650.99997631
 21
5223.02125942
 31
0.0
  0
LINE
  5
42A
330
2
100
AcDbEntity
  8
YKK_C2
  6
Continuous
 48
1.5
100
AcDbLine
 10
7649.71343353
 20
5216.07788429
 30
0.0
 11
7650.99996126
 21
5217.36440517
 31
0.0
  0
LINE
  5
42B
330
2
100
AcDbEntity
  8
YKK_C2
  6
Continuous
 48
1.5
100
AcDbLine
 10
7643.99998445
 20
5226.07788353
 30
0.0
 11
7651.99998179
 21
5226.07788353
 31
0.0
  0
ARC
  5
42C
330
2
100
AcDbEntity
  8
YKK_Z1
  6
Continuous
 48
1.5
100
AcDbCircle
 10
7651.99998179
 20
5225.07788353
 30
0.0
 40
0.9999999999999431
100
AcDbArc
 50
90.0
 51
179.99984751
  0
LINE
  5
42D
330
2
100
AcDbEntity
  8
YKK_Z1
  6
Continuous
 48
1.5
100
AcDbLine
 10
7650.99998179
 20
5225.07788619
 30
0.0
 11
7650.99996049
 21
5217.07788087
 31
0.0
  0
ARC
  5
42E
330
2
100
AcDbEntity
  8
YKK_Z1
  6
Continuous
 48
1.5
100
AcDbCircle
 10
7651.99996049
 20
5217.07787821
 30
0.0
 40
1.000000000000472
100
AcDbArc
 50
179.99984751
 51
269.99984751
  0
LINE
  5
42F
330
2
100
AcDbEntity
  8
YKK_C2
  6
Continuous
 48
1.5
100
AcDbLine
 10
7651.99995783
 20
5216.07787821
 30
0.0
 11
7643.99995783
 21
5216.0778995
 31
0.0
  0
LINE
  5
430
330
2
100
AcDbEntity
  8
YKK_C2
  6
Continuous
 48
1.5
100
AcDbLine
 10
7643.99995783
 20
5216.0778995
 30
0.0
 11
7644.74995983
 21
5216.8278975
 31
0.0
  0
LINE
  5
431
330
2
100
AcDbEntity
  8
YKK_C2
  6
Continuous
 48
1.5
100
AcDbLine
 10
7644.74995983
 20
5216.8278975
 30
0.0
 11
7644.74998245
 21
5225.32788154
 31
0.0
  0
LINE
  5
432
330
2
100
AcDbEntity
  8
YKK_C2
  6
Continuous
 48
1.5
100
AcDbLine
 10
7644.74998245
 20
5225.32788154
 30
0.0
 11
7643.99998445
 21
5226.07788353
 31
0.0
  0
LINE
  5
433
330
2
100
AcDbEntity
  8
YKK_C2
  6
Continuous
 48
1.5
100
AcDbLine
 10
7643.99998445
 20
5226.07788353
 30
0.0
 11
7644.74998245
 21
5225.32788154
 31
0.0
  0
LINE
  5
434
330
2
100
AcDbEntity
  8
YKK_C2
  6
Continuous
 48
1.5
100
AcDbLine
 10
7644.74998245
 20
5225.32788154
 30
0.0
 11
7644.74995983
 21
5216.8278975
 31
0.0
  0
LINE
  5
435
330
2
100
AcDbEntity
  8
YKK_C2
  6
Continuous
 48
1.5
100
AcDbLine
 10
7644.74995983
 20
5216.8278975
 30
0.0
 11
7643.99995783
 21
5216.0778995
 31
0.0
  0
LINE
  5
436
330
2
100
AcDbEntity
  8
YKK_Z1
 48
1.5
100
AcDbLine
 10
7673.99998445
 20
5198.81133248
 30
0.0
 11
7673.99998445
 21
5206.07783776
 31
0.0
  0
LINE
  5
437
330
2
100
AcDbEntity
  8
YKK_Z1
 48
1.5
100
AcDbLine
 10
7673.99998445
 20
5191.5448272
 30
0.0
 11
7673.99998445
 21
5198.81133248
 31
0.0
  0
LINE
  5
438
330
2
100
AcDbEntity
  8
YKK_Z1
 48
1.5
100
AcDbLine
 10
7673.99998445
 20
5184.27832193
 30
0.0
 11
7673.99998445
 21
5191.5448272
 31
0.0
  0
LINE
  5
439
330
2
100
AcDbEntity
  8
YKK_Z1
 48
1.5
100
AcDbLine
 10
7673.99998445
 20
5177.01181665
 30
0.0
 11
7673.99998445
 21
5184.27832193
 31
0.0
  0
LINE
  5
43A
330
2
100
AcDbEntity
  8
YKK_Z1
 48
1.5
100
AcDbLine
 10
7673.99998445
 20
5169.74531137
 30
0.0
 11
7673.99998445
 21
5177.01181665
 31
0.0
  0
LINE
  5
43B
330
2
100
AcDbEntity
  8
YKK_Z1
 48
1.5
100
AcDbLine
 10
7698.99999998
 20
6524.00010692
 30
0.0
 11
7803.99999998
 21
6524.00010692
 31
0.0
  0
LINE
  5
43C
330
2
100
AcDbEntity
  8
YKK_Z1
 48
1.5
100
AcDbLine
 10
7803.99999998
 20
6524.00010692
 30
0.0
 11
7803.99999998
 21
6529.00010692
 31
0.0
  0
LINE
  5
43D
330
2
100
AcDbEntity
  8
YKK_Z1
 48
1.5
100
AcDbLine
 10
7803.99999998
 20
6529.00010692
 30
0.0
 11
7698.99999998
 21
6529.00010692
 31
0.0
  0
LINE
  5
43E
330
2
100
AcDbEntity
  8
YKK_Z1
 48
1.5
100
AcDbLine
 10
7698.99999998
 20
6529.00010692
 30
0.0
 11
7698.99999998
 21
6524.00010692
 31
0.0
  0
LINE
  5
43F
330
2
100
AcDbEntity
  8
YKK_Z1
 48
1.5
100
AcDbLine
 10
7673.99998445
 20
5162.4788061
 30
0.0
 11
7673.99998445
 21
5169.74531137
 31
0.0
  0
LINE
  5
440
330
2
100
AcDbEntity
  8
YKK_Z1
 48
1.5
100
AcDbLine
 10
7673.99998445
 20
5155.21230082
 30
0.0
 11
7673.99998445
 21
5162.4788061
 31
0.0
  0
LINE
  5
441
330
2
100
AcDbEntity
  8
YKK_Z1
 48
1.5
100
AcDbLine
 10
7673.99998445
 20
5153.86242113
 30
0.0
 11
7673.99998445
 21
5155.21230082
 31
0.0
  0
LINE
  5
442
330
2
100
AcDbEntity
  8
YKK_C2
  6
Continuous
 48
1.5
100
AcDbLine
 10
7731.47469001
 20
5245.07774958
 30
0.0
 11
7713.99997593
 21
5262.55246366
 31
0.0
  0
LINE
  5
443
330
2
100
AcDbEntity
  8
YKK_C2
  6
Continuous
 48
1.5
100
AcDbLine
 10
7749.4352021
 20
5245.07774973
 30
0.0
 11
7729.93520271
 21
5264.57774913
 31
0.0
  0
LINE
  5
444
330
2
100
AcDbEntity
  8
YKK_C2
  6
Continuous
 48
1.5
100
AcDbLine
 10
7767.39571419
 20
5245.07774989
 30
0.0
 11
7747.89571479
 21
5264.57774928
 31
0.0
  0
LINE
  5
445
330
2
100
AcDbEntity
  8
YKK_C2
  6
Continuous
 48
1.5
100
AcDbLine
 10
7785.35622628
 20
5245.07775004
 30
0.0
 11
7765.85622688
 21
5264.57774944
 31
0.0
  0
LINE
  5
446
330
2
100
AcDbEntity
  8
YKK_C2
  6
Continuous
 48
1.5
100
AcDbLine
 10
7803.31673837
 20
5245.07775019
 30
0.0
 11
7783.81673897
 21
5264.57774959
 31
0.0
  0
LINE
  5
447
330
2
100
AcDbEntity
  8
YKK_C2
  6
Continuous
 48
1.5
100
AcDbLine
 10
7816.00001668
 20
5250.35498413
 30
0.0
 11
7801.77725106
 21
5264.57774974
 31
0.0
  0
LINE
  5
448
330
2
100
AcDbEntity
  8
YKK_C2
  6
Continuous
 48
1.5
100
AcDbLine
 10
7816.00000552
 20
5264.57774987
 30
0.0
 11
7714.00000498
 21
5264.57774987
 31
0.0
  0
LINE
  5
449
330
2
100
AcDbEntity
  8
YKK_C2
  6
Continuous
 48
1.5
100
AcDbLine
 10
7816.00001668
 20
5264.57774987
 30
0.0
 11
7715.00002168
 21
5264.57774987
 31
0.0
  0
ARC
  5
44A
330
2
100
AcDbEntity
  8
YKK_Z1
  6
Continuous
 48
1.5
100
AcDbCircle
 10
7654.99996049
 20
6547.99998656
 30
0.0
 40
1.000000000000357
100
AcDbArc
 50
0.00015249
 51
90.00015249
  0
LINE
  5
44B
330
2
100
AcDbEntity
  8
YKK_Z1
  6
Continuous
 48
1.5
100
AcDbLine
 10
7655.99996049
 20
6547.99998922
 30
0.0
 11
7655.99998179
 21
6539.99997591
 31
0.0
  0
ARC
  5
44C
330
2
100
AcDbEntity
  8
YKK_Z1
  6
Continuous
 48
1.5
100
AcDbCircle
 10
7654.99998179
 20
6539.99997325
 30
0.0
 40
0.9999999999999321
100
AcDbArc
 50
270.0
 51
0.00015249
  0
LINE
  5
44D
330
2
100
AcDbEntity
  8
YKK_Z1
  6
Continuous
 48
1.5
100
AcDbLine
 10
7654.99998179
 20
6538.99997325
 30
0.0
 11
7651.99998179
 21
6538.99997325
 31
0.0
  0
ARC
  5
44E
330
2
100
AcDbEntity
  8
YKK_Z1
  6
Continuous
 48
1.5
100
AcDbCircle
 10
7651.99998179
 20
6539.99997325
 30
0.0
 40
1.0
100
AcDbArc
 50
180.00015249
 51
270.0
  0
LINE
  5
44F
330
2
100
AcDbEntity
  8
YKK_Z1
  6
Continuous
 48
1.5
100
AcDbLine
 10
7650.99998179
 20
6539.99997059
 30
0.0
 11
7650.99996049
 21
6547.99997591
 31
0.0
  0
ARC
  5
450
330
2
100
AcDbEntity
  8
YKK_Z1
  6
Continuous
 48
1.5
100
AcDbCircle
 10
7651.99996049
 20
6547.99997857
 30
0.0
 40
1.000000000000357
100
AcDbArc
 50
90.00015249
 51
180.00015249
  0
LINE
  5
451
330
2
100
AcDbEntity
  8
YKK_Z1
  6
Continuous
 48
1.5
100
AcDbLine
 10
7651.99995783
 20
6548.99997857
 30
0.0
 11
7654.99995783
 21
6548.99998656
 31
0.0
  0
LINE
  5
452
330
2
100
AcDbEntity
  8
YKK_C2
  6
Continuous
 48
1.5
100
AcDbLine
 10
7644.74997028
 20
6544.32420377
 30
0.0
 11
7649.42571334
 21
6548.99997172
 31
0.0
  0
LINE
  5
453
330
2
100
AcDbEntity
  8
YKK_C2
  6
Continuous
 48
1.5
100
AcDbLine
 10
7645.08260729
 20
6538.99997325
 30
0.0
 11
7650.9999687
 21
6544.91736615
 31
0.0
  0
LINE
  5
454
330
2
100
AcDbEntity
  8
YKK_C2
  6
Continuous
 48
1.5
100
AcDbLine
 10
7650.73944649
 20
6538.99997325
 30
0.0
 11
7651.17470935
 21
6539.43523843
 31
0.0
  0
LINE
  5
455
330
2
100
AcDbEntity
  8
YKK_C2
  6
Continuous
 48
1.5
100
AcDbLine
 10
7643.99998445
 20
6538.99997325
 30
0.0
 11
7651.99998179
 21
6538.99997325
 31
0.0
  0
ARC
  5
456
330
2
100
AcDbEntity
  8
YKK_Z1
  6
Continuous
 48
1.5
100
AcDbCircle
 10
7651.99998179
 20
6539.99997325
 30
0.0
 40
1.0
100
AcDbArc
 50
180.00015249
 51
270.0
  0
LINE
  5
457
330
2
100
AcDbEntity
  8
YKK_Z1
  6
Continuous
 48
1.5
100
AcDbLine
 10
7650.99998179
 20
6539.99997059
 30
0.0
 11
7650.99996049
 21
6547.99997591
 31
0.0
  0
ARC
  5
458
330
2
100
AcDbEntity
  8
YKK_Z1
  6
Continuous
 48
1.5
100
AcDbCircle
 10
7651.99996049
 20
6547.99997857
 30
0.0
 40
1.000000000000357
100
AcDbArc
 50
90.00015249
 51
180.00015249
  0
LINE
  5
459
330
2
100
AcDbEntity
  8
YKK_C2
  6
Continuous
 48
1.5
100
AcDbLine
 10
7651.99995783
 20
6548.99997857
 30
0.0
 11
7643.99995783
 21
6548.99995728
 31
0.0
  0
LINE
  5
45A
330
2
100
AcDbEntity
  8
YKK_C2
  6
Continuous
 48
1.5
100
AcDbLine
 10
7643.99995783
 20
6548.99995728
 30
0.0
 11
7644.74995983
 21
6548.24995928
 31
0.0
  0
LINE
  5
45B
330
2
100
AcDbEntity
  8
YKK_C2
  6
Continuous
 48
1.5
100
AcDbLine
 10
7644.74995983
 20
6548.24995928
 30
0.0
 11
7644.74998245
 21
6539.74997525
 31
0.0
  0
LINE
  5
45C
330
2
100
AcDbEntity
  8
YKK_C2
  6
Continuous
 48
1.5
100
AcDbLine
 10
7644.74998245
 20
6539.74997525
 30
0.0
 11
7643.99998445
 21
6538.99997325
 31
0.0
  0
LINE
  5
45D
330
2
100
AcDbEntity
  8
YKK_C2
  6
Continuous
 48
1.5
100
AcDbLine
 10
7643.99998445
 20
6538.99997325
 30
0.0
 11
7644.74998245
 21
6539.74997525
 31
0.0
  0
LINE
  5
45E
330
2
100
AcDbEntity
  8
YKK_C2
  6
Continuous
 48
1.5
100
AcDbLine
 10
7644.74998245
 20
6539.74997525
 30
0.0
 11
7644.74995983
 21
6548.24995928
 31
0.0
  0
LINE
  5
45F
330
2
100
AcDbEntity
  8
YKK_C2
  6
Continuous
 48
1.5
100
AcDbLine
 10
7644.74995983
 20
6548.24995928
 30
0.0
 11
7643.99995783
 21
6548.99995728
 31
0.0
  0
LINE
  5
460
330
2
100
AcDbEntity
  8
YKK_Z1
 48
1.5
100
AcDbLine
 10
7673.99998445
 20
6566.2665243
 30
0.0
 11
7673.99998445
 21
6559.00001903
 31
0.0
  0
LINE
  5
461
330
2
100
AcDbEntity
  8
YKK_Z1
 48
1.5
100
AcDbLine
 10
7673.99998445
 20
6573.53302958
 30
0.0
 11
7673.99998445
 21
6566.2665243
 31
0.0
  0
LINE
  5
462
330
2
100
AcDbEntity
  8
YKK_Z1
 48
1.5
100
AcDbLine
 10
7673.99998445
 20
6580.79953486
 30
0.0
 11
7673.99998445
 21
6573.53302958
 31
0.0
  0
LINE
  5
463
330
2
100
AcDbEntity
  8
YKK_Z1
 48
1.5
100
AcDbLine
 10
7673.99998445
 20
6588.06604013
 30
0.0
 11
7673.99998445
 21
6580.79953486
 31
0.0
  0
LINE
  5
464
330
2
100
AcDbEntity
  8
YKK_Z1
 48
1.5
100
AcDbLine
 10
7673.99998445
 20
6595.33254541
 30
0.0
 11
7673.99998445
 21
6588.06604013
 31
0.0
  0
LINE
  5
465
330
2
100
AcDbEntity
  8
YKK_Z1
 48
1.5
100
AcDbLine
 10
7673.99998445
 20
6602.59905069
 30
0.0
 11
7673.99998445
 21
6595.33254541
 31
0.0
  0
LINE
  5
466
330
2
100
AcDbEntity
  8
YKK_Z1
 48
1.5
100
AcDbLine
 10
7673.99998445
 20
6609.86555596
 30
0.0
 11
7673.99998445
 21
6602.59905069
 31
0.0
  0
LINE
  5
467
330
2
100
AcDbEntity
  8
YKK_Z1
 48
1.5
100
AcDbLine
 10
7673.99998445
 20
6611.21543565
 30
0.0
 11
7673.99998445
 21
6609.86555596
 31
0.0
  0
LINE
  5
468
330
2
100
AcDbEntity
  8
YKK_Z1
 48
1.5
100
AcDbLine
 10
7728.99999998
 20
5241.07774987
 30
0.0
 11
7803.99999998
 21
5241.07774987
 31
0.0
  0
LINE
  5
469
330
2
100
AcDbEntity
  8
YKK_Z1
 48
1.5
100
AcDbLine
 10
7803.99999998
 20
5241.07774987
 30
0.0
 11
7803.99999998
 21
5245.07774987
 31
0.0
  0
LINE
  5
46A
330
2
100
AcDbEntity
  8
YKK_Z1
 48
1.5
100
AcDbLine
 10
7803.99999998
 20
5245.07774987
 30
0.0
 11
7728.99999998
 21
5245.07774987
 31
0.0
  0
LINE
  5
46B
330
2
100
AcDbEntity
  8
YKK_Z1
 48
1.5
100
AcDbLine
 10
7728.99999998
 20
5245.07774987
 30
0.0
 11
7728.99999998
 21
5241.07774987
 31
0.0
  0
LINE
  5
46C
330
2
100
AcDbEntity
  8
YKK_Z1
 48
1.5
100
AcDbLine
 10
7728.99999998
 20
6520.00010692
 30
0.0
 11
7803.99999998
 21
6520.00010692
 31
0.0
  0
LINE
  5
46D
330
2
100
AcDbEntity
  8
YKK_Z1
 48
1.5
100
AcDbLine
 10
7803.99999998
 20
6520.00010692
 30
0.0
 11
7803.99999998
 21
6524.00010692
 31
0.0
  0
LINE
  5
46E
330
2
100
AcDbEntity
  8
YKK_Z1
 48
1.5
100
AcDbLine
 10
7803.99999998
 20
6524.00010692
 30
0.0
 11
7728.99999998
 21
6524.00010692
 31
0.0
  0
LINE
  5
46F
330
2
100
AcDbEntity
  8
YKK_Z1
 48
1.5
100
AcDbLine
 10
7728.99999998
 20
6524.00010692
 30
0.0
 11
7728.99999998
 21
6520.00010692
 31
0.0
  0
LINE
  5
470
330
2
100
AcDbEntity
  8
YKK_Z1
 48
1.5
100
AcDbLine
 10
7673.99998445
 20
5147.94579554
 30
0.0
 11
7673.99998445
 21
5155.21230082
 31
0.0
  0
ARC
  5
471
330
2
100
AcDbEntity
  8
YKK_Z1
  6
Continuous
 48
1.5
100
AcDbCircle
 10
4881.99997111
 20
3260.99591413
 30
0.0
 40
0.9999999999994487
100
AcDbArc
 50
179.99984751
 51
269.99984751
  0
LINE
  5
472
330
2
100
AcDbEntity
  8
YKK_Z1
  6
Continuous
 48
1.5
100
AcDbLine
 10
4881.99996845
 20
3259.99591413
 30
0.0
 11
4889.99998176
 21
3259.99589284
 31
0.0
  0
ARC
  5
473
330
2
100
AcDbEntity
  8
YKK_Z1
  6
Continuous
 48
1.5
100
AcDbCircle
 10
4889.99998442
 20
3260.99589284
 30
0.0
 40
0.9999999999995056
100
AcDbArc
 50
269.99984751
 51
0.0
  0
LINE
  5
474
330
2
100
AcDbEntity
  8
YKK_Z1
  6
Continuous
 48
1.5
100
AcDbLine
 10
4890.99998442
 20
3260.99589284
 30
0.0
 11
4890.99998442
 21
3263.99589284
 31
0.0
  0
ARC
  5
475
330
2
100
AcDbEntity
  8
YKK_Z1
  6
Continuous
 48
1.5
100
AcDbCircle
 10
4889.99998442
 20
3263.99589284
 30
0.0
 40
0.9999999999995452
100
AcDbArc
 50
0.0
 51
89.99984751
  0
LINE
  5
476
330
2
100
AcDbEntity
  8
YKK_Z1
  6
Continuous
 48
1.5
100
AcDbLine
 10
4889.99998708
 20
3264.99589284
 30
0.0
 11
4881.99998176
 21
3264.99591413
 31
0.0
  0
ARC
  5
477
330
2
100
AcDbEntity
  8
YKK_Z1
  6
Continuous
 48
1.5
100
AcDbCircle
 10
4881.9999791
 20
3263.99591413
 30
0.0
 40
1.000000000000357
100
AcDbArc
 50
89.99984751
 51
179.99984751
  0
LINE
  5
478
330
2
100
AcDbEntity
  8
YKK_Z1
  6
Continuous
 48
1.5
100
AcDbLine
 10
4880.9999791
 20
3263.99591679
 30
0.0
 11
4880.99997111
 21
3260.99591679
 31
0.0
  0
LINE
  5
479
330
2
100
AcDbEntity
  8
YKK_B2
  6
Continuous
 48
1.5
100
AcDbLine
 10
4890.99998442
 20
3271.99589018
 30
0.0
 11
4890.99998442
 21
3263.99589284
 31
0.0
  0
ARC
  5
47A
330
2
100
AcDbEntity
  8
YKK_Z1
  6
Continuous
 48
1.5
100
AcDbCircle
 10
4889.99998442
 20
3263.99589284
 30
0.0
 40
0.9999999999995452
100
AcDbArc
 50
0.0
 51
89.99984751
  0
LINE
  5
47B
330
2
100
AcDbEntity
  8
YKK_Z1
  6
Continuous
 48
1.5
100
AcDbLine
 10
4889.99998708
 20
3264.99589284
 30
0.0
 11
4881.99998176
 21
3264.99591413
 31
0.0
  0
ARC
  5
47C
330
2
100
AcDbEntity
  8
YKK_Z1
  6
Continuous
 48
1.5
100
AcDbCircle
 10
4881.9999791
 20
3263.99591413
 30
0.0
 40
1.000000000000357
100
AcDbArc
 50
89.99984751
 51
179.99984751
  0
LINE
  5
47D
330
2
100
AcDbEntity
  8
YKK_B2
  6
Continuous
 48
1.5
100
AcDbLine
 10
4880.9999791
 20
3263.99591679
 30
0.0
 11
4881.00000039
 21
3271.99591679
 31
0.0
  0
LINE
  5
47E
330
2
100
AcDbEntity
  8
YKK_B2
  6
Continuous
 48
1.5
100
AcDbLine
 10
4881.00000039
 20
3271.99591679
 30
0.0
 11
4881.75000039
 21
3271.99589018
 31
0.0
  0
LINE
  5
47F
330
2
100
AcDbEntity
  8
YKK_B2
  6
Continuous
 48
1.5
100
AcDbLine
 10
4881.75000039
 20
3271.99589018
 30
0.0
 11
4890.24998242
 21
3271.99589018
 31
0.0
  0
LINE
  5
480
330
2
100
AcDbEntity
  8
YKK_B2
  6
Continuous
 48
1.5
100
AcDbLine
 10
4890.24998242
 20
3271.99589018
 30
0.0
 11
4890.99998442
 21
3271.99589018
 31
0.0
  0
LINE
  5
481
330
2
100
AcDbEntity
  8
YKK_B2
  6
Continuous
 48
1.5
100
AcDbLine
 10
4890.99998442
 20
3271.99589018
 30
0.0
 11
4890.24998242
 21
3271.99589018
 31
0.0
  0
LINE
  5
482
330
2
100
AcDbEntity
  8
YKK_B2
  6
Continuous
 48
1.5
100
AcDbLine
 10
4890.24998242
 20
3271.99589018
 30
0.0
 11
4881.75000039
 21
3271.99589018
 31
0.0
  0
LINE
  5
483
330
2
100
AcDbEntity
  8
YKK_B2
  6
Continuous
 48
1.5
100
AcDbLine
 10
4881.75000039
 20
3271.99589018
 30
0.0
 11
4881.00000039
 21
3271.99591679
 31
0.0
  0
LINE
  5
484
330
2
100
AcDbEntity
  8
YKK_Z1
 48
1.5
100
AcDbLine
 10
4829.99373689
 20
3241.99589018
 30
0.0
 11
4834.43396331
 21
3241.99589018
 31
0.0
  0
LINE
  5
485
330
2
100
AcDbEntity
  8
YKK_Z1
 48
1.5
100
AcDbLine
 10
4834.43396331
 20
3241.99589018
 30
0.0
 11
4863.49998442
 21
3241.99589018
 31
0.0
  0
LINE
  5
486
330
2
100
AcDbEntity
  8
YKK_Z1
 48
1.5
100
AcDbLine
 10
4895.49986802
 20
3111.99587465
 30
0.0
 11
4905.99986802
 21
3111.99587465
 31
0.0
  0
LINE
  5
487
330
2
100
AcDbEntity
  8
YKK_Z1
 48
1.5
100
AcDbLine
 10
4905.99986802
 20
3111.99587465
 30
0.0
 11
4905.99986802
 21
3216.99587465
 31
0.0
  0
LINE
  5
488
330
2
100
AcDbEntity
  8
YKK_Z1
 48
1.5
100
AcDbLine
 10
4905.99986802
 20
3216.99587465
 30
0.0
 11
4895.49986802
 21
3216.99587465
 31
0.0
  0
LINE
  5
489
330
2
100
AcDbEntity
  8
YKK_Z1
 48
1.5
100
AcDbLine
 10
4895.49986802
 20
3216.99587465
 30
0.0
 11
4895.49986802
 21
3111.99587465
 31
0.0
  0
LINE
  5
48A
330
2
100
AcDbEntity
  8
YKK_Z1
 48
1.5
100
AcDbLine
 10
4909.99997435
 20
3111.99853409
 30
0.0
 11
4909.99997435
 21
3186.99853409
 31
0.0
  0
LINE
  5
48B
330
2
100
AcDbEntity
  8
YKK_Z1
 48
1.5
100
AcDbLine
 10
4909.99997435
 20
3186.99853409
 30
0.0
 11
4905.99997435
 21
3186.99853409
 31
0.0
  0
LINE
  5
48C
330
2
100
AcDbEntity
  8
YKK_Z1
 48
1.5
100
AcDbLine
 10
4905.99997435
 20
3186.99853409
 30
0.0
 11
4905.99997435
 21
3111.99853409
 31
0.0
  0
LINE
  5
48D
330
2
100
AcDbEntity
  8
YKK_Z1
 48
1.5
100
AcDbLine
 10
4905.99997435
 20
3111.99853409
 30
0.0
 11
4909.99997435
 21
3111.99853409
 31
0.0
  0
ARC
  5
48E
330
2
100
AcDbEntity
  8
YKK_Z1
  6
Continuous
 48
1.5
100
AcDbCircle
 10
5718.00008013
 20
3260.99591413
 30
0.0
 40
0.9999999999994487
100
AcDbArc
 50
270.00015249
 51
0.00015249
  0
LINE
  5
48F
330
2
100
AcDbEntity
  8
YKK_Z1
  6
Continuous
 48
1.5
100
AcDbLine
 10
5718.0000828
 20
3259.99591413
 30
0.0
 11
5710.00006949
 21
3259.99589284
 31
0.0
  0
ARC
  5
490
330
2
100
AcDbEntity
  8
YKK_Z1
  6
Continuous
 48
1.5
100
AcDbCircle
 10
5710.00006683
 20
3260.99589284
 30
0.0
 40
0.9999999999995056
100
AcDbArc
 50
180.0
 51
270.00015249
  0
LINE
  5
491
330
2
100
AcDbEntity
  8
YKK_Z1
  6
Continuous
 48
1.5
100
AcDbLine
 10
5709.00006683
 20
3260.99589284
 30
0.0
 11
5709.00006683
 21
3263.99589284
 31
0.0
  0
ARC
  5
492
330
2
100
AcDbEntity
  8
YKK_Z1
  6
Continuous
 48
1.5
100
AcDbCircle
 10
5710.00006683
 20
3263.99589284
 30
0.0
 40
0.9999999999995452
100
AcDbArc
 50
90.00015249
 51
180.0
  0
LINE
  5
493
330
2
100
AcDbEntity
  8
YKK_Z1
  6
Continuous
 48
1.5
100
AcDbLine
 10
5710.00006417
 20
3264.99589284
 30
0.0
 11
5718.00006949
 21
3264.99591413
 31
0.0
  0
ARC
  5
494
330
2
100
AcDbEntity
  8
YKK_Z1
  6
Continuous
 48
1.5
100
AcDbCircle
 10
5718.00007215
 20
3263.99591413
 30
0.0
 40
1.000000000000357
100
AcDbArc
 50
0.00015249
 51
90.00015249
  0
LINE
  5
495
330
2
100
AcDbEntity
  8
YKK_Z1
  6
Continuous
 48
1.5
100
AcDbLine
 10
5719.00007215
 20
3263.99591679
 30
0.0
 11
5719.00008013
 21
3260.99591679
 31
0.0
  0
LINE
  5
496
330
2
100
AcDbEntity
  8
YKK_B2
  6
Continuous
 48
1.5
100
AcDbLine
 10
5719.00005854
 20
3269.11086822
 30
0.0
 11
5714.88511806
 21
3264.99590584
 31
0.0
  0
LINE
  5
497
330
2
100
AcDbEntity
  8
YKK_B2
  6
Continuous
 48
1.5
100
AcDbLine
 10
5716.22822594
 20
3271.99589018
 30
0.0
 11
5709.00006683
 21
3264.76769259
 31
0.0
  0
LINE
  5
498
330
2
100
AcDbEntity
  8
YKK_B2
  6
Continuous
 48
1.5
100
AcDbLine
 10
5710.57138675
 20
3271.99589018
 30
0.0
 11
5709.00006683
 21
3270.42456189
 31
0.0
  0
LINE
  5
499
330
2
100
AcDbEntity
  8
YKK_B2
  6
Continuous
 48
1.5
100
AcDbLine
 10
5709.00006683
 20
3271.99589018
 30
0.0
 11
5709.00006683
 21
3263.99589284
 31
0.0
  0
ARC
  5
49A
330
2
100
AcDbEntity
  8
YKK_Z1
  6
Continuous
 48
1.5
100
AcDbCircle
 10
5710.00006683
 20
3263.99589284
 30
0.0
 40
0.9999999999995452
100
AcDbArc
 50
90.00015249
 51
180.0
  0
LINE
  5
49B
330
2
100
AcDbEntity
  8
YKK_Z1
  6
Continuous
 48
1.5
100
AcDbLine
 10
5710.00006417
 20
3264.99589284
 30
0.0
 11
5718.00006949
 21
3264.99591413
 31
0.0
  0
ARC
  5
49C
330
2
100
AcDbEntity
  8
YKK_Z1
  6
Continuous
 48
1.5
100
AcDbCircle
 10
5718.00007215
 20
3263.99591413
 30
0.0
 40
1.000000000000357
100
AcDbArc
 50
0.00015249
 51
90.00015249
  0
LINE
  5
49D
330
2
100
AcDbEntity
  8
YKK_B2
  6
Continuous
 48
1.5
100
AcDbLine
 10
5719.00007215
 20
3263.99591679
 30
0.0
 11
5719.00005086
 21
3271.99591679
 31
0.0
  0
LINE
  5
49E
330
2
100
AcDbEntity
  8
YKK_B2
  6
Continuous
 48
1.5
100
AcDbLine
 10
5719.00005086
 20
3271.99591679
 30
0.0
 11
5718.25005086
 21
3271.99589018
 31
0.0
  0
LINE
  5
49F
330
2
100
AcDbEntity
  8
YKK_B2
  6
Continuous
 48
1.5
100
AcDbLine
 10
5718.25005086
 20
3271.99589018
 30
0.0
 11
5709.75006882
 21
3271.99589018
 31
0.0
  0
LINE
  5
4A0
330
2
100
AcDbEntity
  8
YKK_B2
  6
Continuous
 48
1.5
100
AcDbLine
 10
5709.75006882
 20
3271.99589018
 30
0.0
 11
5709.00006683
 21
3271.99589018
 31
0.0
  0
LINE
  5
4A1
330
2
100
AcDbEntity
  8
YKK_B2
  6
Continuous
 48
1.5
100
AcDbLine
 10
5709.00006683
 20
3271.99589018
 30
0.0
 11
5709.75006882
 21
3271.99589018
 31
0.0
  0
LINE
  5
4A2
330
2
100
AcDbEntity
  8
YKK_B2
  6
Continuous
 48
1.5
100
AcDbLine
 10
5709.75006882
 20
3271.99589018
 30
0.0
 11
5718.25005086
 21
3271.99589018
 31
0.0
  0
LINE
  5
4A3
330
2
100
AcDbEntity
  8
YKK_B2
  6
Continuous
 48
1.5
100
AcDbLine
 10
5718.25005086
 20
3271.99589018
 30
0.0
 11
5719.00005086
 21
3271.99591679
 31
0.0
  0
LINE
  5
4A4
330
2
100
AcDbEntity
  8
YKK_Z1
 48
1.5
100
AcDbLine
 10
5743.7665721
 20
3241.99589018
 30
0.0
 11
5736.50006683
 21
3241.99589018
 31
0.0
  0
LINE
  5
4A5
330
2
100
AcDbEntity
  8
YKK_Z1
 48
1.5
100
AcDbLine
 10
5751.03307738
 20
3241.99589018
 30
0.0
 11
5743.7665721
 21
3241.99589018
 31
0.0
  0
LINE
  5
4A6
330
2
100
AcDbEntity
  8
YKK_Z1
 48
1.5
100
AcDbLine
 10
5770.01451065
 20
3241.99589018
 30
0.0
 11
5765.56608793
 21
3241.99589018
 31
0.0
  0
LINE
  5
4A7
330
2
100
AcDbEntity
  8
YKK_Z1
 48
1.5
100
AcDbLine
 10
5758.29958266
 20
3241.99589018
 30
0.0
 11
5751.03307738
 21
3241.99589018
 31
0.0
  0
LINE
  5
4A8
330
2
100
AcDbEntity
  8
YKK_Z1
 48
1.5
100
AcDbLine
 10
5765.56608793
 20
3241.99589018
 30
0.0
 11
5758.29958266
 21
3241.99589018
 31
0.0
  0
LINE
  5
4A9
330
2
100
AcDbEntity
  8
YKK_Z1
 48
1.5
100
AcDbLine
 10
5704.50018323
 20
3111.99587465
 30
0.0
 11
5694.00018323
 21
3111.99587465
 31
0.0
  0
LINE
  5
4AA
330
2
100
AcDbEntity
  8
YKK_Z1
 48
1.5
100
AcDbLine
 10
5694.00018323
 20
3111.99587465
 30
0.0
 11
5694.00018323
 21
3216.99587465
 31
0.0
  0
LINE
  5
4AB
330
2
100
AcDbEntity
  8
YKK_Z1
 48
1.5
100
AcDbLine
 10
5694.00018323
 20
3216.99587465
 30
0.0
 11
5704.50018323
 21
3216.99587465
 31
0.0
  0
LINE
  5
4AC
330
2
100
AcDbEntity
  8
YKK_Z1
 48
1.5
100
AcDbLine
 10
5704.50018323
 20
3216.99587465
 30
0.0
 11
5704.50018323
 21
3111.99587465
 31
0.0
  0
LINE
  5
4AD
330
2
100
AcDbEntity
  8
YKK_Z1
 48
1.5
100
AcDbLine
 10
5690.0000769
 20
3111.99853409
 30
0.0
 11
5690.0000769
 21
3186.99853409
 31
0.0
  0
LINE
  5
4AE
330
2
100
AcDbEntity
  8
YKK_Z1
 48
1.5
100
AcDbLine
 10
5690.0000769
 20
3186.99853409
 30
0.0
 11
5694.0000769
 21
3186.99853409
 31
0.0
  0
LINE
  5
4AF
330
2
100
AcDbEntity
  8
YKK_Z1
 48
1.5
100
AcDbLine
 10
5694.0000769
 20
3186.99853409
 30
0.0
 11
5694.0000769
 21
3111.99853409
 31
0.0
  0
LINE
  5
4B0
330
2
100
AcDbEntity
  8
YKK_Z1
 48
1.5
100
AcDbLine
 10
5694.0000769
 20
3111.99853409
 30
0.0
 11
5690.0000769
 21
3111.99853409
 31
0.0
  0
LINE
  5
4B1
330
2
100
AcDbEntity
  8
YKK_Z1
 48
1.5
100
AcDbLine
 10
7673.99998445
 20
6617.13206124
 30
0.0
 11
7673.99998445
 21
6609.86555596
 31
0.0
  0
LINE
  5
4B2
330
2
100
AcDbEntity
  8
YKK_Z1
 48
1.5
100
AcDbLine
 10
7673.99998445
 20
6624.39856651
 30
0.0
 11
7673.99998445
 21
6617.13206124
 31
0.0
  0
LINE
  5
4B3
330
2
100
AcDbEntity
  8
YKK_Z1
 48
1.5
100
AcDbLine
 10
7673.99998445
 20
6631.66507179
 30
0.0
 11
7673.99998445
 21
6624.39856651
 31
0.0
  0
LINE
  5
4B4
330
2
100
AcDbEntity
  8
YKK_Z1
 48
1.5
100
AcDbLine
 10
7673.99998445
 20
6638.93157707
 30
0.0
 11
7673.99998445
 21
6631.66507179
 31
0.0
  0
LINE
  5
4B5
330
2
100
AcDbEntity
  8
YKK_Z1
 48
1.5
100
AcDbLine
 10
7673.99998445
 20
6646.19808234
 30
0.0
 11
7673.99998445
 21
6638.93157707
 31
0.0
  0
LINE
  5
4B6
330
2
100
AcDbEntity
  8
YKK_Z1
  6
Continuous
 48
1.5
100
AcDbLine
 10
7699.00482421
 20
6481.00000011
 30
0.0
 11
7769.99992003
 21
6481.00000011
 31
0.0
  0
LINE
  5
4B7
330
2
100
AcDbEntity
  8
YKK_Z1
  6
Continuous
 48
1.5
100
AcDbLine
 10
7769.99992003
 20
6481.00000011
 30
0.0
 11
7769.99992003
 21
6471.00000011
 31
0.0
  0
LINE
  5
4B8
330
2
100
AcDbEntity
  8
YKK_Z1
  6
Continuous
 48
1.5
100
AcDbLine
 10
7769.99992003
 20
6471.00000011
 30
0.0
 11
7699.00482421
 21
6471.00000011
 31
0.0
  0
LINE
  5
4B9
330
2
100
AcDbEntity
  8
YKK_Z1
  6
Continuous
 48
1.5
100
AcDbLine
 10
7699.00482421
 20
6471.00000011
 30
0.0
 11
7699.00482421
 21
6481.00000011
 31
0.0
  0
LINE
  5
4BA
330
2
100
AcDbEntity
  8
YKK_Z1
  6
Continuous
 48
1.5
100
AcDbLine
 10
7754.99992003
 20
6471.00000011
 30
0.0
 11
7769.99992003
 21
6471.00000011
 31
0.0
  0
LINE
  5
4BB
330
2
100
AcDbEntity
  8
YKK_Z1
  6
Continuous
 48
1.5
100
AcDbLine
 10
7769.99992003
 20
6471.00000011
 30
0.0
 11
7769.99992003
 21
6456.0000001
 31
0.0
  0
LINE
  5
4BC
330
2
100
AcDbEntity
  8
YKK_Z1
  6
Continuous
 48
1.5
100
AcDbLine
 10
7769.99992003
 20
6456.0000001
 30
0.0
 11
7754.99992003
 21
6456.0000001
 31
0.0
  0
LINE
  5
4BD
330
2
100
AcDbEntity
  8
YKK_Z1
  6
Continuous
 48
1.5
100
AcDbLine
 10
7754.99992003
 20
6456.0000001
 30
0.0
 11
7754.99992003
 21
6471.00000011
 31
0.0
  0
LINE
  5
4BE
330
2
100
AcDbEntity
  8
YKK_Z1
  6
Continuous
 48
1.5
100
AcDbLine
 10
7714.00010666
 20
5283.99999999
 30
0.0
 11
7769.99991606
 21
5283.99999999
 31
0.0
  0
LINE
  5
4BF
330
2
100
AcDbEntity
  8
YKK_Z1
  6
Continuous
 48
1.5
100
AcDbLine
 10
7769.99991606
 20
5283.99999999
 30
0.0
 11
7769.99991606
 21
5264.57774987
 31
0.0
  0
LINE
  5
4C0
330
2
100
AcDbEntity
  8
YKK_Z1
  6
Continuous
 48
1.5
100
AcDbLine
 10
7769.99991606
 20
5264.57774987
 30
0.0
 11
7714.00010666
 21
5264.57774987
 31
0.0
  0
LINE
  5
4C1
330
2
100
AcDbEntity
  8
YKK_Z1
  6
Continuous
 48
1.5
100
AcDbLine
 10
7714.00010666
 20
5264.57774987
 30
0.0
 11
7714.00010666
 21
5283.99999999
 31
0.0
  0
LINE
  5
4C2
330
2
100
AcDbEntity
  8
YKK_Z1
  6
Continuous
 48
1.5
100
AcDbLine
 10
7714.00003704
 20
6508.00006318
 30
0.0
 11
7769.99992003
 21
6508.00006318
 31
0.0
  0
LINE
  5
4C3
330
2
100
AcDbEntity
  8
YKK_Z1
  6
Continuous
 48
1.5
100
AcDbLine
 10
7769.99992003
 20
6508.00006318
 30
0.0
 11
7769.99992003
 21
6481.00000011
 31
0.0
  0
LINE
  5
4C4
330
2
100
AcDbEntity
  8
YKK_Z1
  6
Continuous
 48
1.5
100
AcDbLine
 10
7769.99992003
 20
6481.00000011
 30
0.0
 11
7714.00003704
 21
6481.00000011
 31
0.0
  0
LINE
  5
4C5
330
2
100
AcDbEntity
  8
YKK_Z1
  6
Continuous
 48
1.5
100
AcDbLine
 10
7714.00003704
 20
6481.00000011
 30
0.0
 11
7714.00003704
 21
6508.00006318
 31
0.0
  0
LINE
  5
4C6
330
2
100
AcDbEntity
  8
YKK_Z1
  6
Continuous
 48
1.5
100
AcDbLine
 10
4979.00000002
 20
3183.49596593
 30
0.0
 11
4948.99978441
 21
3183.49596593
 31
0.0
  0
LINE
  5
4C7
330
2
100
AcDbEntity
  8
YKK_Z1
  6
Continuous
 48
1.5
100
AcDbLine
 10
4948.99978441
 20
3183.49596593
 30
0.0
 11
4948.99978441
 21
3145.99596591
 31
0.0
  0
LINE
  5
4C8
330
2
100
AcDbEntity
  8
YKK_Z1
  6
Continuous
 48
1.5
100
AcDbLine
 10
4948.99978441
 20
3145.99596591
 30
0.0
 11
4979.00000002
 21
3145.99596591
 31
0.0
  0
LINE
  5
4C9
330
2
100
AcDbEntity
  8
YKK_Z1
  6
Continuous
 48
1.5
100
AcDbLine
 10
4979.00000002
 20
3145.99596591
 30
0.0
 11
4979.00000002
 21
3183.49596593
 31
0.0
  0
LINE
  5
4CA
330
2
100
AcDbEntity
  8
YKK_Z1
  6
Continuous
 48
1.5
100
AcDbLine
 10
5620.99999999
 20
3183.49589012
 30
0.0
 11
5651.0002156
 21
3183.49589012
 31
0.0
  0
LINE
  5
4CB
330
2
100
AcDbEntity
  8
YKK_Z1
  6
Continuous
 48
1.5
100
AcDbLine
 10
5651.0002156
 20
3183.49589012
 30
0.0
 11
5651.0002156
 21
3145.9958901
 31
0.0
  0
LINE
  5
4CC
330
2
100
AcDbEntity
  8
YKK_Z1
  6
Continuous
 48
1.5
100
AcDbLine
 10
5651.0002156
 20
3145.9958901
 30
0.0
 11
5620.99999999
 21
3145.9958901
 31
0.0
  0
LINE
  5
4CD
330
2
100
AcDbEntity
  8
YKK_Z1
  6
Continuous
 48
1.5
100
AcDbLine
 10
5620.99999999
 20
3145.9958901
 30
0.0
 11
5620.99999999
 21
3183.49589012
 31
0.0
  0
LINE
  5
4CE
330
2
100
AcDbEntity
  8
YKK_Z1
  6
Continuous
 48
1.5
100
AcDbLine
 10
4922.00810805
 20
3201.99585865
 30
0.0
 11
4948.99978441
 21
3201.99585865
 31
0.0
  0
LINE
  5
4CF
330
2
100
AcDbEntity
  8
YKK_Z1
  6
Continuous
 48
1.5
100
AcDbLine
 10
4948.99978441
 20
3201.99585865
 30
0.0
 11
4948.99978441
 21
3145.99596591
 31
0.0
  0
LINE
  5
4D0
330
2
100
AcDbEntity
  8
YKK_Z1
  6
Continuous
 48
1.5
100
AcDbLine
 10
4948.99978441
 20
3145.99596591
 30
0.0
 11
4922.00810805
 21
3145.99596591
 31
0.0
  0
LINE
  5
4D1
330
2
100
AcDbEntity
  8
YKK_Z1
  6
Continuous
 48
1.5
100
AcDbLine
 10
4922.00810805
 20
3145.99596591
 30
0.0
 11
4922.00810805
 21
3201.99585865
 31
0.0
  0
LINE
  5
4D2
330
2
100
AcDbEntity
  8
YKK_Z1
  6
Continuous
 48
1.5
100
AcDbLine
 10
5678.00013949
 20
3201.99585865
 30
0.0
 11
5651.0002156
 21
3201.99585865
 31
0.0
  0
LINE
  5
4D3
330
2
100
AcDbEntity
  8
YKK_Z1
  6
Continuous
 48
1.5
100
AcDbLine
 10
5651.0002156
 20
3201.99585865
 30
0.0
 11
5651.0002156
 21
3145.9958901
 31
0.0
  0
LINE
  5
4D4
330
2
100
AcDbEntity
  8
YKK_Z1
  6
Continuous
 48
1.5
100
AcDbLine
 10
5651.0002156
 20
3145.9958901
 30
0.0
 11
5678.00013949
 21
3145.9958901
 31
0.0
  0
LINE
  5
4D5
330
2
100
AcDbEntity
  8
YKK_Z1
  6
Continuous
 48
1.5
100
AcDbLine
 10
5678.00013949
 20
3145.9958901
 30
0.0
 11
5678.00013949
 21
3201.99585865
 31
0.0
  0
LINE
  5
4D6
330
2
100
AcDbEntity
  8
YKK_C2
 48
1.5
100
AcDbLine
 10
7643.99995783
 20
6543.00000011
 30
0.0
 11
7643.99995783
 21
6550.00000011
 31
0.0
  0
LINE
  5
4D7
330
2
100
AcDbEntity
  8
YKK_C2
 48
1.5
100
AcDbLine
 10
7643.99995783
 20
6550.00000011
 30
0.0
 11
7636.99995783
 21
6543.00000011
 31
0.0
  0
LINE
  5
4D8
330
2
100
AcDbEntity
  8
YKK_C2
 48
1.5
100
AcDbLine
 10
7636.99995783
 20
6543.00000011
 30
0.0
 11
7643.99995783
 21
6543.00000011
 31
0.0
  0
LINE
  5
4D9
330
2
100
AcDbEntity
  8
YKK_C2
  6
Continuous
 48
1.5
100
AcDbLine
 10
7638.69790554
 20
6543.00000011
 30
0.0
 11
7643.99995783
 21
6548.30202418
 31
0.0
  0
LINE
  5
4DA
330
2
100
AcDbEntity
  8
YKK_C2
  6
Continuous
 48
1.5
100
AcDbLine
 10
7641.52634019
 20
6543.00000011
 30
0.0
 11
7643.99995783
 21
6545.47360458
 31
0.0
  0
LINE
  5
4DB
330
2
100
AcDbEntity
  8
YKK_C2
 48
1.5
100
AcDbLine
 10
7643.99998445
 20
5199.99999999
 30
0.0
 11
7636.99998445
 21
5199.99999999
 31
0.0
  0
LINE
  5
4DC
330
2
100
AcDbEntity
  8
YKK_C2
 48
1.5
100
AcDbLine
 10
7636.99998445
 20
5199.99999999
 30
0.0
 11
7643.99998445
 21
5192.99999999
 31
0.0
  0
LINE
  5
4DD
330
2
100
AcDbEntity
  8
YKK_C2
 48
1.5
100
AcDbLine
 10
7643.99998445
 20
5192.99999999
 30
0.0
 11
7643.99998445
 21
5199.99999999
 31
0.0
  0
LINE
  5
4DE
330
2
100
AcDbEntity
  8
YKK_C2
  6
Continuous
 48
1.5
100
AcDbLine
 10
7637.79619706
 20
5199.20378737
 30
0.0
 11
7638.59241392
 21
5199.99999999
 31
0.0
  0
LINE
  5
4DF
330
2
100
AcDbEntity
  8
YKK_C2
  6
Continuous
 48
1.5
100
AcDbLine
 10
7639.21041063
 20
5197.78957381
 30
0.0
 11
7641.42084857
 21
5199.99999999
 31
0.0
  0
LINE
  5
4E0
330
2
100
AcDbEntity
  8
YKK_C2
  6
Continuous
 48
1.5
100
AcDbLine
 10
7640.62462419
 20
5196.37536025
 30
0.0
 11
7643.99998445
 21
5199.75070254
 31
0.0
  0
LINE
  5
4E1
330
2
100
AcDbEntity
  8
YKK_C2
  6
Continuous
 48
1.5
100
AcDbLine
 10
7642.03883775
 20
5194.96114669
 30
0.0
 11
7643.99998445
 21
5196.92228294
 31
0.0
  0
LINE
  5
4E2
330
2
100
AcDbEntity
  8
YKK_C2
  6
Continuous
 48
1.5
100
AcDbLine
 10
7643.45305131
 20
5193.54693312
 30
0.0
 11
7643.99998445
 21
5194.09386334
 31
0.0
  0
LINE
  5
4E3
330
2
100
AcDbEntity
  8
YKK_B2
 48
1.5
100
AcDbLine
 10
4883.99999999
 20
3271.99589018
 30
0.0
 11
4883.99999999
 21
3278.99589018
 31
0.0
  0
LINE
  5
4E4
330
2
100
AcDbEntity
  8
YKK_B2
 48
1.5
100
AcDbLine
 10
4883.99999999
 20
3278.99589018
 30
0.0
 11
4876.99999999
 21
3271.99589018
 31
0.0
  0
LINE
  5
4E5
330
2
100
AcDbEntity
  8
YKK_B2
 48
1.5
100
AcDbLine
 10
4876.99999999
 20
3271.99589018
 30
0.0
 11
4883.99999999
 21
3271.99589018
 31
0.0
  0
LINE
  5
4E6
330
2
100
AcDbEntity
  8
YKK_B2
  6
Continuous
 48
1.5
100
AcDbLine
 10
4883.99999999
 20
3274.033168
 30
0.0
 11
4881.96271132
 21
3271.99589018
 31
0.0
  0
LINE
  5
4E7
330
2
100
AcDbEntity
  8
YKK_B2
  6
Continuous
 48
1.5
100
AcDbLine
 10
4883.99999999
 20
3276.8615876
 30
0.0
 11
4879.13427667
 21
3271.99589018
 31
0.0
  0
LINE
  5
4E8
330
2
100
AcDbEntity
  8
YKK_B2
 48
1.5
100
AcDbLine
 10
5716.00013731
 20
3271.99589018
 30
0.0
 11
5716.00013731
 21
3278.99589018
 31
0.0
  0
LINE
  5
4E9
330
2
100
AcDbEntity
  8
YKK_B2
 48
1.5
100
AcDbLine
 10
5716.00013731
 20
3278.99589018
 30
0.0
 11
5723.00013731
 21
3271.99589018
 31
0.0
  0
LINE
  5
4EA
330
2
100
AcDbEntity
  8
YKK_B2
 48
1.5
100
AcDbLine
 10
5723.00013731
 20
3271.99589018
 30
0.0
 11
5716.00013731
 21
3271.99589018
 31
0.0
  0
LINE
  5
4EB
330
2
100
AcDbEntity
  8
YKK_B2
  6
Continuous
 48
1.5
100
AcDbLine
 10
5716.00013731
 20
3278.20034166
 30
0.0
 11
5722.20455577
 21
3271.99589018
 31
0.0
  0
LINE
  5
4EC
330
2
100
AcDbEntity
  8
YKK_B2
  6
Continuous
 48
1.5
100
AcDbLine
 10
5716.00013731
 20
3275.37190701
 30
0.0
 11
5719.37613617
 21
3271.99589018
 31
0.0
  0
LINE
  5
4ED
330
2
100
AcDbEntity
  8
YKK_B2
  6
Continuous
 48
1.5
100
AcDbLine
 10
5716.00013731
 20
3272.54347235
 30
0.0
 11
5716.54771657
 21
3271.99589018
 31
0.0
  0
LINE
  5
4EE
330
2
100
AcDbEntity
  8
YKK_B2
  6
Continuous
100
AcDbLine
 10
5669.45988123
 20
3286.65801287
 30
0.0
 11
5673.96917249
 21
3291.16730413
 31
0.0
  0
LINE
  5
4EF
330
2
100
AcDbEntity
  8
YKK_B2
  6
Continuous
100
AcDbLine
 10
5670.068998
 20
3281.61027539
 30
0.0
 11
5678.85849573
 21
3290.39977312
 31
0.0
  0
LINE
  5
4F0
330
2
100
AcDbEntity
  8
YKK_B2
  6
Continuous
100
AcDbLine
 10
5676.11154278
 20
3281.99596592
 30
0.0
 11
5683.74781896
 21
3289.6322421
 31
0.0
  0
LINE
  5
4F1
330
2
100
AcDbEntity
  8
YKK_B2
  6
Continuous
100
AcDbLine
 10
5681.76839703
 20
3281.99596592
 30
0.0
 11
5688.6371422
 21
3288.86471109
 31
0.0
  0
LINE
  5
4F2
330
2
100
AcDbEntity
  8
YKK_B2
  6
Continuous
100
AcDbLine
 10
5687.42525128
 20
3281.99596592
 30
0.0
 11
5693.52646544
 21
3288.09718008
 31
0.0
  0
LINE
  5
4F3
330
2
100
AcDbEntity
  8
YKK_B2
  6
Continuous
100
AcDbLine
 10
5693.08210553
 20
3281.99596592
 30
0.0
 11
5698.41578867
 21
3287.32964907
 31
0.0
  0
LINE
  5
4F4
330
2
100
AcDbEntity
  8
YKK_B2
  6
Continuous
100
AcDbLine
 10
5698.28457773
 20
3281.54158387
 30
0.0
 11
5699.32470599
 21
3282.58171213
 31
0.0
  0
LINE
  5
4F5
330
2
100
AcDbEntity
  8
YKK_B2
  6
Continuous
100
AcDbLine
 10
4900.52912527
 20
3284.90301387
 30
0.0
 11
4903.21116066
 21
3287.58504926
 31
0.0
  0
LINE
  5
4F6
330
2
100
AcDbEntity
  8
YKK_B2
  6
Continuous
100
AcDbLine
 10
4903.27893158
 20
3281.99596592
 30
0.0
 11
4909.92139432
 21
3288.63842867
 31
0.0
  0
LINE
  5
4F7
330
2
100
AcDbEntity
  8
YKK_B2
  6
Continuous
100
AcDbLine
 10
4908.93578583
 20
3281.99596592
 30
0.0
 11
4916.63162799
 21
3289.69180808
 31
0.0
  0
LINE
  5
4F8
330
2
100
AcDbEntity
  8
YKK_B2
  6
Continuous
100
AcDbLine
 10
4914.59264008
 20
3281.99596592
 30
0.0
 11
4923.34186165
 21
3290.74518749
 31
0.0
  0
LINE
  5
4F9
330
2
100
AcDbEntity
  8
YKK_B2
  6
Continuous
100
AcDbLine
 10
4920.24949433
 20
3281.99596592
 30
0.0
 11
4929.94080524
 21
3291.68727684
 31
0.0
  0
LINE
  5
4FA
330
2
100
AcDbEntity
  8
YKK_B2
  6
Continuous
100
AcDbLine
 10
4925.90634857
 20
3281.99596592
 30
0.0
 11
4930.54312957
 21
3286.63274692
 31
0.0
  0
LINE
  5
4FB
330
2
100
AcDbEntity
  8
YKK_B2
  6
Continuous
100
AcDbLine
 10
4930.57907474
 20
3281.01183784
 30
0.0
 11
4930.92422713
 21
3281.35699023
 31
0.0
  0
LINE
  5
4FC
330
2
100
AcDbEntity
  8
YKK_C2
  6
Continuous
100
AcDbLine
 10
7626.26605325
 20
6521.86337157
 30
0.0
 11
7624.80281464
 21
6523.32661019
 31
0.0
  0
LINE
  5
4FD
330
2
100
AcDbEntity
  8
YKK_C2
  6
Continuous
100
AcDbLine
 10
7628.99991588
 20
6521.95793608
 30
0.0
 11
7625.43190102
 21
6525.52595093
 31
0.0
  0
LINE
  5
4FE
330
2
100
AcDbEntity
  8
YKK_C2
  6
Continuous
100
AcDbLine
 10
7628.99991456
 20
6524.78636451
 30
0.0
 11
7626.0609874
 21
6527.72529168
 31
0.0
  0
LINE
  5
4FF
330
2
100
AcDbEntity
  8
YKK_C2
  6
Continuous
100
AcDbLine
 10
7628.99991325
 20
6527.61479295
 30
0.0
 11
7626.69007378
 21
6529.92463242
 31
0.0
  0
LINE
  5
500
330
2
100
AcDbEntity
  8
YKK_C2
  6
Continuous
100
AcDbLine
 10
7628.99991194
 20
6530.44322139
 30
0.0
 11
7627.31916016
 21
6532.12397316
 31
0.0
  0
LINE
  5
501
330
2
100
AcDbEntity
  8
YKK_C2
  6
Continuous
100
AcDbLine
 10
7628.99991062
 20
6533.27164983
 30
0.0
 11
7627.94824655
 21
6534.3233139
 31
0.0
  0
LINE
  5
502
330
2
100
AcDbEntity
  8
YKK_C2
  6
Continuous
100
AcDbLine
 10
7628.99990931
 20
6536.10007827
 30
0.0
 11
7628.57733293
 21
6536.52265465
 31
0.0
  0
LINE
  5
503
330
2
100
AcDbEntity
  8
YKK_C1E
100
AcDbLine
 10
7699.00000043
 20
6559.00003708
 30
0.0
 11
7699.00000043
 21
6524.00013303
 31
0.0
  0
LINE
  5
504
330
2
100
AcDbEntity
  8
YKK_C1E
100
AcDbLine
 10
7699.00000043
 20
6538.9999973
 30
0.0
 11
7628.99992544
 21
6538.99999988
 31
0.0
  0
LINE
  5
505
330
2
100
AcDbEntity
  8
YKK_C1E
100
AcDbLine
 10
7628.99992544
 20
6538.99999988
 30
0.0
 11
7628.99990658
 21
6529.62468008
 31
0.0
  0
LINE
  5
506
330
2
100
AcDbEntity
  8
YKK_C1E
100
AcDbLine
 10
7628.99990658
 20
6529.62468008
 30
0.0
 11
7659.00001543
 21
6527.00008673
 31
0.0
  0
LINE
  5
507
330
2
100
AcDbEntity
  8
YKK_C1E
100
AcDbLine
 10
7728.99995443
 20
6523.99998488
 30
0.0
 11
7658.99999413
 21
6524.00033057
 31
0.0
  0
LINE
  5
508
330
2
100
AcDbEntity
  8
YKK_C1E
100
AcDbLine
 10
7713.99997743
 20
6524.00005896
 30
0.0
 11
7713.99995443
 21
6486.99973001
 31
0.0
  0
LINE
  5
509
330
2
100
AcDbEntity
  8
YKK_C1E
100
AcDbLine
 10
7713.99995443
 20
6486.99973001
 30
0.0
 11
7658.99973143
 21
6487.00012488
 31
0.0
  0
LINE
  5
50A
330
2
100
AcDbEntity
  8
YKK_C1E
100
AcDbLine
 10
7658.99973143
 20
6487.00012488
 30
0.0
 11
7658.99973334
 21
6538.99999878
 31
0.0
  0
LINE
  5
50B
330
2
100
AcDbEntity
  8
YKK_C1E
100
AcDbLine
 10
7699.00028443
 20
5206.00019272
 30
0.0
 11
7699.00028443
 21
5241.00009677
 31
0.0
  0
LINE
  5
50C
330
2
100
AcDbEntity
  8
YKK_C1E
100
AcDbLine
 10
7699.00028443
 20
5226.0002325
 30
0.0
 11
7629.00020944
 21
5226.00022992
 31
0.0
  0
LINE
  5
50D
330
2
100
AcDbEntity
  8
YKK_C1E
100
AcDbLine
 10
7629.00020944
 20
5226.00022992
 30
0.0
 11
7629.00019058
 21
5235.37554972
 31
0.0
  0
LINE
  5
50E
330
2
100
AcDbEntity
  8
YKK_C1E
100
AcDbLine
 10
7629.00019058
 20
5235.37554972
 30
0.0
 11
7659.00029943
 21
5238.00014307
 31
0.0
  0
LINE
  5
50F
330
2
100
AcDbEntity
  8
YKK_C1E
100
AcDbLine
 10
7729.00023843
 20
5241.00024492
 30
0.0
 11
7659.00001679
 21
5240.99989923
 31
0.0
  0
LINE
  5
510
330
2
100
AcDbEntity
  8
YKK_C1E
100
AcDbLine
 10
7714.00026143
 20
5241.00017084
 30
0.0
 11
7714.00023843
 21
5278.00049979
 31
0.0
  0
LINE
  5
511
330
2
100
AcDbEntity
  8
YKK_C1E
100
AcDbLine
 10
7714.00023843
 20
5278.00049979
 30
0.0
 11
7659.00001543
 21
5278.00010492
 31
0.0
  0
LINE
  5
512
330
2
100
AcDbEntity
  8
YKK_C1E
100
AcDbLine
 10
7659.00001543
 20
5278.00010492
 30
0.0
 11
7659.00001734
 21
5226.00023103
 31
0.0
  0
LINE
  5
513
330
2
100
AcDbEntity
  8
YKK_C1
100
AcDbLine
 10
7643.49991605
 20
5200.0
 30
0.0
 11
7609.19991605
 21
5200.0
 31
0.0
  0
LINE
  5
514
330
2
100
AcDbEntity
  8
YKK_C1
100
AcDbLine
 10
7609.19991605
 20
5200.0
 30
0.0
 11
7609.19991607
 21
5265.0
 31
0.0
  0
LINE
  5
515
330
2
100
AcDbEntity
  8
YKK_C1
100
AcDbLine
 10
7609.19991607
 20
5265.0
 30
0.0
 11
7621.49991605
 21
5265.0
 31
0.0
  0
LINE
  5
516
330
2
100
AcDbEntity
  8
YKK_C1
100
AcDbLine
 10
7621.49991605
 20
5265.0
 30
0.0
 11
7621.49991605
 21
5248.5
 31
0.0
  0
LINE
  5
517
330
2
100
AcDbEntity
  8
YKK_C1
100
AcDbLine
 10
7621.49991605
 20
5248.5
 30
0.0
 11
7609.19991607
 21
5248.5
 31
0.0
  0
LINE
  5
518
330
2
100
AcDbEntity
  8
YKK_C1
100
AcDbLine
 10
7641.50081686
 20
5283.99999998
 30
0.0
 11
7624.70081686
 21
5283.99999998
 31
0.0
  0
LINE
  5
519
330
2
100
AcDbEntity
  8
YKK_C1
100
AcDbLine
 10
7624.70081686
 20
5210.99999998
 30
0.0
 11
7624.70081686
 21
5283.99999998
 31
0.0
  0
LINE
  5
51A
330
2
100
AcDbEntity
  8
YKK_C1
100
AcDbLine
 10
7684.99991605
 20
5313.99999998
 30
0.0
 11
7754.99991605
 21
5313.99999998
 31
0.0
  0
LINE
  5
51B
330
2
100
AcDbEntity
  8
YKK_C1
100
AcDbLine
 10
7769.99991605
 20
5283.99999998
 30
0.0
 11
7639.99991605
 21
5283.99999998
 31
0.0
  0
LINE
  5
51C
330
2
100
AcDbEntity
  8
YKK_C1
100
AcDbLine
 10
7639.99991605
 20
5283.99999998
 30
0.0
 11
7639.99991605
 21
5296.00000001
 31
0.0
  0
LINE
  5
51D
330
2
100
AcDbEntity
  8
YKK_C1
100
AcDbLine
 10
7684.99991605
 20
5313.99999998
 30
0.0
 11
7684.99991605
 21
5283.99999998
 31
0.0
  0
LINE
  5
51E
330
2
100
AcDbEntity
  8
YKK_C1
100
AcDbLine
 10
7639.99991605
 20
5296.00000001
 30
0.0
 11
7684.99991605
 21
5298.35835047
 31
0.0
  0
LINE
  5
51F
330
2
100
AcDbEntity
  8
YKK_C1
100
AcDbLine
 10
7754.99991605
 20
5339.99999998
 30
0.0
 11
7754.99991605
 21
5283.99999998
 31
0.0
  0
LINE
  5
520
330
2
100
AcDbEntity
  8
YKK_C1
100
AcDbLine
 10
7740.99991607
 20
5329.99999973
 30
0.0
 11
7662.99991607
 21
5329.99999973
 31
0.0
  0
LINE
  5
521
330
2
100
AcDbEntity
  8
YKK_C1
100
AcDbLine
 10
7662.99991607
 20
5371.99999999
 30
0.0
 11
7662.99991607
 21
5305.99999973
 31
0.0
  0
LINE
  5
522
330
2
100
AcDbEntity
  8
YKK_C1
100
AcDbLine
 10
7740.99991607
 20
5329.99999973
 30
0.0
 11
7740.99991607
 21
5371.99999973
 31
0.0
  0
LINE
  5
523
330
2
100
AcDbEntity
  8
YKK_C1
100
AcDbLine
 10
7662.99991607
 20
5347.99999973
 30
0.0
 11
7740.99991607
 21
5347.99999973
 31
0.0
  0
LINE
  5
524
330
2
100
AcDbEntity
  8
YKK_C1
100
AcDbLine
 10
7684.99991605
 20
6424.00000011
 30
0.0
 11
7754.99991605
 21
6424.00000011
 31
0.0
  0
LINE
  5
525
330
2
100
AcDbEntity
  8
YKK_C1
100
AcDbLine
 10
7769.99991605
 20
6454.00000011
 30
0.0
 11
7639.99991605
 21
6454.00000011
 31
0.0
  0
LINE
  5
526
330
2
100
AcDbEntity
  8
YKK_C1
100
AcDbLine
 10
7639.99991605
 20
6454.00000011
 30
0.0
 11
7639.99991605
 21
6442.00000008
 31
0.0
  0
LINE
  5
527
330
2
100
AcDbEntity
  8
YKK_C1
100
AcDbLine
 10
7684.99991605
 20
6424.00000011
 30
0.0
 11
7684.99991605
 21
6454.00000011
 31
0.0
  0
LINE
  5
528
330
2
100
AcDbEntity
  8
YKK_C1
100
AcDbLine
 10
7639.99991605
 20
6442.00000008
 30
0.0
 11
7684.99991605
 21
6439.64164962
 31
0.0
  0
LINE
  5
529
330
2
100
AcDbEntity
  8
YKK_C1
100
AcDbLine
 10
7754.99991605
 20
6398.00000011
 30
0.0
 11
7754.99991605
 21
6454.00000011
 31
0.0
  0
LINE
  5
52A
330
2
100
AcDbEntity
  8
YKK_C1
100
AcDbLine
 10
7740.99991607
 20
6408.00000035
 30
0.0
 11
7662.99991607
 21
6408.00000035
 31
0.0
  0
LINE
  5
52B
330
2
100
AcDbEntity
  8
YKK_C1
100
AcDbLine
 10
7662.99991607
 20
6366.0000001
 30
0.0
 11
7662.99991607
 21
6432.00000035
 31
0.0
  0
LINE
  5
52C
330
2
100
AcDbEntity
  8
YKK_C1
100
AcDbLine
 10
7740.99991607
 20
6408.00000035
 30
0.0
 11
7740.99991607
 21
6366.00000035
 31
0.0
  0
LINE
  5
52D
330
2
100
AcDbEntity
  8
YKK_C1
100
AcDbLine
 10
7662.99991607
 20
6390.00000035
 30
0.0
 11
7740.99991607
 21
6390.00000035
 31
0.0
  0
LINE
  5
52E
330
2
100
AcDbEntity
  8
YKK_C1
100
AcDbLine
 10
7754.99992001
 20
6470.99999998
 30
0.0
 11
7754.99992001
 21
6453.99999998
 31
0.0
  0
LINE
  5
52F
330
2
100
AcDbEntity
  8
YKK_C1
100
AcDbLine
 10
7754.99992001
 20
6470.99999998
 30
0.0
 11
7698.49992001
 21
6471.00000037
 31
0.0
  0
LINE
  5
530
330
2
100
AcDbEntity
  8
YKK_C1
100
AcDbLine
 10
7698.49992001
 20
6471.00000037
 30
0.0
 11
7659.99992107
 21
6457.09999998
 31
0.0
  0
LINE
  5
531
330
2
100
AcDbEntity
  8
YKK_C1
100
AcDbLine
 10
7659.99992107
 20
6457.09999998
 30
0.0
 11
7639.99992001
 21
6457.09999998
 31
0.0
  0
LINE
  5
532
330
2
100
AcDbEntity
  8
YKK_C1
100
AcDbLine
 10
7639.99992001
 20
6470.99999998
 30
0.0
 11
7639.99992001
 21
6454.00000011
 31
0.0
  0
LINE
  5
533
330
2
100
AcDbEntity
  8
YKK_C1
100
AcDbLine
 10
7698.49992001
 20
6470.99999998
 30
0.0
 11
7698.49992001
 21
6454.00000011
 31
0.0
  0
LINE
  5
534
330
2
100
AcDbEntity
  8
YKK_C1
100
AcDbLine
 10
7716.29992001
 20
6454.00000011
 30
0.0
 11
7716.29992001
 21
6470.99999998
 31
0.0
  0
LINE
  5
535
330
2
100
AcDbEntity
  8
YKK_C1
100
AcDbLine
 10
7716.29992001
 20
6463.19999998
 30
0.0
 11
7698.49992001
 21
6463.19999998
 31
0.0
  0
LINE
  5
536
330
2
100
AcDbEntity
  8
YKK_C1
100
AcDbLine
 10
7643.49990813
 20
6543.0000001
 30
0.0
 11
7609.19990813
 21
6543.0000001
 31
0.0
  0
LINE
  5
537
330
2
100
AcDbEntity
  8
YKK_C1
100
AcDbLine
 10
7609.19990813
 20
6543.0000001
 30
0.0
 11
7609.19990814
 21
6478.00000011
 31
0.0
  0
LINE
  5
538
330
2
100
AcDbEntity
  8
YKK_C1
100
AcDbLine
 10
7609.19990814
 20
6478.00000011
 30
0.0
 11
7621.49990813
 21
6478.0000001
 31
0.0
  0
LINE
  5
539
330
2
100
AcDbEntity
  8
YKK_C1
100
AcDbLine
 10
7621.49990813
 20
6478.0000001
 30
0.0
 11
7621.49990813
 21
6494.5000001
 31
0.0
  0
LINE
  5
53A
330
2
100
AcDbEntity
  8
YKK_C1
100
AcDbLine
 10
7621.49990813
 20
6494.5000001
 30
0.0
 11
7609.19990814
 21
6494.50000009
 31
0.0
  0
LINE
  5
53B
330
2
100
AcDbEntity
  8
YKK_C1
100
AcDbLine
 10
7639.99992001
 20
6455.00000046
 30
0.0
 11
7622.99991605
 21
6455.00000046
 31
0.0
  0
LINE
  5
53C
330
2
100
AcDbEntity
  8
YKK_C1
100
AcDbLine
 10
7622.99991605
 20
6455.00000046
 30
0.0
 11
7622.99991605
 21
6520.99999953
 31
0.0
  0
LINE
  5
53D
330
2
100
AcDbEntity
  8
YKK_C1
100
AcDbLine
 10
7677.99535822
 20
6378.99945365
 30
0.0
 11
7677.99535827
 21
5357.0
 31
0.0
  0
LINE
  5
53E
330
2
100
AcDbEntity
  8
YKK_C1
100
AcDbLine
 10
7718.99535823
 20
6378.99945411
 30
0.0
 11
7718.99535825
 21
5357.0
 31
0.0
  0
LINE
  5
53F
330
2
100
AcDbEntity
  8
YKK_C1
100
AcDbLine
 10
7698.49535826
 20
5357.0
 30
0.0
 11
7698.49535821
 21
6378.99945365
 31
0.0
  0
LINE
  5
540
330
2
100
AcDbEntity
  8
YKK_C1
100
AcDbLine
 10
7609.20841802
 20
6468.00000011
 30
0.0
 11
7609.20841802
 21
5275.0
 31
0.0
  0
LINE
  5
541
330
2
100
AcDbEntity
  8
YKK_B1E
100
AcDbLine
 10
4870.99996521
 20
3216.99587479
 30
0.0
 11
4905.99989121
 21
3216.99587479
 31
0.0
  0
LINE
  5
542
330
2
100
AcDbEntity
  8
YKK_B1E
100
AcDbLine
 10
4905.9997192
 20
3256.99586269
 30
0.0
 11
4906.00002021
 21
3186.99600379
 31
0.0
  0
LINE
  5
543
330
2
100
AcDbEntity
  8
YKK_B1E
100
AcDbLine
 10
4942.99985821
 20
3256.99588179
 30
0.0
 11
4890.99998313
 21
3256.99586579
 31
0.0
  0
LINE
  5
544
330
2
100
AcDbEntity
  8
YKK_B1E
100
AcDbLine
 10
4890.99990421
 20
3216.99595648
 30
0.0
 11
4890.9999739
 21
3286.99595438
 31
0.0
  0
LINE
  5
545
330
2
100
AcDbEntity
  8
YKK_B1E
100
AcDbLine
 10
4890.9999739
 20
3286.99595438
 30
0.0
 11
4900.37529378
 21
3286.995977
 31
0.0
  0
LINE
  5
546
330
2
100
AcDbEntity
  8
YKK_B1E
100
AcDbLine
 10
4900.37529378
 20
3286.995977
 30
0.0
 11
4902.99989644
 21
3256.99586948
 31
0.0
  0
LINE
  5
547
330
2
100
AcDbEntity
  8
YKK_B1E
100
AcDbLine
 10
4942.99985821
 20
3256.99577379
 30
0.0
 11
4942.99992421
 21
3201.99594079
 31
0.0
  0
LINE
  5
548
330
2
100
AcDbEntity
  8
YKK_B1E
100
AcDbLine
 10
4942.99992421
 20
3201.99594079
 30
0.0
 11
4906.00011147
 21
3201.99594079
 31
0.0
  0
LINE
  5
549
330
2
100
AcDbEntity
  8
YKK_B1E
100
AcDbLine
 10
5729.00016514
 20
3216.99604153
 30
0.0
 11
5694.00023914
 21
3216.99604153
 31
0.0
  0
LINE
  5
54A
330
2
100
AcDbEntity
  8
YKK_B1E
100
AcDbLine
 10
5694.00041114
 20
3256.99602943
 30
0.0
 11
5694.00011014
 21
3186.99617053
 31
0.0
  0
LINE
  5
54B
330
2
100
AcDbEntity
  8
YKK_B1E
100
AcDbLine
 10
5657.00027214
 20
3256.99604853
 30
0.0
 11
5709.00014722
 21
3256.99603253
 31
0.0
  0
LINE
  5
54C
330
2
100
AcDbEntity
  8
YKK_B1E
100
AcDbLine
 10
5709.00022614
 20
3216.99612322
 30
0.0
 11
5709.00015645
 21
3286.99612112
 31
0.0
  0
LINE
  5
54D
330
2
100
AcDbEntity
  8
YKK_B1E
100
AcDbLine
 10
5709.00015645
 20
3286.99612112
 30
0.0
 11
5699.62483657
 21
3286.99614374
 31
0.0
  0
LINE
  5
54E
330
2
100
AcDbEntity
  8
YKK_B1E
100
AcDbLine
 10
5699.62483657
 20
3286.99614374
 30
0.0
 11
5697.0002339
 21
3256.99603623
 31
0.0
  0
LINE
  5
54F
330
2
100
AcDbEntity
  8
YKK_B1E
100
AcDbLine
 10
5657.00027214
 20
3256.99594053
 30
0.0
 11
5657.00020614
 21
3201.99610753
 31
0.0
  0
LINE
  5
550
330
2
100
AcDbEntity
  8
YKK_B1E
100
AcDbLine
 10
5657.00020614
 20
3201.99610753
 30
0.0
 11
5694.00001888
 21
3201.99610753
 31
0.0
  0
LINE
  5
551
330
2
100
AcDbEntity
  8
YKK_B1
100
AcDbLine
 10
4884.0
 20
3324.79554787
 30
0.0
 11
4933.99999999
 21
3324.79554787
 31
0.0
  0
LINE
  5
552
330
2
100
AcDbEntity
  8
YKK_B1
100
AcDbLine
 10
4933.99999999
 20
3324.79554787
 30
0.0
 11
4933.99999999
 21
3294.49596592
 31
0.0
  0
LINE
  5
553
330
2
100
AcDbEntity
  8
YKK_B1
100
AcDbLine
 10
4933.99999999
 20
3294.49596592
 30
0.0
 11
4949.0
 21
3294.49596592
 31
0.0
  0
LINE
  5
554
330
2
100
AcDbEntity
  8
YKK_B1
100
AcDbLine
 10
4949.0
 20
3294.49596592
 30
0.0
 11
4949.0
 21
3306.79596592
 31
0.0
  0
LINE
  5
555
330
2
100
AcDbEntity
  8
YKK_B1
100
AcDbLine
 10
4949.0
 20
3306.79596592
 30
0.0
 11
4934.0
 21
3306.79596592
 31
0.0
  0
LINE
  5
556
330
2
100
AcDbEntity
  8
YKK_B1
100
AcDbLine
 10
4884.0
 20
3272.49596592
 30
0.0
 11
4884.0
 21
3324.79554787
 31
0.0
  0
LINE
  5
557
330
2
100
AcDbEntity
  8
YKK_B1
100
AcDbLine
 10
4891.9
 20
3307.09596592
 30
0.0
 11
4884.0
 21
3307.09596592
 31
0.0
  0
LINE
  5
558
330
2
100
AcDbEntity
  8
YKK_B1
100
AcDbLine
 10
4920.49999989
 20
3307.09596592
 30
0.0
 11
4934.0
 21
3307.09596592
 31
0.0
  0
LINE
  5
559
330
2
100
AcDbEntity
  8
YKK_B1
100
AcDbLine
 10
4953.99999998
 20
3198.49596592
 30
0.0
 11
4953.99999998
 21
3234.09596592
 31
0.0
  0
LINE
  5
55A
330
2
100
AcDbEntity
  8
YKK_B1
100
AcDbLine
 10
4953.99999998
 20
3234.09596592
 30
0.0
 11
4973.99999998
 21
3234.09596592
 31
0.0
  0
LINE
  5
55B
330
2
100
AcDbEntity
  8
YKK_B1
100
AcDbLine
 10
4953.99999998
 20
3247.29596592
 30
0.0
 11
4973.99999998
 21
3247.29596592
 31
0.0
  0
LINE
  5
55C
330
2
100
AcDbEntity
  8
YKK_B1
100
AcDbLine
 10
4966.19999998
 20
3247.29596592
 30
0.0
 11
4966.19999998
 21
3234.09596592
 31
0.0
  0
LINE
  5
55D
330
2
100
AcDbEntity
  8
YKK_B1
100
AcDbLine
 10
4953.99999998
 20
3247.29596592
 30
0.0
 11
4953.99999998
 21
3291.99596592
 31
0.0
  0
LINE
  5
55E
330
2
100
AcDbEntity
  8
YKK_B1
100
AcDbLine
 10
4930.99999998
 20
3286.99596592
 30
0.0
 11
4930.99999998
 21
3291.99596592
 31
0.0
  0
LINE
  5
55F
330
2
100
AcDbEntity
  8
YKK_B1
100
AcDbLine
 10
4930.99999998
 20
3291.99596592
 30
0.0
 11
4986.99999998
 21
3291.99596592
 31
0.0
  0
LINE
  5
560
330
2
100
AcDbEntity
  8
YKK_B1
100
AcDbLine
 10
4986.99999998
 20
3291.99596592
 30
0.0
 11
4986.99999998
 21
3275.99596592
 31
0.0
  0
LINE
  5
561
330
2
100
AcDbEntity
  8
YKK_B1
100
AcDbLine
 10
4973.99999998
 20
3213.49596592
 30
0.0
 11
4953.99999998
 21
3213.49596592
 31
0.0
  0
LINE
  5
562
330
2
100
AcDbEntity
  8
YKK_B1
100
AcDbLine
 10
4973.99999998
 20
3213.49596592
 30
0.0
 11
4973.99999998
 21
3291.99596592
 31
0.0
  0
LINE
  5
563
330
2
100
AcDbEntity
  8
YKK_B1
100
AcDbLine
 10
4978.99999997
 20
3145.99595685
 30
0.0
 11
4978.99999997
 21
3275.99595685
 31
0.0
  0
LINE
  5
564
330
2
100
AcDbEntity
  8
YKK_B1
100
AcDbLine
 10
4978.99999997
 20
3275.99595685
 30
0.0
 11
4991.0
 21
3275.99595685
 31
0.0
  0
LINE
  5
565
330
2
100
AcDbEntity
  8
YKK_B1
100
AcDbLine
 10
4991.0
 20
3275.99595685
 30
0.0
 11
4993.35835046
 21
3230.99595685
 31
0.0
  0
LINE
  5
566
330
2
100
AcDbEntity
  8
YKK_B1
100
AcDbLine
 10
5034.99999997
 20
3160.99595685
 30
0.0
 11
4978.99999997
 21
3160.99595685
 31
0.0
  0
LINE
  5
567
330
2
100
AcDbEntity
  8
YKK_B1
100
AcDbLine
 10
5008.99999997
 20
3230.99595685
 30
0.0
 11
4978.99999997
 21
3230.99595685
 31
0.0
  0
LINE
  5
568
330
2
100
AcDbEntity
  8
YKK_B1
100
AcDbLine
 10
5008.99999997
 20
3230.99595685
 30
0.0
 11
5008.99999997
 21
3160.99595685
 31
0.0
  0
LINE
  5
569
330
2
100
AcDbEntity
  8
YKK_B1
100
AcDbLine
 10
5001.99999972
 20
3252.99595683
 30
0.0
 11
5067.99999997
 21
3252.99595683
 31
0.0
  0
LINE
  5
56A
330
2
100
AcDbEntity
  8
YKK_B1
100
AcDbLine
 10
5067.99999972
 20
3174.99595683
 30
0.0
 11
5025.99999972
 21
3174.99595683
 31
0.0
  0
LINE
  5
56B
330
2
100
AcDbEntity
  8
YKK_B1
100
AcDbLine
 10
5025.99999972
 20
3174.99595683
 30
0.0
 11
5025.99999972
 21
3252.99595683
 31
0.0
  0
LINE
  5
56C
330
2
100
AcDbEntity
  8
YKK_B1
100
AcDbLine
 10
5043.99999972
 20
3252.99595683
 30
0.0
 11
5043.99999972
 21
3174.99595683
 31
0.0
  0
LINE
  5
56D
330
2
100
AcDbEntity
  8
YKK_B1
100
AcDbLine
 10
5715.99999998
 20
3324.79554787
 30
0.0
 11
5665.99999999
 21
3324.79554787
 31
0.0
  0
LINE
  5
56E
330
2
100
AcDbEntity
  8
YKK_B1
100
AcDbLine
 10
5665.99999999
 20
3324.79554787
 30
0.0
 11
5665.99999999
 21
3294.49596592
 31
0.0
  0
LINE
  5
56F
330
2
100
AcDbEntity
  8
YKK_B1
100
AcDbLine
 10
5665.99999999
 20
3294.49596592
 30
0.0
 11
5650.99999998
 21
3294.49596592
 31
0.0
  0
LINE
  5
570
330
2
100
AcDbEntity
  8
YKK_B1
100
AcDbLine
 10
5650.99999998
 20
3294.49596592
 30
0.0
 11
5650.99999998
 21
3306.79596592
 31
0.0
  0
LINE
  5
571
330
2
100
AcDbEntity
  8
YKK_B1
100
AcDbLine
 10
5650.99999998
 20
3306.79596592
 30
0.0
 11
5665.99999998
 21
3306.79596592
 31
0.0
  0
LINE
  5
572
330
2
100
AcDbEntity
  8
YKK_B1
100
AcDbLine
 10
5715.99999998
 20
3272.49596592
 30
0.0
 11
5715.99999998
 21
3324.79554787
 31
0.0
  0
LINE
  5
573
330
2
100
AcDbEntity
  8
YKK_B1
100
AcDbLine
 10
5708.09999998
 20
3307.09596592
 30
0.0
 11
5715.99999998
 21
3307.09596592
 31
0.0
  0
LINE
  5
574
330
2
100
AcDbEntity
  8
YKK_B1
100
AcDbLine
 10
5679.50000009
 20
3307.09596592
 30
0.0
 11
5665.99999998
 21
3307.09596592
 31
0.0
  0
LINE
  5
575
330
2
100
AcDbEntity
  8
YKK_B1
100
AcDbLine
 10
5646.0
 20
3198.49596592
 30
0.0
 11
5646.0
 21
3234.09596592
 31
0.0
  0
LINE
  5
576
330
2
100
AcDbEntity
  8
YKK_B1
100
AcDbLine
 10
5646.0
 20
3234.09596592
 30
0.0
 11
5626.0
 21
3234.09596592
 31
0.0
  0
LINE
  5
577
330
2
100
AcDbEntity
  8
YKK_B1
100
AcDbLine
 10
5646.0
 20
3247.29596592
 30
0.0
 11
5626.0
 21
3247.29596592
 31
0.0
  0
LINE
  5
578
330
2
100
AcDbEntity
  8
YKK_B1
100
AcDbLine
 10
5633.8
 20
3247.29596592
 30
0.0
 11
5633.8
 21
3234.09596592
 31
0.0
  0
LINE
  5
579
330
2
100
AcDbEntity
  8
YKK_B1
100
AcDbLine
 10
5646.0
 20
3247.29596592
 30
0.0
 11
5646.0
 21
3291.99596592
 31
0.0
  0
LINE
  5
57A
330
2
100
AcDbEntity
  8
YKK_B1
100
AcDbLine
 10
5669.0
 20
3286.99596592
 30
0.0
 11
5669.0
 21
3291.99596592
 31
0.0
  0
LINE
  5
57B
330
2
100
AcDbEntity
  8
YKK_B1
100
AcDbLine
 10
5669.0
 20
3291.99596592
 30
0.0
 11
5613.0
 21
3291.99596592
 31
0.0
  0
LINE
  5
57C
330
2
100
AcDbEntity
  8
YKK_B1
100
AcDbLine
 10
5613.0
 20
3291.99596592
 30
0.0
 11
5613.0
 21
3275.99596592
 31
0.0
  0
LINE
  5
57D
330
2
100
AcDbEntity
  8
YKK_B1
100
AcDbLine
 10
5626.0
 20
3213.49596592
 30
0.0
 11
5646.0
 21
3213.49596592
 31
0.0
  0
LINE
  5
57E
330
2
100
AcDbEntity
  8
YKK_B1
100
AcDbLine
 10
5626.0
 20
3213.49596592
 30
0.0
 11
5626.0
 21
3291.99596592
 31
0.0
  0
LINE
  5
57F
330
2
100
AcDbEntity
  8
YKK_B1
100
AcDbLine
 10
5621.0
 20
3145.99595685
 30
0.0
 11
5621.0
 21
3275.99595685
 31
0.0
  0
LINE
  5
580
330
2
100
AcDbEntity
  8
YKK_B1
100
AcDbLine
 10
5621.0
 20
3275.99595685
 30
0.0
 11
5608.99999998
 21
3275.99595685
 31
0.0
  0
LINE
  5
581
330
2
100
AcDbEntity
  8
YKK_B1
100
AcDbLine
 10
5608.99999998
 20
3275.99595685
 30
0.0
 11
5606.64164952
 21
3230.99595685
 31
0.0
  0
LINE
  5
582
330
2
100
AcDbEntity
  8
YKK_B1
100
AcDbLine
 10
5565.0
 20
3160.99595685
 30
0.0
 11
5621.0
 21
3160.99595685
 31
0.0
  0
LINE
  5
583
330
2
100
AcDbEntity
  8
YKK_B1
100
AcDbLine
 10
5591.0
 20
3230.99595685
 30
0.0
 11
5621.0
 21
3230.99595685
 31
0.0
  0
LINE
  5
584
330
2
100
AcDbEntity
  8
YKK_B1
100
AcDbLine
 10
5591.0
 20
3230.99595685
 30
0.0
 11
5591.0
 21
3160.99595685
 31
0.0
  0
LINE
  5
585
330
2
100
AcDbEntity
  8
YKK_B1
100
AcDbLine
 10
5598.00000026
 20
3252.99595683
 30
0.0
 11
5532.00000001
 21
3252.99595683
 31
0.0
  0
LINE
  5
586
330
2
100
AcDbEntity
  8
YKK_B1
100
AcDbLine
 10
5532.00000026
 20
3174.99595683
 30
0.0
 11
5574.00000026
 21
3174.99595683
 31
0.0
  0
LINE
  5
587
330
2
100
AcDbEntity
  8
YKK_B1
100
AcDbLine
 10
5574.00000026
 20
3174.99595683
 30
0.0
 11
5574.00000026
 21
3252.99595683
 31
0.0
  0
LINE
  5
588
330
2
100
AcDbEntity
  8
YKK_B1
100
AcDbLine
 10
5556.00000026
 20
3252.99595683
 30
0.0
 11
5556.00000026
 21
3174.99595683
 31
0.0
  0
LINE
  5
589
330
2
100
AcDbEntity
  8
YKK_B1
100
AcDbLine
 10
5053.99999994
 20
3238.00051456
 30
0.0
 11
5545.99945361
 21
3238.00051453
 31
0.0
  0
LINE
  5
58A
330
2
100
AcDbEntity
  8
YKK_B1
100
AcDbLine
 10
5545.99945382
 20
3217.50051454
 30
0.0
 11
5053.99999973
 21
3217.50051456
 31
0.0
  0
LINE
  5
58B
330
2
100
AcDbEntity
  8
YKK_B1
100
AcDbLine
 10
5053.99999952
 20
3197.00051456
 30
0.0
 11
5545.99945403
 21
3197.00051454
 31
0.0
  0
LINE
  5
58C
330
2
100
AcDbEntity
  8
YKK_B1
100
AcDbLine
 10
4958.99999998
 20
3306.79596592
 30
0.0
 11
5641.0001373
 21
3306.79596593
 31
0.0
  0
TEXT
  5
58D
330
2
100
AcDbEntity
  8
YKK_N1
  6
Continuous
100
AcDbText
 10
8203.99999998
 20
5621.16273513
 30
0.0
 40
60.0
  1
新設窓H=1170
 50
90.0
 41
1.122581
  7
MX_NOTE_STANDARD
 11
8173.99999998
 21
5621.16273513
 31
0.0
100
AcDbText
 73
     2
  0
TEXT
  5
58E
330
2
100
AcDbEntity
  8
YKK_N1
  6
Continuous
100
AcDbText
 10
8203.99999998
 20
6503.50012021
 30
0.0
 40
60.0
  1
17
 50
90.0
  7
MX_NOTE_STANDARD
 11
8173.99999998
 21
6503.50012021
 31
0.0
100
AcDbText
 73
     2
  0
LINE
  5
58F
330
2
100
AcDbEntity
  8
YKK_N1
  6
Continuous
100
AcDbLine
 10
8165.99999998
 20
6367.39757921
 30
0.0
 11
8265.99999998
 21
6367.39757921
 31
0.0
  0
LINE
  5
590
330
2
100
AcDbEntity
  8
YKK_N1
  6
Continuous
100
AcDbLine
 10
8165.99999998
 20
6367.39757921
 30
0.0
 11
8215.99999998
 21
6454.00012021
 31
0.0
  0
CIRCLE
  5
591
330
2
100
AcDbEntity
  8
YKK_N1
  6
Continuous
100
AcDbCircle
 10
8015.99999998
 20
6454.00012021
 30
0.0
 40
5.0
  0
CIRCLE
  5
592
330
2
100
AcDbEntity
  8
YKK_N1
  6
Continuous
100
AcDbCircle
 10
8015.99999998
 20
6424.00012021
 30
0.0
 40
5.0
  0
LINE
  5
593
330
2
100
AcDbEntity
  8
YKK_N1
  6
Continuous
100
AcDbLine
 10
8015.99999998
 20
6424.00012021
 30
0.0
 11
8015.99999998
 21
6454.00012021
 31
0.0
  0
LINE
  5
594
330
2
100
AcDbEntity
  8
YKK_N1
  6
Continuous
100
AcDbLine
 10
8215.99999998
 20
6471.00012021
 30
0.0
 11
8215.99999998
 21
6454.00012021
 31
0.0
  0
CIRCLE
  5
595
330
2
100
AcDbEntity
  8
YKK_N1
  6
Continuous
100
AcDbCircle
 10
8215.99999998
 20
6471.00012021
 30
0.0
 40
5.0
  0
LINE
  5
596
330
2
100
AcDbEntity
  8
YKK_N1
  6
Continuous
100
AcDbLine
 10
8265.99999998
 20
6367.39757921
 30
0.0
 11
8215.99999998
 21
6454.00012021
 31
0.0
  0
LINE
  5
597
330
2
100
AcDbEntity
  8
YKK_N1
  6
Continuous
100
AcDbLine
 10
8165.99999998
 20
5370.60306021
 30
0.0
 11
8265.99999998
 21
5370.60306021
 31
0.0
  0
LINE
  5
598
330
2
100
AcDbEntity
  8
YKK_N1
  6
Continuous
100
AcDbLine
 10
8165.99999998
 20
5370.60306021
 30
0.0
 11
8215.99999998
 21
5284.00052021
 31
0.0
  0
LINE
  5
599
330
2
100
AcDbEntity
  8
YKK_N1
  6
Continuous
100
AcDbLine
 10
8015.99999998
 20
5324.00012021
 30
0.0
 11
8015.99999998
 21
5284.00012021
 31
0.0
  0
CIRCLE
  5
59A
330
2
100
AcDbEntity
  8
YKK_N1
  6
Continuous
100
AcDbCircle
 10
8015.99999998
 20
5284.00014521
 30
0.0
 40
5.0
  0
CIRCLE
  5
59B
330
2
100
AcDbEntity
  8
YKK_N1
  6
Continuous
100
AcDbCircle
 10
8015.99999998
 20
5324.00012021
 30
0.0
 40
5.0
  0
LINE
  5
59C
330
2
100
AcDbEntity
  8
YKK_N1
  6
Continuous
100
AcDbLine
 10
8265.99999998
 20
5370.60306021
 30
0.0
 11
8215.99999998
 21
5284.00052021
 31
0.0
  0
CIRCLE
  5
59D
330
2
100
AcDbEntity
  8
YKK_N1
  6
Continuous
100
AcDbCircle
 10
8615.99999998
 20
5281.00012021
 30
0.0
 40
5.0
  0
LINE
  5
59E
330
2
100
AcDbEntity
  8
YKK_N1
  6
Continuous
100
AcDbLine
 10
8615.99999998
 20
5284.00012021
 30
0.0
 11
8615.99999998
 21
5281.00012021
 31
0.0
  0
LINE
  5
59F
330
2
100
AcDbEntity
  8
YKK_N1
  6
Continuous
100
AcDbLine
 10
8215.99999998
 20
6454.00012021
 30
0.0
 11
8215.99999998
 21
5284.00012021
 31
0.0
  0
LINE
  5
5A0
330
2
100
AcDbEntity
  8
YKK_N1
  6
Continuous
100
AcDbLine
 10
7890.99999998
 20
5284.00012021
 30
0.0
 11
8615.99999998
 21
5284.00012021
 31
0.0
  0
LINE
  5
5A1
330
2
100
AcDbEntity
  8
YKK_N1
  6
Continuous
100
AcDbLine
 10
7890.99999998
 20
5281.00012021
 30
0.0
 11
8615.99999998
 21
5281.00012021
 31
0.0
  0
LINE
  5
5A2
330
2
100
AcDbEntity
  8
YKK_N1
  6
Continuous
100
AcDbLine
 10
7890.99999998
 20
5324.00012021
 30
0.0
 11
8015.99999998
 21
5324.00012021
 31
0.0
  0
TEXT
  5
5A3
330
2
100
AcDbEntity
  8
YKK_N1
  6
Continuous
100
AcDbText
 10
8003.99999998
 20
5333.84017521
 30
0.0
 40
60.0
  1
40
 50
90.0
  7
MX_NOTE_STANDARD
 11
7973.99999998
 21
5333.84017521
 31
0.0
100
AcDbText
 73
     2
  0
LINE
  5
5A4
330
2
100
AcDbEntity
  8
YKK_N1
  6
Continuous
100
AcDbLine
 10
7890.99999998
 20
6471.00012021
 30
0.0
 11
8415.99999998
 21
6471.00012021
 31
0.0
  0
LINE
  5
5A5
330
2
100
AcDbEntity
  8
YKK_N1
  6
Continuous
100
AcDbLine
 10
7890.99999998
 20
6454.00012021
 30
0.0
 11
8215.99999998
 21
6454.00012021
 31
0.0
  0
LINE
  5
5A6
330
2
100
AcDbEntity
  8
YKK_N1
  6
Continuous
100
AcDbLine
 10
7890.99999998
 20
6424.00012021
 30
0.0
 11
8015.99999998
 21
6424.00012021
 31
0.0
  0
TEXT
  5
5A7
330
2
100
AcDbEntity
  8
YKK_N1
  6
Continuous
100
AcDbText
 10
8003.99999998
 20
6315.97824721
 30
0.0
 40
60.0
  1
30
 50
90.0
  7
MX_NOTE_STANDARD
 11
7973.99999998
 21
6315.97824721
 31
0.0
100
AcDbText
 73
     2
  0
TEXT
  5
5A8
330
2
100
AcDbEntity
  8
YKK_N1
  6
Continuous
100
AcDbText
 10
8609.00816405
 20
5226.09335415
 30
0.0
 40
60.0
  1
3
 50
90.0
  7
MX_NOTE_STANDARD
 11
8579.00816405
 21
5226.09335415
 31
0.0
100
AcDbText
 73
     2
  0
TEXT
  5
5A9
330
2
100
AcDbEntity
  8
YKK_N1
  6
Continuous
100
AcDbText
 10
7625.04658987
 20
4873.53468345
 30
0.0
 40
60.0
  1
115
  7
MX_NOTE_STANDARD
 11
7625.04658987
 21
4903.53468345
 31
0.0
100
AcDbText
 73
     2
  0
TEXT
  5
5AA
330
2
100
AcDbEntity
  8
YKK_N1
  6
Continuous
100
AcDbText
 10
7792.00081687
 20
4957.53468345
 30
0.0
 40
60.0
  1
15
  7
MX_NOTE_STANDARD
 11
7792.00081687
 21
4987.53468345
 31
0.0
100
AcDbText
 73
     2
  0
LINE
  5
5AB
330
2
100
AcDbEntity
  8
YKK_N1
  6
Continuous
100
AcDbLine
 10
7624.70081687
 20
4945.53468345
 30
0.0
 11
7640.00081687
 21
4945.53468345
 31
0.0
  0
CIRCLE
  5
5AC
330
2
100
AcDbEntity
  8
YKK_N1
  6
Continuous
100
AcDbCircle
 10
7624.70081687
 20
4945.42843345
 30
0.0
 40
5.0
  0
CIRCLE
  5
5AD
330
2
100
AcDbEntity
  8
YKK_N1
  6
Continuous
100
AcDbCircle
 10
7624.70081687
 20
4945.53468345
 30
0.0
 40
0.10625
  0
LINE
  5
5AE
330
2
100
AcDbEntity
  8
YKK_N1
  6
Continuous
100
AcDbLine
 10
7755.00081687
 20
4945.53468345
 30
0.0
 11
7640.00081687
 21
4945.53468345
 31
0.0
  0
CIRCLE
  5
5AF
330
2
100
AcDbEntity
  8
YKK_N1
  6
Continuous
100
AcDbCircle
 10
7640.00081687
 20
4945.53468345
 30
0.0
 40
5.0
  0
LINE
  5
5B0
330
2
100
AcDbEntity
  8
YKK_N1
  6
Continuous
100
AcDbLine
 10
7770.00081687
 20
4945.53468345
 30
0.0
 11
7755.00081687
 21
4945.53468345
 31
0.0
  0
CIRCLE
  5
5B1
330
2
100
AcDbEntity
  8
YKK_N1
  6
Continuous
100
AcDbCircle
 10
7755.00081687
 20
4945.53468345
 30
0.0
 40
5.0
  0
CIRCLE
  5
5B2
330
2
100
AcDbEntity
  8
YKK_N1
  6
Continuous
100
AcDbCircle
 10
7770.00081687
 20
4945.53468345
 30
0.0
 40
5.0
  0
LINE
  5
5B3
330
2
100
AcDbEntity
  8
YKK_N1
  6
Continuous
100
AcDbLine
 10
7624.70081687
 20
5070.53468345
 30
0.0
 11
7624.70081687
 21
4945.53468345
 31
0.0
  0
LINE
  5
5B4
330
2
100
AcDbEntity
  8
YKK_N1
  6
Continuous
100
AcDbLine
 10
7755.00081687
 20
5070.53468345
 30
0.0
 11
7755.00081687
 21
4945.53468345
 31
0.0
  0
LINE
  5
5B5
330
2
100
AcDbEntity
  8
YKK_N1
  6
Continuous
100
AcDbLine
 10
7770.00081687
 20
4945.53468345
 30
0.0
 11
7770.00081687
 21
5070.53468345
 31
0.0
  0
LINE
  5
5B6
330
2
100
AcDbEntity
  8
YKK_N1
  6
Continuous
100
AcDbLine
 10
7640.00081687
 20
5070.53468345
 30
0.0
 11
7640.00081687
 21
4945.53468345
 31
0.0
  0
TEXT
  5
5B7
330
2
100
AcDbEntity
  8
YKK_N1
  6
Continuous
100
AcDbText
 10
7434.94267159
 20
4957.53468345
 30
0.0
 40
60.0
  1
15.3
  7
MX_NOTE_STANDARD
 11
7434.94267159
 21
4987.53468345
 31
0.0
100
AcDbText
 73
     2
  0
TEXT
  5
5B8
330
2
100
AcDbEntity
  8
YKK_N1
  6
Continuous
100
AcDbText
 10
7509.99991607
 20
5994.31670423
 30
0.0
 40
60.0
  1
115
  7
MX_NOTE_STANDARD
 11
7509.99991607
 21
6024.31670423
 31
0.0
100
AcDbText
 73
     2
  0
CIRCLE
  5
5B9
330
2
100
AcDbEntity
  8
YKK_N1
  6
Continuous
100
AcDbCircle
 10
7754.99990407
 20
5982.21045423
 30
0.0
 40
5.0
  0
CIRCLE
  5
5BA
330
2
100
AcDbEntity
  8
YKK_N1
  6
Continuous
100
AcDbCircle
 10
7639.99991607
 20
5982.31670423
 30
0.0
 40
5.0
  0
LINE
  5
5BB
330
2
100
AcDbEntity
  8
YKK_N1
  6
Continuous
100
AcDbLine
 10
7639.99991607
 20
5982.21045423
 30
0.0
 11
7754.99990407
 21
5982.21045423
 31
0.0
  0
LINE
  5
5BC
330
2
100
AcDbEntity
  8
YKK_N1
  6
Continuous
100
AcDbLine
 10
7754.99990407
 20
5857.21045423
 30
0.0
 11
7754.99990407
 21
5982.21045423
 31
0.0
  0
LINE
  5
5BD
330
2
100
AcDbEntity
  8
YKK_N1
  6
Continuous
100
AcDbLine
 10
7639.99991607
 20
5857.21045423
 30
0.0
 11
7639.99991607
 21
5982.21045423
 31
0.0
  0
LINE
  5
5BE
330
2
100
AcDbEntity
  8
YKK_N1
  6
Continuous
100
AcDbLine
 10
5970.01451065
 20
3275.99596591
 30
0.0
 11
5970.01451065
 21
3160.99596591
 31
0.0
  0
TEXT
  5
5BF
330
2
100
AcDbEntity
  8
YKK_N1
  6
Continuous
100
AcDbText
 10
5958.01450765
 20
3299.03125064
 30
0.0
 40
60.0
  1
115
 50
90.0
  7
MX_NOTE_STANDARD
100
AcDbText
  0
CIRCLE
  5
5C0
330
2
100
AcDbEntity
  8
YKK_N1
  6
Continuous
100
AcDbCircle
 10
5970.01451065
 20
3275.99596591
 30
0.0
 40
5.0
  0
TEXT
  5
5C1
330
2
100
AcDbEntity
  8
YKK_N1
  6
Continuous
100
AcDbText
 10
5958.01450765
 20
3044.75949791
 30
0.0
 40
60.0
  1
15
 50
90.0
  7
MX_NOTE_STANDARD
100
AcDbText
  0
CIRCLE
  5
5C2
330
2
100
AcDbEntity
  8
YKK_N1
  6
Continuous
100
AcDbCircle
 10
5970.01451065
 20
3145.99596591
 30
0.0
 40
5.0
  0
CIRCLE
  5
5C3
330
2
100
AcDbEntity
  8
YKK_N1
  6
Continuous
100
AcDbCircle
 10
5970.01451065
 20
3160.99596591
 30
0.0
 40
5.0
  0
LINE
  5
5C4
330
2
100
AcDbEntity
  8
YKK_N1
  6
Continuous
100
AcDbLine
 10
5970.01451065
 20
3160.99596591
 30
0.0
 11
5970.01451065
 21
3145.99596591
 31
0.0
  0
TEXT
  5
5C5
330
2
100
AcDbEntity
  8
YKK_N1
  6
Continuous
100
AcDbText
 10
5137.5003647
 20
2722.0
 30
0.0
 40
40.0
  1
新設窓W=642
  7
MX_NOTE_STANDARD
 11
5137.5003647
 21
2742.0
 31
0.0
100
AcDbText
 73
     2
  0
TEXT
  5
5C6
330
2
100
AcDbEntity
  8
YKK_N1
  6
Continuous
100
AcDbText
 10
5671.00003103
 20
2712.000003
 30
0.0
 40
60.0
  1
25
  7
MX_NOTE_STANDARD
100
AcDbText
  0
LINE
  5
5C7
330
2
100
AcDbEntity
  8
YKK_N1
  6
Continuous
100
AcDbLine
 10
5646.00003103
 20
3025.0
 30
0.0
 11
5646.00003103
 21
2500.0
 31
0.0
  0
LINE
  5
5C8
330
2
100
AcDbEntity
  8
YKK_N1
  6
Continuous
100
AcDbLine
 10
5621.00003103
 20
3025.0
 30
0.0
 11
5621.00003103
 21
2700.0
 31
0.0
  0
LINE
  5
5C9
330
2
100
AcDbEntity
  8
YKK_N1
  6
Continuous
100
AcDbLine
 10
5621.00003103
 20
2700.0
 30
0.0
 11
5646.00003103
 21
2700.0
 31
0.0
  0
CIRCLE
  5
5CA
330
2
100
AcDbEntity
  8
YKK_N1
  6
Continuous
100
AcDbCircle
 10
5646.00003103
 20
2700.0
 30
0.0
 40
5.0
  0
LINE
  5
5CB
330
2
100
AcDbEntity
  8
YKK_N1
  6
Continuous
100
AcDbLine
 10
5621.00003103
 20
2900.0
 30
0.0
 11
5601.00003103
 21
2900.0
 31
0.0
  0
LINE
  5
5CC
330
2
100
AcDbEntity
  8
YKK_N1
  6
Continuous
100
AcDbLine
 10
5601.00003103
 20
3025.0
 30
0.0
 11
5601.00003103
 21
2900.0
 31
0.0
  0
CIRCLE
  5
5CD
330
2
100
AcDbEntity
  8
YKK_N1
  6
Continuous
100
AcDbCircle
 10
5601.00003103
 20
2900.0
 30
0.0
 40
5.0
  0
CIRCLE
  5
5CE
330
2
100
AcDbEntity
  8
YKK_N1
  6
Continuous
100
AcDbCircle
 10
5621.00003103
 20
2900.0
 30
0.0
 40
5.0
  0
LINE
  5
5CF
330
2
100
AcDbEntity
  8
YKK_N1
  6
Continuous
100
AcDbLine
 10
5534.39749103
 20
2750.0
 30
0.0
 11
5534.39749103
 21
2650.0
 31
0.0
  0
LINE
  5
5D0
330
2
100
AcDbEntity
  8
YKK_N1
  6
Continuous
100
AcDbLine
 10
5534.39749103
 20
2750.0
 30
0.0
 11
5621.00003103
 21
2700.0
 31
0.0
  0
LINE
  5
5D1
330
2
100
AcDbEntity
  8
YKK_N1
  6
Continuous
100
AcDbLine
 10
5621.00003103
 20
2700.0
 30
0.0
 11
5534.39749103
 21
2650.0
 31
0.0
  0
TEXT
  5
5D2
330
2
100
AcDbEntity
  8
YKK_N1
  6
Continuous
100
AcDbText
 10
5481.15050891
 20
2912.78324834
 30
0.0
 40
60.0
  1
20
  7
MX_NOTE_STANDARD
 11
5481.15050891
 21
2942.78324834
 31
0.0
100
AcDbText
 73
     2
  0
LINE
  5
5D3
330
2
100
AcDbEntity
  8
YKK_N1
  6
Continuous
100
AcDbLine
 10
5065.60257103
 20
2750.0
 30
0.0
 11
4979.00003103
 21
2700.0
 31
0.0
  0
LINE
  5
5D4
330
2
100
AcDbEntity
  8
YKK_N1
  6
Continuous
100
AcDbLine
 10
4979.00003103
 20
2700.0
 30
0.0
 11
5065.60257103
 21
2650.0
 31
0.0
  0
TEXT
  5
5D5
330
2
100
AcDbEntity
  8
YKK_N1
  6
Continuous
100
AcDbText
 10
5013.41854216
 20
2912.78324834
 30
0.0
 40
60.0
  1
20
  7
MX_NOTE_STANDARD
 11
5013.41854216
 21
2942.78324834
 31
0.0
100
AcDbText
 73
     2
  0
CIRCLE
  5
5D6
330
2
100
AcDbEntity
  8
YKK_N1
  6
Continuous
100
AcDbCircle
 10
4954.00003103
 20
2700.0
 30
0.0
 40
5.0
  0
LINE
  5
5D7
330
2
100
AcDbEntity
  8
YKK_N1
  6
Continuous
100
AcDbLine
 10
4954.00003103
 20
2700.0
 30
0.0
 11
4979.00003103
 21
2700.0
 31
0.0
  0
CIRCLE
  5
5D8
330
2
100
AcDbEntity
  8
YKK_N1
  6
Continuous
100
AcDbCircle
 10
4999.00003103
 20
2900.0
 30
0.0
 40
5.0
  0
CIRCLE
  5
5D9
330
2
100
AcDbEntity
  8
YKK_N1
  6
Continuous
100
AcDbCircle
 10
4979.00003103
 20
2900.0
 30
0.0
 40
5.0
  0
LINE
  5
5DA
330
2
100
AcDbEntity
  8
YKK_N1
  6
Continuous
100
AcDbLine
 10
4979.00003103
 20
2900.0
 30
0.0
 11
4999.00003103
 21
2900.0
 31
0.0
  0
LINE
  5
5DB
330
2
100
AcDbEntity
  8
YKK_N1
  6
Continuous
100
AcDbLine
 10
5065.60257103
 20
2750.0
 30
0.0
 11
5065.60257103
 21
2650.0
 31
0.0
  0
TEXT
  5
5DC
330
2
100
AcDbEntity
  8
YKK_N1
  6
Continuous
100
AcDbText
 10
4829.00003103
 20
2712.000003
 30
0.0
 40
60.0
  1
25
  7
MX_NOTE_STANDARD
100
AcDbText
  0
LINE
  5
5DD
330
2
100
AcDbEntity
  8
YKK_N1
  6
Continuous
100
AcDbLine
 10
5621.00003103
 20
2700.0
 30
0.0
 11
4979.00003103
 21
2700.0
 31
0.0
  0
LINE
  5
5DE
330
2
100
AcDbEntity
  8
YKK_N1
  6
Continuous
100
AcDbLine
 10
4999.00003103
 20
3025.0
 30
0.0
 11
4999.00003103
 21
2900.0
 31
0.0
  0
LINE
  5
5DF
330
2
100
AcDbEntity
  8
YKK_N1
  6
Continuous
100
AcDbLine
 10
4979.00003103
 20
3025.0
 30
0.0
 11
4979.00003103
 21
2700.0
 31
0.0
  0
LINE
  5
5E0
330
2
100
AcDbEntity
  8
YKK_N1
  6
Continuous
100
AcDbLine
 10
4954.00003103
 20
3025.0
 30
0.0
 11
4954.00003103
 21
2500.0
 31
0.0
  0
LINE
  5
5E1
330
2
100
AcDbEntity
  8
YKK_N1
  6
Continuous
100
AcDbLine
 10
5845.01451065
 20
3145.99596591
 30
0.0
 11
5970.01451065
 21
3145.99596591
 31
0.0
  0
LINE
  5
5E2
330
2
100
AcDbEntity
  8
YKK_N1
  6
Continuous
100
AcDbLine
 10
5845.01451065
 20
3160.99596591
 30
0.0
 11
5970.01451065
 21
3160.99596591
 31
0.0
  0
LINE
  5
5E3
330
2
100
AcDbEntity
  8
YKK_N1
  6
Continuous
100
AcDbLine
 10
5845.01451065
 20
3275.99596591
 30
0.0
 11
5970.01451065
 21
3275.99596591
 31
0.0
  0
LINE
  5
5E4
330
2
100
AcDbEntity
  8
YKK_N1
  6
Continuous
100
AcDbLine
 10
8415.99999998
 20
6471.00012021
 30
0.0
 11
8415.99999998
 21
5284.00012021
 31
0.0
  0
LINE
  5
5E5
330
2
100
AcDbEntity
  8
YKK_N1
  6
Continuous
100
AcDbLine
 10
8615.99999998
 20
6481.00012021
 30
0.0
 11
8615.99999998
 21
5284.00012021
 31
0.0
  0
LINE
  5
5E6
330
2
100
AcDbEntity
  8
YKK_N1
  6
Continuous
100
AcDbLine
 10
7890.99999998
 20
6481.00012021
 30
0.0
 11
8615.99999998
 21
6481.00012021
 31
0.0
  0
LINE
  5
5E7
330
2
100
AcDbEntity
  8
YKK_N1
100
AcDbLine
 10
8415.99999998
 20
6471.00012021
 30
0.0
 11
8415.99999998
 21
6481.00012021
 31
0.0
  0
LINE
  5
5E8
330
2
100
AcDbEntity
  8
YKK_N1
  6
Continuous
100
AcDbLine
 10
7890.99999998
 20
6484.00012021
 30
0.0
 11
8615.99999998
 21
6484.00012021
 31
0.0
  0
LINE
  5
5E9
330
2
100
AcDbEntity
  8
YKK_N1
100
AcDbLine
 10
8615.99999998
 20
6481.00012021
 30
0.0
 11
8615.99999998
 21
6484.00012021
 31
0.0
  0
LINE
  5
5EA
330
2
100
AcDbEntity
  8
YKK_N1
  6
Continuous
100
AcDbLine
 10
8365.99999998
 20
6384.39757921
 30
0.0
 11
8465.99999998
 21
6384.39757921
 31
0.0
  0
LINE
  5
5EB
330
2
100
AcDbEntity
  8
YKK_N1
  6
Continuous
100
AcDbLine
 10
8365.99999998
 20
6384.39757921
 30
0.0
 11
8415.99999998
 21
6471.00012021
 31
0.0
  0
LINE
  5
5EC
330
2
100
AcDbEntity
  8
YKK_N1
  6
Continuous
100
AcDbLine
 10
8465.99999998
 20
6384.39757921
 30
0.0
 11
8415.99999998
 21
6471.00012021
 31
0.0
  0
LINE
  5
5ED
330
2
100
AcDbEntity
  8
YKK_N1
  6
Continuous
100
AcDbLine
 10
8565.99999998
 20
6394.39757921
 30
0.0
 11
8665.99999998
 21
6394.39757921
 31
0.0
  0
LINE
  5
5EE
330
2
100
AcDbEntity
  8
YKK_N1
  6
Continuous
100
AcDbLine
 10
8565.99999998
 20
6394.39757921
 30
0.0
 11
8615.99999998
 21
6481.00012021
 31
0.0
  0
LINE
  5
5EF
330
2
100
AcDbEntity
  8
YKK_N1
  6
Continuous
100
AcDbLine
 10
8665.99999998
 20
6394.39757921
 30
0.0
 11
8615.99999998
 21
6481.00012021
 31
0.0
  0
CIRCLE
  5
5F0
330
2
100
AcDbEntity
  8
YKK_N1
  6
Continuous
100
AcDbCircle
 10
8415.99999998
 20
6481.00012021
 30
0.0
 40
5.0
  0
CIRCLE
  5
5F1
330
2
100
AcDbEntity
  8
YKK_N1
  6
Continuous
100
AcDbCircle
 10
8615.99999998
 20
6484.00012021
 30
0.0
 40
5.0
  0
LINE
  5
5F2
330
2
100
AcDbEntity
  8
YKK_N1
  6
Continuous
100
AcDbLine
 10
8365.99999998
 20
5370.60266021
 30
0.0
 11
8465.99999998
 21
5370.60266021
 31
0.0
  0
LINE
  5
5F3
330
2
100
AcDbEntity
  8
YKK_N1
  6
Continuous
100
AcDbLine
 10
8365.99999998
 20
5370.60266021
 30
0.0
 11
8415.99999998
 21
5284.00012021
 31
0.0
  0
LINE
  5
5F4
330
2
100
AcDbEntity
  8
YKK_N1
  6
Continuous
100
AcDbLine
 10
8465.99999998
 20
5370.60266021
 30
0.0
 11
8415.99999998
 21
5284.00012021
 31
0.0
  0
LINE
  5
5F5
330
2
100
AcDbEntity
  8
YKK_N1
  6
Continuous
100
AcDbLine
 10
8565.99999998
 20
5370.60266021
 30
0.0
 11
8665.99999998
 21
5370.60266021
 31
0.0
  0
LINE
  5
5F6
330
2
100
AcDbEntity
  8
YKK_N1
  6
Continuous
100
AcDbLine
 10
8565.99999998
 20
5370.60266021
 30
0.0
 11
8615.99999998
 21
5284.00012021
 31
0.0
  0
LINE
  5
5F7
330
2
100
AcDbEntity
  8
YKK_N1
  6
Continuous
100
AcDbLine
 10
8665.99999998
 20
5370.60266021
 30
0.0
 11
8615.99999998
 21
5284.00012021
 31
0.0
  0
TEXT
  5
5F8
330
2
100
AcDbEntity
  8
YKK_N1
  6
Continuous
100
AcDbText
 10
8398.99999998
 20
5403.10570136
 30
0.0
 40
50.0
  1
ジョイント枠出来高JH=1187
 50
90.0
 41
1.122581
  7
MX_NOTE_STANDARD
 11
8373.99999998
 21
5403.10570136
 31
0.0
100
AcDbText
 73
     2
  0
TEXT
  5
5F9
330
2
100
AcDbEntity
  8
YKK_N1
  6
Continuous
100
AcDbText
 10
8598.99999998
 20
5478.73745607
 30
0.0
 40
50.0
  1
既設窓枠開口高KH=1197
 50
90.0
 41
1.122581
  7
MX_NOTE_STANDARD
 11
8573.99999998
 21
5478.73745607
 31
0.0
100
AcDbText
 73
     2
  0
TEXT
  5
5FA
330
2
100
AcDbEntity
  8
YKK_N1
  6
Continuous
100
AcDbText
 10
8403.99999998
 20
6513.50012021
 30
0.0
 40
60.0
  1
10
 50
90.0
  7
MX_NOTE_STANDARD
 11
8373.99999998
 21
6513.50012021
 31
0.0
100
AcDbText
 73
     2
  0
TEXT
  5
5FB
330
2
100
AcDbEntity
  8
YKK_N1
  6
Continuous
100
AcDbText
 10
8603.99999998
 20
6513.50012021
 30
0.0
 40
60.0
  1
3
 50
90.0
  7
MX_NOTE_STANDARD
 11
8573.99999998
 21
6513.50012021
 31
0.0
100
AcDbText
 73
     2
  0
LINE
  5
5FC
330
2
100
AcDbEntity
  8
YKK_N1
  6
Continuous
100
AcDbLine
 10
5646.00003103
 20
2500.0
 30
0.0
 11
4954.00003103
 21
2500.0
 31
0.0
  0
LINE
  5
5FD
330
2
100
AcDbEntity
  8
YKK_N1
  6
Continuous
100
AcDbLine
 10
5651.00003103
 20
2300.0
 30
0.0
 11
4949.00003103
 21
2300.0
 31
0.0
  0
LINE
  5
5FE
330
2
100
AcDbEntity
  8
YKK_N1
  6
Continuous
100
AcDbLine
 10
4949.00003103
 20
3025.0
 30
0.0
 11
4949.00003103
 21
2300.0
 31
0.0
  0
LINE
  5
5FF
330
2
100
AcDbEntity
  8
YKK_N1
  6
Continuous
100
AcDbLine
 10
5651.00003103
 20
3025.0
 30
0.0
 11
5651.00003103
 21
2300.0
 31
0.0
  0
LINE
  5
600
330
2
100
AcDbEntity
  8
YKK_N1
100
AcDbLine
 10
4954.00003103
 20
2500.0
 30
0.0
 11
4949.00003103
 21
2500.0
 31
0.0
  0
LINE
  5
601
330
2
100
AcDbEntity
  8
YKK_N1
100
AcDbLine
 10
5646.00003103
 20
2500.0
 30
0.0
 11
5651.00003103
 21
2500.0
 31
0.0
  0
LINE
  5
602
330
2
100
AcDbEntity
  8
YKK_N1
  6
Continuous
100
AcDbLine
 10
4946.00003103
 20
3025.0
 30
0.0
 11
4946.00003103
 21
2300.0
 31
0.0
  0
LINE
  5
603
330
2
100
AcDbEntity
  8
YKK_N1
  6
Continuous
100
AcDbLine
 10
5654.00003103
 20
3025.0
 30
0.0
 11
5654.00003103
 21
2300.0
 31
0.0
  0
LINE
  5
604
330
2
100
AcDbEntity
  8
YKK_N1
100
AcDbLine
 10
4949.00003103
 20
2300.0
 30
0.0
 11
4946.00003103
 21
2300.0
 31
0.0
  0
LINE
  5
605
330
2
100
AcDbEntity
  8
YKK_N1
100
AcDbLine
 10
5651.00003103
 20
2300.0
 30
0.0
 11
5654.00003103
 21
2300.0
 31
0.0
  0
LINE
  5
606
330
2
100
AcDbEntity
  8
YKK_N1
  6
Continuous
100
AcDbLine
 10
5040.60257103
 20
2550.0
 30
0.0
 11
4954.00003103
 21
2500.0
 31
0.0
  0
LINE
  5
607
330
2
100
AcDbEntity
  8
YKK_N1
  6
Continuous
100
AcDbLine
 10
4954.00003103
 20
2500.0
 30
0.0
 11
5040.60257103
 21
2450.0
 31
0.0
  0
LINE
  5
608
330
2
100
AcDbEntity
  8
YKK_N1
  6
Continuous
100
AcDbLine
 10
5040.60257103
 20
2550.0
 30
0.0
 11
5040.60257103
 21
2450.0
 31
0.0
  0
LINE
  5
609
330
2
100
AcDbEntity
  8
YKK_N1
  6
Continuous
100
AcDbLine
 10
5035.60257103
 20
2350.0
 30
0.0
 11
4949.00003103
 21
2300.0
 31
0.0
  0
LINE
  5
60A
330
2
100
AcDbEntity
  8
YKK_N1
  6
Continuous
100
AcDbLine
 10
4949.00003103
 20
2300.0
 30
0.0
 11
5035.60257103
 21
2250.0
 31
0.0
  0
LINE
  5
60B
330
2
100
AcDbEntity
  8
YKK_N1
  6
Continuous
100
AcDbLine
 10
5035.60257103
 20
2350.0
 30
0.0
 11
5035.60257103
 21
2250.0
 31
0.0
  0
LINE
  5
60C
330
2
100
AcDbEntity
  8
YKK_N1
  6
Continuous
100
AcDbLine
 10
5559.39749103
 20
2550.0
 30
0.0
 11
5559.39749103
 21
2450.0
 31
0.0
  0
LINE
  5
60D
330
2
100
AcDbEntity
  8
YKK_N1
  6
Continuous
100
AcDbLine
 10
5559.39749103
 20
2550.0
 30
0.0
 11
5646.00003103
 21
2500.0
 31
0.0
  0
LINE
  5
60E
330
2
100
AcDbEntity
  8
YKK_N1
  6
Continuous
100
AcDbLine
 10
5646.00003103
 20
2500.0
 30
0.0
 11
5559.39749103
 21
2450.0
 31
0.0
  0
LINE
  5
60F
330
2
100
AcDbEntity
  8
YKK_N1
  6
Continuous
100
AcDbLine
 10
5564.39749103
 20
2350.0
 30
0.0
 11
5564.39749103
 21
2250.0
 31
0.0
  0
LINE
  5
610
330
2
100
AcDbEntity
  8
YKK_N1
  6
Continuous
100
AcDbLine
 10
5564.39749103
 20
2350.0
 30
0.0
 11
5651.00003103
 21
2300.0
 31
0.0
  0
LINE
  5
611
330
2
100
AcDbEntity
  8
YKK_N1
  6
Continuous
100
AcDbLine
 10
5651.00003103
 20
2300.0
 30
0.0
 11
5564.39749103
 21
2250.0
 31
0.0
  0
CIRCLE
  5
612
330
2
100
AcDbEntity
  8
YKK_N1
  6
Continuous
100
AcDbCircle
 10
4949.00003103
 20
2500.0
 30
0.0
 40
5.0
  0
CIRCLE
  5
613
330
2
100
AcDbEntity
  8
YKK_N1
  6
Continuous
100
AcDbCircle
 10
4946.00003103
 20
2300.0
 30
0.0
 40
5.0
  0
CIRCLE
  5
614
330
2
100
AcDbEntity
  8
YKK_N1
  6
Continuous
100
AcDbCircle
 10
5651.00003103
 20
2500.0
 30
0.0
 40
5.0
  0
CIRCLE
  5
615
330
2
100
AcDbEntity
  8
YKK_N1
  6
Continuous
100
AcDbCircle
 10
5654.00003103
 20
2300.0
 30
0.0
 40
5.0
  0
TEXT
  5
616
330
2
100
AcDbEntity
  8
YKK_N1
  6
Continuous
100
AcDbText
 10
5047.75997147
 20
2527.0
 30
0.0
 40
30.0
  1
ジョイント枠出来幅JW=692
  7
MX_NOTE_STANDARD
 11
5047.75997147
 21
2542.0
 31
0.0
100
AcDbText
 73
     2
  0
TEXT
  5
617
330
2
100
AcDbEntity
  8
YKK_N1
  6
Continuous
100
AcDbText
 10
5087.03229648
 20
2327.0
 30
0.0
 40
30.0
  1
既設窓枠開口幅KW=702
  7
MX_NOTE_STANDARD
 11
5087.03229648
 21
2342.0
 31
0.0
100
AcDbText
 73
     2
  0
TEXT
  5
618
330
2
100
AcDbEntity
  8
YKK_N1
  6
Continuous
100
AcDbText
 10
5685.59265714
 20
2512.000003
 30
0.0
 40
60.0
  1
5
  7
MX_NOTE_STANDARD
100
AcDbText
  0
TEXT
  5
619
330
2
100
AcDbEntity
  8
YKK_N1
  6
Continuous
100
AcDbText
 10
4877.89807157
 20
2512.000003
 30
0.0
 40
60.0
  1
5
  7
MX_NOTE_STANDARD
100
AcDbText
  0
TEXT
  5
61A
330
2
100
AcDbEntity
  8
YKK_N1
  6
Continuous
100
AcDbText
 10
5685.59265714
 20
2312.000003
 30
0.0
 40
60.0
  1
3
  7
MX_NOTE_STANDARD
100
AcDbText
  0
TEXT
  5
61B
330
2
100
AcDbEntity
  8
YKK_N1
  6
Continuous
100
AcDbText
 10
4877.89807157
 20
2312.000003
 30
0.0
 40
60.0
  1
3
  7
MX_NOTE_STANDARD
100
AcDbText
  0
LINE
  5
61C
330
2
100
AcDbEntity
  8
YKK_A1
100
AcDbLine
 10
4884.0
 20
6543.0000001
 30
0.0
 11
5715.99999998
 21
6543.0000001
 31
0.0
  0
LINE
  5
61D
330
2
100
AcDbEntity
  8
YKK_A1
100
AcDbLine
 10
4933.99999999
 20
6478.00000011
 30
0.0
 11
5665.99999999
 21
6478.00000011
 31
0.0
  0
LINE
  5
61E
330
2
100
AcDbEntity
  8
YKK_A1
100
AcDbLine
 10
4986.99999998
 20
6442.00000008
 30
0.0
 11
5613.0
 21
6442.00000008
 31
0.0
  0
LINE
  5
61F
330
2
100
AcDbEntity
  8
YKK_A1
100
AcDbLine
 10
4949.0
 20
6455.00000046
 30
0.0
 11
5650.99999998
 21
6455.00000046
 31
0.0
  0
LINE
  5
620
330
2
100
AcDbEntity
  8
YKK_A1
100
AcDbLine
 10
5598.00000026
 20
6432.00000035
 30
0.0
 11
5001.99999972
 21
6432.00000035
 31
0.0
  0
LINE
  5
621
330
2
100
AcDbEntity
  8
YKK_A1
100
AcDbLine
 10
5067.99999997
 20
6366.0000001
 30
0.0
 11
5532.00000001
 21
6366.0000001
 31
0.0
  0
LINE
  5
622
330
2
100
AcDbEntity
  8
YKK_A1
100
AcDbLine
 10
5532.00000001
 20
5371.99999999
 30
0.0
 11
5067.99999997
 21
5371.99999999
 31
0.0
  0
LINE
  5
623
330
2
100
AcDbEntity
  8
YKK_A1
100
AcDbLine
 10
5598.00000026
 20
5305.99999973
 30
0.0
 11
5001.99999972
 21
5305.99999973
 31
0.0
  0
LINE
  5
624
330
2
100
AcDbEntity
  8
YKK_A1
100
AcDbLine
 10
4986.99999998
 20
5296.00000001
 30
0.0
 11
5613.0
 21
5296.00000001
 31
0.0
  0
LINE
  5
625
330
2
100
AcDbEntity
  8
YKK_A1
100
AcDbLine
 10
4949.0
 20
5283.99999998
 30
0.0
 11
5650.99999998
 21
5283.99999998
 31
0.0
  0
LINE
  5
626
330
2
100
AcDbEntity
  8
YKK_A1
100
AcDbLine
 10
4933.99999999
 20
5265.0
 30
0.0
 11
5665.99999999
 21
5265.0
 31
0.0
  0
LINE
  5
627
330
2
100
AcDbEntity
  8
YKK_A1
100
AcDbLine
 10
4884.0
 20
5200.0
 30
0.0
 11
5715.99999998
 21
5200.0
 31
0.0
  0
LINE
  5
628
330
2
100
AcDbEntity
  8
YKK_A1
100
AcDbLine
 10
4884.0
 20
6543.0000001
 30
0.00000001
 11
4884.0
 21
5200.0
 31
0.00000001
  0
LINE
  5
629
330
2
100
AcDbEntity
  8
YKK_A1
100
AcDbLine
 10
4933.99999999
 20
6478.00000011
 30
0.00000001
 11
4933.99999999
 21
5265.0
 31
0.00000001
  0
LINE
  5
62A
330
2
100
AcDbEntity
  8
YKK_A1
100
AcDbLine
 10
4949.0
 20
6455.00000046
 30
0.00000001
 11
4949.0
 21
5283.99999998
 31
0.00000001
  0
LINE
  5
62B
330
2
100
AcDbEntity
  8
YKK_A1
100
AcDbLine
 10
4986.99999998
 20
6442.00000008
 30
0.00000001
 11
4986.99999998
 21
5296.00000001
 31
0.00000001
  0
LINE
  5
62C
330
2
100
AcDbEntity
  8
YKK_A1
100
AcDbLine
 10
5001.99999972
 20
6432.00000035
 30
0.00000001
 11
5001.99999972
 21
5305.99999973
 31
0.00000001
  0
LINE
  5
62D
330
2
100
AcDbEntity
  8
YKK_A1
100
AcDbLine
 10
5067.99999997
 20
6366.0000001
 30
0.00000001
 11
5067.99999997
 21
5371.99999999
 31
0.00000001
  0
LINE
  5
62E
330
2
100
AcDbEntity
  8
YKK_A1
100
AcDbLine
 10
5532.00000001
 20
6366.0000001
 30
0.00000001
 11
5532.00000001
 21
5371.99999999
 31
0.00000001
  0
LINE
  5
62F
330
2
100
AcDbEntity
  8
YKK_A1
100
AcDbLine
 10
5598.00000026
 20
5305.99999973
 30
0.00000001
 11
5598.00000026
 21
6432.00000035
 31
0.00000001
  0
LINE
  5
630
330
2
100
AcDbEntity
  8
YKK_A1
100
AcDbLine
 10
5613.0
 20
6442.00000008
 30
0.00000001
 11
5613.0
 21
5296.00000001
 31
0.00000001
  0
LINE
  5
631
330
2
100
AcDbEntity
  8
YKK_A1
100
AcDbLine
 10
5650.99999998
 20
6455.00000046
 30
0.00000001
 11
5650.99999998
 21
5283.99999998
 31
0.00000001
  0
LINE
  5
632
330
2
100
AcDbEntity
  8
YKK_A1
100
AcDbLine
 10
5665.99999999
 20
6478.00000011
 30
0.00000001
 11
5665.99999999
 21
5265.0
 31
0.00000001
  0
LINE
  5
633
330
2
100
AcDbEntity
  8
YKK_A1
100
AcDbLine
 10
5715.99999998
 20
6543.0000001
 30
0.00000001
 11
5715.99999998
 21
5200.0
 31
0.00000001
  0
LINE
  5
634
330
2
100
AcDbEntity
  8
YKK_A1
  6
YDIVIDE_1
100
AcDbLine
 10
5598.00000026
 20
6432.00000035
 30
0.0
 11
5001.99999972
 21
5305.99999973
 31
0.0
  0
LINE
  5
635
330
2
100
AcDbEntity
  8
YKK_A1
  6
YDIVIDE_1
100
AcDbLine
 10
5299.99999999
 20
5869.00000004
 30
0.0
 11
5598.00000026
 21
5305.99999973
 31
0.0
  0
TEXT
  5
636
330
2
100
AcDbEntity
  8
YKK_N1
  6
Continuous
100
AcDbText
 10
5137.5003647
 20
5022.0
 30
0.0
 40
40.0
  1
新設窓W=642
  7
MX_NOTE_STANDARD
 11
5137.5003647
 21
5042.0
 31
0.0
100
AcDbText
 73
     2
  0
TEXT
  5
637
330
2
100
AcDbEntity
  8
YKK_N1
  6
Continuous
100
AcDbText
 10
5671.00003103
 20
5012.000003
 30
0.0
 40
60.0
  1
25
  7
MX_NOTE_STANDARD
100
AcDbText
  0
LINE
  5
638
330
2
100
AcDbEntity
  8
YKK_N1
  6
Continuous
100
AcDbLine
 10
5646.00003103
 20
5125.0
 30
0.0
 11
5646.00003103
 21
4800.0
 31
0.0
  0
LINE
  5
639
330
2
100
AcDbEntity
  8
YKK_N1
  6
Continuous
100
AcDbLine
 10
5621.00003103
 20
5125.0
 30
0.0
 11
5621.00003103
 21
5000.0
 31
0.0
  0
LINE
  5
63A
330
2
100
AcDbEntity
  8
YKK_N1
  6
Continuous
100
AcDbLine
 10
5621.00003103
 20
5000.0
 30
0.0
 11
5646.00003103
 21
5000.0
 31
0.0
  0
CIRCLE
  5
63B
330
2
100
AcDbEntity
  8
YKK_N1
  6
Continuous
100
AcDbCircle
 10
5646.00003103
 20
5000.0
 30
0.0
 40
5.0
  0
LINE
  5
63C
330
2
100
AcDbEntity
  8
YKK_N1
  6
Continuous
100
AcDbLine
 10
5534.39749103
 20
5050.0
 30
0.0
 11
5534.39749103
 21
4950.0
 31
0.0
  0
LINE
  5
63D
330
2
100
AcDbEntity
  8
YKK_N1
  6
Continuous
100
AcDbLine
 10
5534.39749103
 20
5050.0
 30
0.0
 11
5621.00003103
 21
5000.0
 31
0.0
  0
LINE
  5
63E
330
2
100
AcDbEntity
  8
YKK_N1
  6
Continuous
100
AcDbLine
 10
5621.00003103
 20
5000.0
 30
0.0
 11
5534.39749103
 21
4950.0
 31
0.0
  0
LINE
  5
63F
330
2
100
AcDbEntity
  8
YKK_N1
  6
Continuous
100
AcDbLine
 10
5065.60257103
 20
5050.0
 30
0.0
 11
4979.00003103
 21
5000.0
 31
0.0
  0
LINE
  5
640
330
2
100
AcDbEntity
  8
YKK_N1
  6
Continuous
100
AcDbLine
 10
4979.00003103
 20
5000.0
 30
0.0
 11
5065.60257103
 21
4950.0
 31
0.0
  0
CIRCLE
  5
641
330
2
100
AcDbEntity
  8
YKK_N1
  6
Continuous
100
AcDbCircle
 10
4954.00003103
 20
5000.0
 30
0.0
 40
5.0
  0
LINE
  5
642
330
2
100
AcDbEntity
  8
YKK_N1
  6
Continuous
100
AcDbLine
 10
4954.00003103
 20
5000.0
 30
0.0
 11
4979.00003103
 21
5000.0
 31
0.0
  0
LINE
  5
643
330
2
100
AcDbEntity
  8
YKK_N1
  6
Continuous
100
AcDbLine
 10
5065.60257103
 20
5050.0
 30
0.0
 11
5065.60257103
 21
4950.0
 31
0.0
  0
TEXT
  5
644
330
2
100
AcDbEntity
  8
YKK_N1
  6
Continuous
100
AcDbText
 10
4829.00003103
 20
5012.000003
 30
0.0
 40
60.0
  1
25
  7
MX_NOTE_STANDARD
100
AcDbText
  0
LINE
  5
645
330
2
100
AcDbEntity
  8
YKK_N1
  6
Continuous
100
AcDbLine
 10
5621.00003103
 20
5000.0
 30
0.0
 11
4979.00003103
 21
5000.0
 31
0.0
  0
LINE
  5
646
330
2
100
AcDbEntity
  8
YKK_N1
  6
Continuous
100
AcDbLine
 10
4979.00003103
 20
5125.0
 30
0.0
 11
4979.00003103
 21
5000.0
 31
0.0
  0
LINE
  5
647
330
2
100
AcDbEntity
  8
YKK_N1
  6
Continuous
100
AcDbLine
 10
4954.00003103
 20
5125.0
 30
0.0
 11
4954.00003103
 21
4800.0
 31
0.0
  0
LINE
  5
648
330
2
100
AcDbEntity
  8
YKK_N1
  6
Continuous
100
AcDbLine
 10
5646.00003103
 20
4800.0
 30
0.0
 11
4954.00003103
 21
4800.0
 31
0.0
  0
LINE
  5
649
330
2
100
AcDbEntity
  8
YKK_N1
  6
Continuous
100
AcDbLine
 10
5040.60257103
 20
4850.0
 30
0.0
 11
4954.00003103
 21
4800.0
 31
0.0
  0
LINE
  5
64A
330
2
100
AcDbEntity
  8
YKK_N1
  6
Continuous
100
AcDbLine
 10
4954.00003103
 20
4800.0
 30
0.0
 11
5040.60257103
 21
4750.0
 31
0.0
  0
LINE
  5
64B
330
2
100
AcDbEntity
  8
YKK_N1
  6
Continuous
100
AcDbLine
 10
5040.60257103
 20
4850.0
 30
0.0
 11
5040.60257103
 21
4750.0
 31
0.0
  0
LINE
  5
64C
330
2
100
AcDbEntity
  8
YKK_N1
  6
Continuous
100
AcDbLine
 10
5559.39749103
 20
4850.0
 30
0.0
 11
5559.39749103
 21
4750.0
 31
0.0
  0
LINE
  5
64D
330
2
100
AcDbEntity
  8
YKK_N1
  6
Continuous
100
AcDbLine
 10
5559.39749103
 20
4850.0
 30
0.0
 11
5646.00003103
 21
4800.0
 31
0.0
  0
LINE
  5
64E
330
2
100
AcDbEntity
  8
YKK_N1
  6
Continuous
100
AcDbLine
 10
5646.00003103
 20
4800.0
 30
0.0
 11
5559.39749103
 21
4750.0
 31
0.0
  0
TEXT
  5
64F
330
2
100
AcDbEntity
  8
YKK_N1
  6
Continuous
100
AcDbText
 10
5047.75997147
 20
4827.0
 30
0.0
 40
30.0
  1
ジョイント枠出来幅JW=692
  7
MX_NOTE_STANDARD
 11
5047.75997147
 21
4842.0
 31
0.0
100
AcDbText
 73
     2
  0
TEXT
  5
650
330
2
100
AcDbEntity
  8
YKK_N1
  6
Continuous
100
AcDbText
 10
5903.99999998
 20
5621.16273513
 30
0.0
 40
60.0
  1
新設窓H=1170
 50
90.0
 41
1.122581
  7
MX_NOTE_STANDARD
 11
5873.99999998
 21
5621.16273513
 31
0.0
100
AcDbText
 73
     2
  0
TEXT
  5
651
330
2
100
AcDbEntity
  8
YKK_N1
  6
Continuous
100
AcDbText
 10
5903.99999998
 20
6503.50012021
 30
0.0
 40
60.0
  1
17
 50
90.0
  7
MX_NOTE_STANDARD
 11
5873.99999998
 21
6503.50012021
 31
0.0
100
AcDbText
 73
     2
  0
LINE
  5
652
330
2
100
AcDbEntity
  8
YKK_N1
  6
Continuous
100
AcDbLine
 10
5865.99999998
 20
6367.39757921
 30
0.0
 11
5965.99999998
 21
6367.39757921
 31
0.0
  0
LINE
  5
653
330
2
100
AcDbEntity
  8
YKK_N1
  6
Continuous
100
AcDbLine
 10
5865.99999998
 20
6367.39757921
 30
0.0
 11
5915.99999998
 21
6454.00012021
 31
0.0
  0
LINE
  5
654
330
2
100
AcDbEntity
  8
YKK_N1
  6
Continuous
100
AcDbLine
 10
5915.99999998
 20
6471.00012021
 30
0.0
 11
5915.99999998
 21
6454.00012021
 31
0.0
  0
CIRCLE
  5
655
330
2
100
AcDbEntity
  8
YKK_N1
  6
Continuous
100
AcDbCircle
 10
5915.99999998
 20
6471.00012021
 30
0.0
 40
5.0
  0
LINE
  5
656
330
2
100
AcDbEntity
  8
YKK_N1
  6
Continuous
100
AcDbLine
 10
5965.99999998
 20
6367.39757921
 30
0.0
 11
5915.99999998
 21
6454.00012021
 31
0.0
  0
LINE
  5
657
330
2
100
AcDbEntity
  8
YKK_N1
  6
Continuous
100
AcDbLine
 10
5865.99999998
 20
5370.60306021
 30
0.0
 11
5965.99999998
 21
5370.60306021
 31
0.0
  0
LINE
  5
658
330
2
100
AcDbEntity
  8
YKK_N1
  6
Continuous
100
AcDbLine
 10
5865.99999998
 20
5370.60306021
 30
0.0
 11
5915.99999998
 21
5284.00052021
 31
0.0
  0
LINE
  5
659
330
2
100
AcDbEntity
  8
YKK_N1
  6
Continuous
100
AcDbLine
 10
5965.99999998
 20
5370.60306021
 30
0.0
 11
5915.99999998
 21
5284.00052021
 31
0.0
  0
LINE
  5
65A
330
2
100
AcDbEntity
  8
YKK_N1
  6
Continuous
100
AcDbLine
 10
5915.99999998
 20
6454.00012021
 30
0.0
 11
5915.99999998
 21
5284.00012021
 31
0.0
  0
LINE
  5
65B
330
2
100
AcDbEntity
  8
YKK_N1
  6
Continuous
100
AcDbLine
 10
5790.99999998
 20
6471.00012021
 30
0.0
 11
6115.99999998
 21
6471.00012021
 31
0.0
  0
LINE
  5
65C
330
2
100
AcDbEntity
  8
YKK_N1
  6
Continuous
100
AcDbLine
 10
5790.99999998
 20
6454.00012021
 30
0.0
 11
5915.99999998
 21
6454.00012021
 31
0.0
  0
LINE
  5
65D
330
2
100
AcDbEntity
  8
YKK_N1
  6
Continuous
100
AcDbLine
 10
6115.99999998
 20
6471.00012021
 30
0.0
 11
6115.99999998
 21
5284.00012021
 31
0.0
  0
LINE
  5
65E
330
2
100
AcDbEntity
  8
YKK_N1
  6
Continuous
100
AcDbLine
 10
6065.99999998
 20
6384.39757921
 30
0.0
 11
6165.99999998
 21
6384.39757921
 31
0.0
  0
LINE
  5
65F
330
2
100
AcDbEntity
  8
YKK_N1
  6
Continuous
100
AcDbLine
 10
6065.99999998
 20
6384.39757921
 30
0.0
 11
6115.99999998
 21
6471.00012021
 31
0.0
  0
LINE
  5
660
330
2
100
AcDbEntity
  8
YKK_N1
  6
Continuous
100
AcDbLine
 10
6165.99999998
 20
6384.39757921
 30
0.0
 11
6115.99999998
 21
6471.00012021
 31
0.0
  0
LINE
  5
661
330
2
100
AcDbEntity
  8
YKK_N1
  6
Continuous
100
AcDbLine
 10
6065.99999998
 20
5370.60266021
 30
0.0
 11
6165.99999998
 21
5370.60266021
 31
0.0
  0
LINE
  5
662
330
2
100
AcDbEntity
  8
YKK_N1
  6
Continuous
100
AcDbLine
 10
6065.99999998
 20
5370.60266021
 30
0.0
 11
6115.99999998
 21
5284.00012021
 31
0.0
  0
LINE
  5
663
330
2
100
AcDbEntity
  8
YKK_N1
  6
Continuous
100
AcDbLine
 10
6165.99999998
 20
5370.60266021
 30
0.0
 11
6115.99999998
 21
5284.00012021
 31
0.0
  0
TEXT
  5
664
330
2
100
AcDbEntity
  8
YKK_N1
  6
Continuous
100
AcDbText
 10
6098.99999998
 20
5403.10570136
 30
0.0
 40
50.0
  1
ジョイント枠出来高JH=1187
 50
90.0
 41
1.122581
  7
MX_NOTE_STANDARD
 11
6073.99999998
 21
5403.10570136
 31
0.0
100
AcDbText
 73
     2
  0
LINE
  5
665
330
2
100
AcDbEntity
  8
YKK_N1
  6
Continuous
100
AcDbLine
 10
5790.99999998
 20
5284.00012021
 30
0.0
 11
6115.99999998
 21
5284.00012021
 31
0.0
  0
TEXT
  5
666
330
2
100
AcDbEntity
  8
YKK_N1
  6
Continuous
100
AcDbText
 10
5330.65274891
 20
3323.48897129
 30
0.0
 40
60.0
  1
115
 50
90.0
  7
MX_NOTE_STANDARD
 11
5300.65274891
 21
3323.48897129
 31
0.0
100
AcDbText
 73
     2
  0
CIRCLE
  5
667
330
2
100
AcDbEntity
  8
YKK_N1
  6
Continuous
100
AcDbCircle
 10
5342.75899891
 20
3275.99595673
 30
0.0
 40
5.0
  0
CIRCLE
  5
668
330
2
100
AcDbEntity
  8
YKK_N1
  6
Continuous
100
AcDbCircle
 10
5342.65274891
 20
3160.99596873
 30
0.0
 40
5.0
  0
LINE
  5
669
330
2
100
AcDbEntity
  8
YKK_N1
  6
Continuous
100
AcDbLine
 10
5342.75899891
 20
3160.99596873
 30
0.0
 11
5342.75899891
 21
3275.99595673
 31
0.0
  0
LINE
  5
66A
330
2
100
AcDbEntity
  8
YKK_N1
  6
Continuous
100
AcDbLine
 10
5217.75899891
 20
3275.99595673
 30
0.0
 11
5342.75899891
 21
3275.99595673
 31
0.0
  0
LINE
  5
66B
330
2
100
AcDbEntity
  8
YKK_N1
  6
Continuous
100
AcDbLine
 10
5217.75899891
 20
3160.99596873
 30
0.0
 11
5342.75899891
 21
3160.99596873
 31
0.0
  0
LINE
  5
66C
330
2
100
AcDbEntity
  8
YKK_B1
  6
PHANTOM
100
AcDbLine
 10
5074.99999999
 20
3245.49792981
 30
0.0
 11
5074.99999999
 21
3841.49595684
 31
0.0
  0
ARC
  5
66D
330
2
100
AcDbEntity
  8
YKK_B1
  6
PHANTOM
100
AcDbCircle
 10
5074.75000005
 20
3314.62870928
 30
0.0
 40
526.8673068725846
100
AcDbArc
 50
353.28217864
 51
89.972813
  0
TEXT
  5
7C9
330
2
100
AcDbEntity
  8
0
100
AcDbText
 10
8534.7087729
 20
9812.5
 30
0.0
 40
100.0
  1
※図面を簡略化しております。詳細につきましては、詳細図（納まり図）をご参照ください。
  7
EXTFONT
 72
     2
 11
13485.66115385
 21
9812.5
 31
0.0
100
AcDbText
  0
ENDSEC
  0
SECTION
  2
OBJECTS
  0
DICTIONARY
  5
1E
330
0
100
AcDbDictionary
281
     1
  3
ACAD_BACKGROUND
350
6EF
  3
ACAD_CIP_PREVIOUS_PRODUCT_INFO
350
9D
  3
ACAD_COLOR
350
7B
  3
ACAD_DETAILVIEWSTYLE
350
95
  3
ACAD_GROUP
350
1C
  3
ACAD_LAYOUT
350
7C
  3
ACAD_MATERIAL
350
49
  3
ACAD_MLEADERSTYLE
350
91
  3
ACAD_MLINESTYLE
350
1D
  3
ACAD_PLOTSETTINGS
350
97
  3
ACAD_PLOTSTYLENAME
350
47
  3
ACAD_RENDER_ACTIVE_RAPIDRT_SETTINGS
350
A7
  3
ACAD_RENDER_ACTIVE_SETTINGS
350
744
  3
ACAD_SCALELIST
350
7F
  3
ACAD_SECTIONVIEWSTYLE
350
93
  3
ACAD_TABLESTYLE
350
7D
  3
ACAD_VISUALSTYLE
350
62
  3
ACDB_RECOMPOSE_DATA
350
823
  3
AcDbVariableDictionary
350
74B
  0
DICTIONARY
  5
705
330
16
100
AcDbDictionary
280
     1
281
     1
  0
DICTIONARY
  5
116
330
E
100
AcDbDictionary
280
     1
281
     1
  3
ACAD_LAYERSTATES
360
117
  0
DICTIONARY
  5
B2
330
6
100
AcDbDictionary
280
     1
281
     1
  3
ADSK_XREC_LAYER_RECONCILED
360
B3
  0
DICTIONARY
  5
B4
330
24
100
AcDbDictionary
280
     1
281
     1
  3
ADSK_XREC_LAYER_RECONCILED
360
B5
  0
DICTIONARY
  5
105
330
104
100
AcDbDictionary
280
     1
281
     1
  0
DICTIONARY
  5
107
330
106
100
AcDbDictionary
280
     1
281
     1
  0
DICTIONARY
  5
109
330
108
100
AcDbDictionary
280
     1
281
     1
  0
DICTIONARY
  5
10B
330
10A
100
AcDbDictionary
280
     1
281
     1
  0
DICTIONARY
  5
10D
330
10C
100
AcDbDictionary
280
     1
281
     1
  0
DICTIONARY
  5
10F
330
10E
100
AcDbDictionary
280
     1
281
     1
  0
DICTIONARY
  5
3
330
2
100
AcDbDictionary
280
     1
281
     1
  3
ACAD_LAYOUTSELFREF
360
4
  0
DICTIONARY
  5
A
330
9
100
AcDbDictionary
280
     1
281
     1
  3
ACAD_LAYOUTSELFREF
360
B
  0
DICTIONARY
  5
6EF
102
{ACAD_REACTORS
330
1E
102
}
330
1E
100
AcDbDictionary
281
     1
  0
XRECORD
  5
9D
102
{ACAD_REACTORS
330
1E
102
}
330
1E
100
AcDbXrecord
280
     1
300
ACD
300
2018
300
86830ACD_2018_0F
  0
DICTIONARY
  5
7B
102
{ACAD_REACTORS
330
1E
102
}
330
1E
100
AcDbDictionary
281
     1
  0
DICTIONARY
  5
95
102
{ACAD_REACTORS
330
1E
102
}
330
1E
100
AcDbDictionary
281
     1
  3
Imperial24
350
96
  3
Metric50
350
119
  0
DICTIONARY
  5
1C
102
{ACAD_REACTORS
330
1E
102
}
330
1E
100
AcDbDictionary
281
     1
  0
DICTIONARY
  5
7C
102
{ACAD_REACTORS
330
1E
102
}
330
1E
100
AcDbDictionary
281
     1
  3
Model
350
98
  3
レイアウト1
350
99
  0
DICTIONARY
  5
49
102
{ACAD_REACTORS
330
1E
102
}
330
1E
100
AcDbDictionary
281
     1
  3
ByBlock
350
52
  3
ByLayer
350
4A
  3
Global
350
5A
  0
DICTIONARY
  5
91
102
{ACAD_REACTORS
330
1E
102
}
330
1E
100
AcDbDictionary
281
     1
  3
Standard
350
92
  0
DICTIONARY
  5
1D
102
{ACAD_REACTORS
330
1E
102
}
330
1E
100
AcDbDictionary
281
     1
  3
STANDARD
350
1F
  0
DICTIONARY
  5
97
102
{ACAD_REACTORS
330
1E
102
}
330
1E
100
AcDbDictionary
281
     1
  0
ACDBDICTIONARYWDFLT
  5
47
102
{ACAD_REACTORS
330
1E
102
}
330
1E
100
AcDbDictionary
281
     1
  3
Normal
350
48
100
AcDbDictionaryWithDefault
340
48
  0
RAPIDRTRENDERSETTINGS
  5
A7
102
{ACAD_REACTORS
330
1E
102
}
330
1E
100
AcDbRenderSettings
 90
        2
  1
中
290
     1
290
     0
290
     1
290
     1
  1

  1
5 レンダリング レベルを適用
 90
        0
100
AcDbRapidRTRenderSettings
 90
        3
 70
     0
 90
        5
 90
        1
 70
     1
 70
     2
 40
3.0
 40
3.0
290
     1
  0
MENTALRAYRENDERSETTINGS
  5
744
102
{ACAD_XDICTIONARY
360
745
102
}
102
{ACAD_REACTORS
330
1E
102
}
330
1E
100
AcDbRenderSettings
 90
        2
  1
中間
290
     1
290
     1
290
     1
290
     1
  1

  1

 90
        0
100
AcDbMentalRayRenderSettings
 90
        2
 90
        0
 90
        1
 70
     2
 40
3.0
 40
3.0
 40
0.05
 40
0.05
 40
0.05
 40
0.05
 70
     0
290
     0
290
     1
 90
        5
 90
        5
 90
        5
290
     0
 90
      500
290
     0
 40
1.0
 90
    10000
 90
        5
 90
        5
 90
        5
290
     0
 90
      200
290
     0
290
     0
290
     0
 40
1.0
 40
1.0
 40
1500.0
 70
     0
 70
     0
 40
10.0
 70
     0
 70
     0
290
     0
  1

 90
       32
 70
     0
 90
     1048
290
     0
 40
1.0
  0
DICTIONARY
  5
7F
102
{ACAD_REACTORS
330
1E
102
}
330
1E
100
AcDbDictionary
281
     1
  3
A0
350
80
  3
A1
350
81
  3
A2
350
82
  3
A3
350
83
  3
A4
350
84
  3
A5
350
85
  3
A6
350
86
  3
A7
350
87
  3
A8
350
88
  3
A9
350
89
  3
B0
350
8A
  3
B1
350
8B
  3
B2
350
8C
  3
B3
350
8D
  3
B4
350
8E
  3
B5
350
8F
  3
B6
350
90
  0
DICTIONARY
  5
93
102
{ACAD_REACTORS
330
1E
102
}
330
1E
100
AcDbDictionary
281
     1
  3
Imperial24
350
94
  3
Metric50
350
118
  0
DICTIONARY
  5
7D
102
{ACAD_REACTORS
330
1E
102
}
330
1E
100
AcDbDictionary
281
     1
  3
Standard
350
7E
  0
DICTIONARY
  5
62
102
{ACAD_REACTORS
330
1E
102
}
330
1E
100
AcDbDictionary
281
     1
  3
2dWireframe
350
68
  3
Basic
350
67
  3
Brighten
350
6E
  3
ColorChange
350
72
  3
Conceptual
350
6B
  3
Dim
350
6D
  3
EdgeColorOff
350
7A
  3
Facepattern
350
71
  3
Flat
350
63
  3
FlatWithEdges
350
64
  3
Gouraud
350
65
  3
GouraudWithEdges
350
66
  3
Hidden
350
6A
  3
JitterOff
350
78
  3
Linepattern
350
70
  3
OverhangOff
350
79
  3
Realistic
350
6C
  3
Shaded
350
77
  3
Shaded with edges
350
76
  3
Shades of Gray
350
73
  3
Sketchy
350
74
  3
Thicken
350
6F
  3
Wireframe
350
69
  3
X-Ray
350
75
  0
XRECORD
  5
823
102
{ACAD_REACTORS
330
1E
102
}
330
1E
100
AcDbXrecord
280
     1
 90
        1
330
7E
  0
DICTIONARY
  5
74B
102
{ACAD_REACTORS
330
1E
102
}
330
1E
100
AcDbDictionary
281
     1
  3
CANNOSCALE
350
750
  3
CMLEADERSTYLE
350
74D
  3
CTABLESTYLE
350
74C
  3
CVIEWDETAILSTYLE
350
74E
  3
CVIEWSECTIONSTYLE
350
74F
  3
XCLIPFRAME
350
821
  0
DICTIONARY
  5
117
102
{ACAD_REACTORS
330
116
102
}
330
116
100
AcDbDictionary
281
     1
  0
XRECORD
  5
B3
102
{ACAD_REACTORS
330
B2
102
}
330
B2
100
AcDbXrecord
280
     1
290
     1
  0
XRECORD
  5
B5
102
{ACAD_REACTORS
330
B4
102
}
330
B4
100
AcDbXrecord
280
     1
290
     1
  0
XRECORD
  5
4
102
{ACAD_REACTORS
330
3
102
}
330
3
100
AcDbXrecord
280
     1
340
2
  0
XRECORD
  5
B
102
{ACAD_REACTORS
330
A
102
}
330
A
100
AcDbXrecord
280
     1
340
9
  0
ACDBDETAILVIEWSTYLE
  5
96
102
{ACAD_XDICTIONARY
360
85C
102
}
102
{ACAD_REACTORS
330
95
102
}
330
95
100
AcDbModelDocViewStyle
 70
     0
  3
Imperial24
290
     0
100
AcDbDetailViewStyle
 70
     0
 71
     0
 90
        3
 71
     1
340
10
 62
   256
 40
0.24
340
0
 62
   256
 40
0.24
300

 40
0.36
280
     3
 71
     2
340
7
 90
       25
 62
   256
 71
     3
340
10
 62
   256
 40
0.24
 90
        1
 40
0.75
 90
        1
300
%<\AcVar ViewType \f "%tc1">% %<\AcVar ViewDetailId>%\PSCALE %<\AcVar ViewScale \f "%sn">%
 71
     4
340
7
 90
       25
 62
   256
340
7
 90
       25
 62
   256
280
     0
  0
ACDBDETAILVIEWSTYLE
  5
119
102
{ACAD_XDICTIONARY
360
860
102
}
102
{ACAD_REACTORS
330
95
102
}
330
95
100
AcDbModelDocViewStyle
 70
     0
  3
Metric50
290
     0
100
AcDbDetailViewStyle
 70
     0
 71
     0
 90
        3
 71
     1
340
10
 62
   256
 40
5.0
340
0
 62
   256
 40
5.0
300

 40
0.0
280
     1
 71
     2
340
7
 90
       25
 62
   256
 71
     3
340
10
 62
   256
 40
5.0
 90
        0
 40
15.0
 90
        1
300
%<\AcVar ViewDetailId>% (%<\AcVar ViewScale \f "%sn">%)
 71
     4
340
7
 90
       25
 62
   256
340
7
 90
       25
 62
   256
280
     0
  0
LAYOUT
  5
98
102
{ACAD_XDICTIONARY
360
742
102
}
102
{ACAD_REACTORS
330
7C
102
}
330
7C
100
AcDbPlotSettings
  1

  2
FX ApeosPort-V C7776
  4
A4
  6

 40
4.90008307
 41
4.90005493
 42
4.90008545
 43
4.90008545
 44
210.01567078
 45
297.01065063
 46
0.0
 47
0.0
 48
0.0
 49
0.0
140
0.0
141
0.0
142
1.0
143
6240.87038063
 70
  1712
 72
     0
 73
     0
 74
     0
  7
monochrome.ctb
 75
     0
147
0.00016023
 76
     0
 77
     2
 78
   300
148
38988.52545419
149
1987.59756046
100
AcDbLayout
  1
Model
 70
     1
 71
     0
 10
0.0
 20
0.0
 11
12.0
 21
9.0
 12
0.0
 22
0.0
 32
0.0
 14
0.0
 24
0.0
 34
0.0
 15
0.0
 25
0.0
 35
0.0
146
0.0
 13
0.0
 23
0.0
 33
0.0
 16
1.0
 26
0.0
 36
0.0
 17
0.0
 27
1.0
 37
0.0
 76
     0
330
2
331
45
  0
LAYOUT
  5
99
102
{ACAD_REACTORS
330
7C
102
}
330
7C
100
AcDbPlotSettings
  1

  2
FX ApeosPort-V C7776
  4
A4
  6

 40
4.90008307
 41
4.90005493
 42
4.90008545
 43
4.90008545
 44
210.01567078
 45
297.01065063
 46
0.0
 47
0.0
 48
0.0
 49
0.0
140
0.0
141
0.0
142
1.0
143
1.0
 70
   688
 72
     0
 73
     0
 74
     5
  7
monochrome.ctb
 75
    16
147
1.0
 76
     0
 77
     2
 78
   300
148
0.0
149
0.0
100
AcDbLayout
  1
レイアウト1
 70
     0
 71
     1
 10
0.0
 20
0.0
 11
12.0
 21
9.0
 12
0.0
 22
0.0
 32
0.0
 14
1.00000000E+20
 24
1.00000000E+20
 34
1.00000000E+20
 15
-1.00000000E+20
 25
-1.00000000E+20
 35
-1.00000000E+20
146
0.0
 13
0.0
 23
0.0
 33
0.0
 16
1.0
 26
0.0
 36
0.0
 17
0.0
 27
1.0
 37
0.0
 76
     0
330
9
  0
MATERIAL
  5
52
102
{ACAD_XDICTIONARY
360
53
102
}
102
{ACAD_REACTORS
330
49
102
}
330
49
100
AcDbMaterial
  1
ByBlock
 72
     0
 43
0.02083333
 43
0.0
 43
0.0
 43
0.0
 43
0.0
 43
0.02083333
 43
0.0
 43
0.0
 43
0.0
 43
0.0
 43
1.0
 43
0.0
 43
0.0
 43
0.0
 43
0.0
 43
1.0
 77
     0
 47
0.02083333
 47
0.0
 47
0.0
 47
0.0
 47
0.0
 47
0.02083333
 47
0.0
 47
0.0
 47
0.0
 47
0.0
 47
1.0
 47
0.0
 47
0.0
 47
0.0
 47
0.0
 47
1.0
171
     0
 49
0.02083333
 49
0.0
 49
0.0
 49
0.0
 49
0.0
 49
0.02083333
 49
0.0
 49
0.0
 49
0.0
 49
0.0
 49
1.0
 49
0.0
 49
0.0
 49
0.0
 49
0.0
 49
1.0
175
     0
142
0.02083333
142
0.0
142
0.0
142
0.0
142
0.0
142
0.02083333
142
0.0
142
0.0
142
0.0
142
0.0
142
1.0
142
0.0
142
0.0
142
0.0
142
0.0
142
1.0
179
     0
144
0.02083333
144
0.0
144
0.0
144
0.0
144
0.0
144
0.02083333
144
0.0
144
0.0
144
0.0
144
0.0
144
1.0
144
0.0
144
0.0
144
0.0
144
0.0
144
1.0
147
0.02083333
147
0.0
147
0.0
147
0.0
147
0.0
147
0.02083333
147
0.0
147
0.0
147
0.0
147
0.0
147
1.0
147
0.0
147
0.0
147
0.0
147
0.0
147
1.0
  0
MATERIAL
  5
4A
102
{ACAD_XDICTIONARY
360
4B
102
}
102
{ACAD_REACTORS
330
49
102
}
330
49
100
AcDbMaterial
  1
ByLayer
 72
     0
 43
0.02083333
 43
0.0
 43
0.0
 43
0.0
 43
0.0
 43
0.02083333
 43
0.0
 43
0.0
 43
0.0
 43
0.0
 43
1.0
 43
0.0
 43
0.0
 43
0.0
 43
0.0
 43
1.0
 77
     0
 47
0.02083333
 47
0.0
 47
0.0
 47
0.0
 47
0.0
 47
0.02083333
 47
0.0
 47
0.0
 47
0.0
 47
0.0
 47
1.0
 47
0.0
 47
0.0
 47
0.0
 47
0.0
 47
1.0
171
     0
 49
0.02083333
 49
0.0
 49
0.0
 49
0.0
 49
0.0
 49
0.02083333
 49
0.0
 49
0.0
 49
0.0
 49
0.0
 49
1.0
 49
0.0
 49
0.0
 49
0.0
 49
0.0
 49
1.0
175
     0
142
0.02083333
142
0.0
142
0.0
142
0.0
142
0.0
142
0.02083333
142
0.0
142
0.0
142
0.0
142
0.0
142
1.0
142
0.0
142
0.0
142
0.0
142
0.0
142
1.0
179
     0
144
0.02083333
144
0.0
144
0.0
144
0.0
144
0.0
144
0.02083333
144
0.0
144
0.0
144
0.0
144
0.0
144
1.0
144
0.0
144
0.0
144
0.0
144
0.0
144
1.0
147
0.02083333
147
0.0
147
0.0
147
0.0
147
0.0
147
0.02083333
147
0.0
147
0.0
147
0.0
147
0.0
147
1.0
147
0.0
147
0.0
147
0.0
147
0.0
147
1.0
  0
MATERIAL
  5
5A
102
{ACAD_XDICTIONARY
360
5B
102
}
102
{ACAD_REACTORS
330
49
102
}
330
49
100
AcDbMaterial
  1
Global
 72
     0
 43
0.02083333
 43
0.0
 43
0.0
 43
0.0
 43
0.0
 43
0.02083333
 43
0.0
 43
0.0
 43
0.0
 43
0.0
 43
1.0
 43
0.0
 43
0.0
 43
0.0
 43
0.0
 43
1.0
 77
     0
 47
0.02083333
 47
0.0
 47
0.0
 47
0.0
 47
0.0
 47
0.02083333
 47
0.0
 47
0.0
 47
0.0
 47
0.0
 47
1.0
 47
0.0
 47
0.0
 47
0.0
 47
0.0
 47
1.0
171
     0
 49
0.02083333
 49
0.0
 49
0.0
 49
0.0
 49
0.0
 49
0.02083333
 49
0.0
 49
0.0
 49
0.0
 49
0.0
 49
1.0
 49
0.0
 49
0.0
 49
0.0
 49
0.0
 49
1.0
175
     0
142
0.02083333
142
0.0
142
0.0
142
0.0
142
0.0
142
0.02083333
142
0.0
142
0.0
142
0.0
142
0.0
142
1.0
142
0.0
142
0.0
142
0.0
142
0.0
142
1.0
179
     0
144
0.02083333
144
0.0
144
0.0
144
0.0
144
0.0
144
0.02083333
144
0.0
144
0.0
144
0.0
144
0.0
144
1.0
144
0.0
144
0.0
144
0.0
144
0.0
144
1.0
147
0.02083333
147
0.0
147
0.0
147
0.0
147
0.0
147
0.02083333
147
0.0
147
0.0
147
0.0
147
0.0
147
1.0
147
0.0
147
0.0
147
0.0
147
0.0
147
1.0
  0
MLEADERSTYLE
  5
92
102
{ACAD_XDICTIONARY
360
858
102
}
102
{ACAD_REACTORS
330
91
102
}
330
91
100
AcDbMLeaderStyle
170
     2
171
     1
172
     0
 90
        2
 40
0.0
 41
0.0
173
     1
 91
-1056964608
340
12
 92
       -2
290
     1
 42
0.09
291
     1
 43
0.36
  3
Standard
 44
0.18
300

342
10
174
     1
178
     6
175
     1
176
     0
 93
-1056964608
 45
0.18
292
     0
297
     0
 46
0.18
 94
-1056964608
 47
1.0
 49
1.0
140
1.0
293
     1
141
0.0
294
     1
177
     0
142
1.0
295
     0
296
     0
143
0.125
1001
ACAD_MLEADERVER
1070
     2
  0
MLINESTYLE
  5
1F
102
{ACAD_REACTORS
330
1D
102
}
330
1D
100
AcDbMlineStyle
  2
STANDARD
 70
     0
  3

 62
   256
 51
90.0
 52
90.0
 71
     2
 49
0.5
 62
   256
  6
BYLAYER
 49
-0.5
 62
   256
  6
BYLAYER
  0
ACDBPLACEHOLDER
  5
48
102
{ACAD_REACTORS
330
47
102
}
330
47
  0
DICTIONARY
  5
745
330
744
100
AcDbDictionary
280
     1
281
     1
  3
ADSK_XREC_MENTALRAYSETTINGSINFO
360
746
  0
SCALE
  5
80
102
{ACAD_REACTORS
330
7F
102
}
330
7F
100
AcDbScale
 70
     0
300
1:1
140
1.0
141
1.0
290
     1
  0
SCALE
  5
81
102
{ACAD_REACTORS
330
7F
102
}
330
7F
100
AcDbScale
 70
     0
300
1/128" = 1'-0"
140
0.0078125
141
12.0
290
     0
  0
SCALE
  5
82
102
{ACAD_REACTORS
330
7F
102
}
330
7F
100
AcDbScale
 70
     0
300
1/64" = 1'-0"
140
0.015625
141
12.0
290
     0
  0
SCALE
  5
83
102
{ACAD_REACTORS
330
7F
102
}
330
7F
100
AcDbScale
 70
     0
300
1/32" = 1'-0"
140
0.03125
141
12.0
290
     0
  0
SCALE
  5
84
102
{ACAD_REACTORS
330
7F
102
}
330
7F
100
AcDbScale
 70
     0
300
1/16" = 1'-0"
140
0.0625
141
12.0
290
     0
  0
SCALE
  5
85
102
{ACAD_REACTORS
330
7F
102
}
330
7F
100
AcDbScale
 70
     0
300
3/32" = 1'-0"
140
0.09375
141
12.0
290
     0
  0
SCALE
  5
86
102
{ACAD_REACTORS
330
7F
102
}
330
7F
100
AcDbScale
 70
     0
300
1/8" = 1'-0"
140
0.125
141
12.0
290
     0
  0
SCALE
  5
87
102
{ACAD_REACTORS
330
7F
102
}
330
7F
100
AcDbScale
 70
     0
300
3/16" = 1'-0"
140
0.1875
141
12.0
290
     0
  0
SCALE
  5
88
102
{ACAD_REACTORS
330
7F
102
}
330
7F
100
AcDbScale
 70
     0
300
1/4" = 1'-0"
140
0.25
141
12.0
290
     0
  0
SCALE
  5
89
102
{ACAD_REACTORS
330
7F
102
}
330
7F
100
AcDbScale
 70
     0
300
3/8" = 1'-0"
140
0.375
141
12.0
290
     0
  0
SCALE
  5
8A
102
{ACAD_REACTORS
330
7F
102
}
330
7F
100
AcDbScale
 70
     0
300
1/2" = 1'-0"
140
0.5
141
12.0
290
     0
  0
SCALE
  5
8B
102
{ACAD_REACTORS
330
7F
102
}
330
7F
100
AcDbScale
 70
     0
300
3/4" = 1'-0"
140
0.75
141
12.0
290
     0
  0
SCALE
  5
8C
102
{ACAD_REACTORS
330
7F
102
}
330
7F
100
AcDbScale
 70
     0
300
1" = 1'-0"
140
1.0
141
12.0
290
     0
  0
SCALE
  5
8D
102
{ACAD_REACTORS
330
7F
102
}
330
7F
100
AcDbScale
 70
     0
300
1-1/2" = 1'-0"
140
1.5
141
12.0
290
     0
  0
SCALE
  5
8E
102
{ACAD_REACTORS
330
7F
102
}
330
7F
100
AcDbScale
 70
     0
300
3" = 1'-0"
140
3.0
141
12.0
290
     0
  0
SCALE
  5
8F
102
{ACAD_REACTORS
330
7F
102
}
330
7F
100
AcDbScale
 70
     0
300
6" = 1'-0"
140
6.0
141
12.0
290
     0
  0
SCALE
  5
90
102
{ACAD_REACTORS
330
7F
102
}
330
7F
100
AcDbScale
 70
     0
300
1'-0" = 1'-0"
140
12.0
141
12.0
290
     0
  0
ACDBSECTIONVIEWSTYLE
  5
94
102
{ACAD_XDICTIONARY
360
85A
102
}
102
{ACAD_REACTORS
330
93
102
}
330
93
100
AcDbModelDocViewStyle
 70
     0
  3
Imperial24
290
     0
100
AcDbSectionViewStyle
 70
     0
 71
     0
 90
       78
 71
     1
340
10
 62
   256
 40
0.24
340
0
340
0
 62
   256
 40
0.24
300
I, O, Q, S, X, Z
 40
0.48
 90
        3
 40
0.18
 90
        1
 71
     2
340
7
 90
       25
 62
   256
340
7
 90
       50
 62
   256
 40
0.24
 40
0.0
 40
0.24
 71
     3
340
10
 62
   256
 40
0.24
 90
        1
 40
0.75
 90
        1
300
%<\AcVar ViewType \f "%tc1">% %<\AcVar ViewSectionStartId>%-%<\AcVar ViewSectionEndId>%\PSCALE %<\AcVar ViewScale \f "%sn">%
 71
     4
 62
   256
 62
   257
300
ANSI31
 40
1.0
 90
        0
290
     0
290
     0
 90
        6
 40
0.0
 40
1.57079633
 40
0.26179939
 40
1.30899694
 40
-0.26179939
 40
1.83259571
  0
ACDBSECTIONVIEWSTYLE
  5
118
102
{ACAD_XDICTIONARY
360
85E
102
}
102
{ACAD_REACTORS
330
93
102
}
330
93
100
AcDbModelDocViewStyle
 70
     0
  3
Metric50
290
     0
100
AcDbSectionViewStyle
 70
     0
 71
     0
 90
      102
 71
     1
340
10
 62
   256
 40
5.0
340
0
340
0
 62
   256
 40
5.0
300
I, O, Q, S, X, Z
 40
10.0
 90
        0
 40
2.5
 90
        0
 71
     2
340
7
 90
       25
 62
   256
340
7
 90
       50
 62
   256
 40
5.0
 40
2.5
 40
5.0
 71
     3
340
10
 62
   256
 40
5.0
 90
        0
 40
15.0
 90
        1
300
%<\AcVar ViewSectionStartId>%-%<\AcVar ViewSectionEndId>% (%<\AcVar ViewScale \f "%sn">%)
 71
     4
 62
   256
 62
   257
300
ANSI31
 40
1.0
 90
        0
290
     0
290
     0
 90
        6
 40
0.0
 40
1.57079633
 40
0.26179939
 40
1.30899694
 40
-0.26179939
 40
1.83259571
  0
TABLESTYLE
  5
7E
102
{ACAD_XDICTIONARY
360
6FA
102
}
102
{ACAD_REACTORS
330
7D
102
}
330
7D
100
AcDbTableStyle
  3
Standard
 70
     0
 71
     0
 40
0.06
 41
0.06
280
     0
281
     0
  7
STANDARD
140
0.18
170
     2
 62
     0
 63
     7
283
     0
274
    -2
284
     1
 64
     0
275
    -2
285
     1
 65
     0
276
    -2
286
     1
 66
     0
277
    -2
287
     1
 67
     0
278
    -2
288
     1
 68
     0
279
    -2
289
     1
 69
     0
  7
STANDARD
140
0.25
170
     5
 62
     0
 63
     7
283
     0
274
    -2
284
     1
 64
     0
275
    -2
285
     1
 65
     0
276
    -2
286
     1
 66
     0
277
    -2
287
     1
 67
     0
278
    -2
288
     1
 68
     0
279
    -2
289
     1
 69
     0
  7
STANDARD
140
0.18
170
     5
 62
     0
 63
     7
283
     0
274
    -2
284
     1
 64
     0
275
    -2
285
     1
 65
     0
276
    -2
286
     1
 66
     0
277
    -2
287
     1
 67
     0
278
    -2
288
     1
 68
     0
279
    -2
289
     1
 69
     0
  0
VISUALSTYLE
  5
68
102
{ACAD_XDICTIONARY
360
831
102
}
102
{ACAD_REACTORS
330
62
102
}
330
62
100
AcDbVisualStyle
  2
2dWireframe
 70
     4
 71
     0
 72
     2
 73
     0
 90
        0
 40
-0.6
 41
-30.0
 62
     5
 63
     7
421
 16777215
 74
     1
 91
        4
 64
     7
 65
   257
 75
     1
175
     1
 42
1.0
 92
        0
 66
   257
 43
1.0
 76
     1
 77
     6
 78
     2
 67
     7
 79
     5
170
     0
171
     0
290
     0
174
     0
 93
        1
 44
0.0
173
     0
291
     0
 45
0.0
1001
ACAD
1000
AcDbSavedByObjectVersion
1070
     0
  0
VISUALSTYLE
  5
67
102
{ACAD_XDICTIONARY
360
82F
102
}
102
{ACAD_REACTORS
330
62
102
}
330
62
100
AcDbVisualStyle
  2
Basic
 70
     7
 71
     1
 72
     0
 73
     1
 90
        0
 40
-0.6
 41
-30.0
 62
     5
 63
     7
421
 16777215
 74
     0
 91
        4
 64
     7
 65
   257
 75
     1
175
     1
 42
1.0
 92
        8
 66
     7
 43
1.0
 76
     1
 77
     6
 78
     2
 67
     7
 79
     5
170
     0
171
     0
290
     0
174
     0
 93
        1
 44
0.0
173
     0
291
     1
 45
0.0
1001
ACAD
1000
AcDbSavedByObjectVersion
1070
     0
  0
VISUALSTYLE
  5
6E
102
{ACAD_XDICTIONARY
360
83D
102
}
102
{ACAD_REACTORS
330
62
102
}
330
62
100
AcDbVisualStyle
  2
Brighten
 70
    12
 71
     2
 72
     2
 73
     0
 90
        0
 40
-0.6
 41
-30.0
 62
     5
 63
     7
421
 16777215
 74
     1
 91
        4
 64
     7
 65
   257
 75
     1
175
     1
 42
1.0
 92
        8
 66
     7
 43
1.0
 76
     1
 77
     6
 78
     2
 67
     7
 79
     5
170
     0
171
     0
290
     0
174
     0
 93
        1
 44
50.0
173
     0
291
     1
 45
0.0
1001
ACAD
1000
AcDbSavedByObjectVersion
1070
     0
  0
VISUALSTYLE
  5
72
102
{ACAD_XDICTIONARY
360
845
102
}
102
{ACAD_REACTORS
330
62
102
}
330
62
100
AcDbVisualStyle
  2
ColorChange
 70
    16
 71
     2
 72
     2
 73
     3
 90
        0
 40
-0.6
 41
-30.0
 62
     5
 63
     8
421
  8421504
 74
     1
 91
        4
 64
     7
 65
   257
 75
     1
175
     1
 42
1.0
 92
        8
 66
     8
424
  8421504
 43
1.0
 76
     1
 77
     6
 78
     2
 67
     7
 79
     5
170
     0
171
     0
290
     0
174
     0
 93
        1
 44
0.0
173
     0
291
     1
 45
0.0
1001
ACAD
1000
AcDbSavedByObjectVersion
1070
     0
  0
VISUALSTYLE
  5
6B
102
{ACAD_XDICTIONARY
360
837
102
}
102
{ACAD_REACTORS
330
62
102
}
330
62
100
AcDbVisualStyle
  2
Conceptual
 70
     9
 71
     3
 72
     2
 73
     0
 90
        0
 40
-0.6
 41
-30.0
 62
     5
 63
     7
421
 16777215
 74
     2
 91
        2
 64
     7
 65
   257
 75
     1
175
     1
 42
179.0
 92
        8
 66
     7
 43
1.0
 76
     1
 77
     6
 78
     2
 67
     7
 79
     3
170
     0
171
     0
290
     0
174
     0
 93
        1
 44
0.0
173
     0
291
     0
 45
0.0
1001
ACAD
1000
AcDbSavedByObjectVersion
1070
     0
  0
VISUALSTYLE
  5
6D
102
{ACAD_XDICTIONARY
360
83B
102
}
102
{ACAD_REACTORS
330
62
102
}
330
62
100
AcDbVisualStyle
  2
Dim
 70
    11
 71
     2
 72
     2
 73
     0
 90
        0
 40
-0.6
 41
-30.0
 62
     5
 63
     7
421
 16777215
 74
     1
 91
        4
 64
     7
 65
   257
 75
     1
175
     1
 42
1.0
 92
        8
 66
     7
 43
1.0
 76
     1
 77
     6
 78
     2
 67
     7
 79
     5
170
     0
171
     0
290
     0
174
     0
 93
        1
 44
-50.0
173
     0
291
     1
 45
0.0
1001
ACAD
1000
AcDbSavedByObjectVersion
1070
     0
  0
VISUALSTYLE
  5
7A
102
{ACAD_XDICTIONARY
360
855
102
}
102
{ACAD_REACTORS
330
62
102
}
330
62
100
AcDbVisualStyle
  2
EdgeColorOff
 70
    22
 71
     2
 72
     2
 73
     0
 90
        0
 40
-0.6
 41
-30.0
 62
     5
 63
     7
421
 16777215
 74
     1
 91
        4
 64
     7
 65
   257
 75
     1
175
     1
 42
1.0
 92
        8
 66
     7
 43
1.0
 76
     1
 77
     6
 78
     2
 67
     7
 79
     5
170
     0
171
     0
290
     0
174
     0
 93
        1
 44
0.0
173
     0
291
     1
 45
0.0
1001
ACAD
1000
AcDbSavedByObjectVersion
1070
     0
  0
VISUALSTYLE
  5
71
102
{ACAD_XDICTIONARY
360
843
102
}
102
{ACAD_REACTORS
330
62
102
}
330
62
100
AcDbVisualStyle
  2
Facepattern
 70
    15
 71
     2
 72
     2
 73
     0
 90
        0
 40
-0.6
 41
-30.0
 62
     5
 63
     7
421
 16777215
 74
     1
 91
        4
 64
     7
 65
   257
 75
     1
175
     1
 42
1.0
 92
        8
 66
     7
 43
1.0
 76
     1
 77
     6
 78
     2
 67
     7
 79
     5
170
     0
171
     0
290
     0
174
     0
 93
        1
 44
0.0
173
     0
291
     1
 45
0.0
1001
ACAD
1000
AcDbSavedByObjectVersion
1070
     0
  0
VISUALSTYLE
  5
63
102
{ACAD_XDICTIONARY
360
827
102
}
102
{ACAD_REACTORS
330
62
102
}
330
62
100
AcDbVisualStyle
  2
Flat
 70
     0
 71
     2
 72
     1
 73
     1
 90
        2
 40
-0.6
 41
30.0
 62
     5
 63
     7
421
 16777215
 74
     0
 91
        0
 64
     7
 65
   257
 75
     1
175
     1
 42
1.0
 92
        8
 66
     7
 43
1.0
 76
     1
 77
     6
 78
     2
 67
     7
 79
     5
170
     0
171
     0
290
     0
174
     0
 93
       13
 44
0.0
173
     0
291
     1
 45
0.0
1001
ACAD
1000
AcDbSavedByObjectVersion
1070
     0
  0
VISUALSTYLE
  5
64
102
{ACAD_XDICTIONARY
360
829
102
}
102
{ACAD_REACTORS
330
62
102
}
330
62
100
AcDbVisualStyle
  2
FlatWithEdges
 70
     1
 71
     2
 72
     1
 73
     1
 90
        2
 40
-0.6
 41
30.0
 62
     5
 63
     7
421
 16777215
 74
     1
 91
        0
 64
     7
 65
   257
 75
     1
175
     1
 42
1.0
 92
        0
 66
   257
 43
1.0
 76
     1
 77
     6
 78
     2
 67
     7
 79
     5
170
     0
171
     0
290
     0
174
     0
 93
       13
 44
0.0
173
     0
291
     1
 45
0.0
1001
ACAD
1000
AcDbSavedByObjectVersion
1070
     0
  0
VISUALSTYLE
  5
65
102
{ACAD_XDICTIONARY
360
82B
102
}
102
{ACAD_REACTORS
330
62
102
}
330
62
100
AcDbVisualStyle
  2
Gouraud
 70
     2
 71
     2
 72
     2
 73
     1
 90
        2
 40
-0.6
 41
30.0
 62
     5
 63
     7
421
 16777215
 74
     0
 91
        0
 64
     7
 65
   257
 75
     1
175
     1
 42
1.0
 92
        0
 66
     7
 43
1.0
 76
     1
 77
     6
 78
     2
 67
     7
 79
     5
170
     0
171
     0
290
     0
174
     0
 93
       13
 44
0.0
173
     0
291
     1
 45
0.0
1001
ACAD
1000
AcDbSavedByObjectVersion
1070
     0
  0
VISUALSTYLE
  5
66
102
{ACAD_XDICTIONARY
360
82D
102
}
102
{ACAD_REACTORS
330
62
102
}
330
62
100
AcDbVisualStyle
  2
GouraudWithEdges
 70
     3
 71
     2
 72
     2
 73
     1
 90
        2
 40
-0.6
 41
30.0
 62
     5
 63
     7
421
 16777215
 74
     1
 91
        0
 64
     7
 65
   257
 75
     1
175
     1
 42
1.0
 92
        0
 66
   257
 43
1.0
 76
     1
 77
     6
 78
     2
 67
     7
 79
     5
170
     0
171
     0
290
     0
174
     0
 93
       13
 44
0.0
173
     0
291
     1
 45
0.0
1001
ACAD
1000
AcDbSavedByObjectVersion
1070
     0
  0
VISUALSTYLE
  5
6A
102
{ACAD_XDICTIONARY
360
835
102
}
102
{ACAD_REACTORS
330
62
102
}
330
62
100
AcDbVisualStyle
  2
Hidden
 70
     6
 71
     1
 72
     2
 73
     2
 90
        0
 40
-0.6
 41
-30.0
 62
     5
 63
     7
421
 16777215
 74
     2
 91
        2
 64
     7
 65
   257
 75
     2
175
     1
 42
40.0
 92
        0
 66
   257
 43
1.0
 76
     1
 77
     6
 78
     2
 67
     7
 79
     3
170
     0
171
     0
290
     0
174
     0
 93
        1
 44
0.0
173
     0
291
     0
 45
0.0
1001
ACAD
1000
AcDbSavedByObjectVersion
1070
     0
  0
VISUALSTYLE
  5
78
102
{ACAD_XDICTIONARY
360
851
102
}
102
{ACAD_REACTORS
330
62
102
}
330
62
100
AcDbVisualStyle
  2
JitterOff
 70
    20
 71
     2
 72
     2
 73
     0
 90
        0
 40
-0.6
 41
-30.0
 62
     5
 63
     7
421
 16777215
 74
     1
 91
        4
 64
     7
 65
   257
 75
     1
175
     1
 42
1.0
 92
       10
 66
     7
 43
1.0
 76
     1
 77
     6
 78
     2
 67
     7
 79
     5
170
     0
171
     0
290
     0
174
     0
 93
        1
 44
0.0
173
     0
291
     1
 45
0.0
1001
ACAD
1000
AcDbSavedByObjectVersion
1070
     0
  0
VISUALSTYLE
  5
70
102
{ACAD_XDICTIONARY
360
841
102
}
102
{ACAD_REACTORS
330
62
102
}
330
62
100
AcDbVisualStyle
  2
Linepattern
 70
    14
 71
     2
 72
     2
 73
     0
 90
        0
 40
-0.6
 41
-30.0
 62
     5
 63
     7
421
 16777215
 74
     1
 91
        4
 64
     7
 65
   257
 75
     7
175
     7
 42
1.0
 92
        8
 66
     7
 43
1.0
 76
     1
 77
     6
 78
     2
 67
     7
 79
     5
170
     0
171
     0
290
     0
174
     0
 93
        1
 44
0.0
173
     0
291
     1
 45
0.0
1001
ACAD
1000
AcDbSavedByObjectVersion
1070
     0
  0
VISUALSTYLE
  5
79
102
{ACAD_XDICTIONARY
360
853
102
}
102
{ACAD_REACTORS
330
62
102
}
330
62
100
AcDbVisualStyle
  2
OverhangOff
 70
    21
 71
     2
 72
     2
 73
     0
 90
        0
 40
-0.6
 41
-30.0
 62
     5
 63
     7
421
 16777215
 74
     1
 91
        4
 64
     7
 65
   257
 75
     1
175
     1
 42
1.0
 92
        9
 66
     7
 43
1.0
 76
     1
 77
     6
 78
     2
 67
     7
 79
     5
170
     0
171
     0
290
     0
174
     0
 93
        1
 44
0.0
173
     0
291
     1
 45
0.0
1001
ACAD
1000
AcDbSavedByObjectVersion
1070
     0
  0
VISUALSTYLE
  5
6C
102
{ACAD_XDICTIONARY
360
839
102
}
102
{ACAD_REACTORS
330
62
102
}
330
62
100
AcDbVisualStyle
  2
Realistic
 70
     8
 71
     2
 72
     2
 73
     0
 90
        2
 40
-0.6
 41
30.0
 62
     5
 63
     7
421
 16777215
 74
     0
 91
        0
 64
     7
 65
   257
 75
     1
175
     1
 42
1.0
 92
        8
 66
   257
 43
1.0
 76
     1
 77
     6
 78
     2
 67
     7
 79
     3
170
     0
171
     0
290
     0
174
     0
 93
       13
 44
0.0
173
     0
291
     0
 45
0.0
1001
ACAD
1000
AcDbSavedByObjectVersion
1070
     0
  0
VISUALSTYLE
  5
77
102
{ACAD_XDICTIONARY
360
84F
102
}
102
{ACAD_REACTORS
330
62
102
}
330
62
100
AcDbVisualStyle
  2
Shaded
 70
    27
 71
     2
 72
     2
 73
     1
 90
        2
 40
-0.6
 41
30.0
 62
     5
 63
     7
421
 16777215
 74
     0
 91
        4
 64
     7
 65
   257
 75
     1
175
     1
 42
1.0
 92
        8
 66
   257
 43
1.0
 76
     1
 77
     6
 78
     2
 67
     8
425
  7895160
 79
     3
170
     0
171
     0
290
     0
174
     0
 93
        5
 44
0.0
173
     0
291
     0
 45
0.0
1001
ACAD
1000
AcDbSavedByObjectVersion
1070
     0
  0
VISUALSTYLE
  5
76
102
{ACAD_XDICTIONARY
360
84D
102
}
102
{ACAD_REACTORS
330
62
102
}
330
62
100
AcDbVisualStyle
  2
Shaded with edges
 70
    26
 71
     2
 72
     2
 73
     1
 90
        2
 40
-0.6
 41
30.0
 62
     5
 63
     7
421
 16777215
 74
     1
 91
        2
 64
     7
 65
   257
 75
     2
175
     1
 42
1.0
 92
        8
 66
   257
 43
1.0
 76
     1
 77
     6
 78
     2
 67
     7
 79
     3
170
     0
171
     0
290
     0
174
     0
 93
        5
 44
0.0
173
     0
291
     0
 45
0.0
1001
ACAD
1000
AcDbSavedByObjectVersion
1070
     0
  0
VISUALSTYLE
  5
73
102
{ACAD_XDICTIONARY
360
847
102
}
102
{ACAD_REACTORS
330
62
102
}
330
62
100
AcDbVisualStyle
  2
Shades of Gray
 70
    23
 71
     2
 72
     2
 73
     3
 90
        0
 40
-0.6
 41
-30.0
 62
     5
 63
     7
421
 16777215
 74
     2
 91
        2
 64
     7
 65
     7
 75
     1
175
     1
 42
40.0
 92
        8
 66
     7
 43
1.0
 76
     1
 77
     6
 78
     2
 67
     7
 79
     3
170
     0
171
     0
290
     0
174
     0
 93
        1
 44
0.0
173
     0
291
     0
 45
0.0
1001
ACAD
1000
AcDbSavedByObjectVersion
1070
     0
  0
VISUALSTYLE
  5
74
102
{ACAD_XDICTIONARY
360
849
102
}
102
{ACAD_REACTORS
330
62
102
}
330
62
100
AcDbVisualStyle
  2
Sketchy
 70
    24
 71
     1
 72
     2
 73
     2
 90
        0
 40
-0.6
 41
-30.0
 62
     5
 63
     7
421
 16777215
 74
     2
 91
        2
 64
     7
 65
     7
 75
     1
175
     1
 42
40.0
 92
       11
 66
     7
 43
1.0
 76
     1
 77
     6
 78
     2
 67
     7
 79
     6
170
     0
171
     0
290
     0
174
     0
 93
        1
 44
0.0
173
     0
291
     0
 45
0.0
1001
ACAD
1000
AcDbSavedByObjectVersion
1070
     0
  0
VISUALSTYLE
  5
6F
102
{ACAD_XDICTIONARY
360
83F
102
}
102
{ACAD_REACTORS
330
62
102
}
330
62
100
AcDbVisualStyle
  2
Thicken
 70
    13
 71
     2
 72
     2
 73
     0
 90
        0
 40
-0.6
 41
-30.0
 62
     5
 63
     7
421
 16777215
 74
     1
 91
        4
 64
     7
 65
   257
 75
     1
175
     1
 42
1.0
 92
       12
 66
     7
 43
1.0
 76
     1
 77
     6
 78
     2
 67
     7
 79
     5
170
     0
171
     0
290
     0
174
     0
 93
        1
 44
0.0
173
     0
291
     1
 45
0.0
1001
ACAD
1000
AcDbSavedByObjectVersion
1070
     0
  0
VISUALSTYLE
  5
69
102
{ACAD_XDICTIONARY
360
833
102
}
102
{ACAD_REACTORS
330
62
102
}
330
62
100
AcDbVisualStyle
  2
Wireframe
 70
     5
 71
     0
 72
     2
 73
     0
 90
        0
 40
-0.6
 41
-30.0
 62
     5
 63
     7
421
 16777215
 74
     1
 91
        4
 64
     7
 65
   257
 75
     1
175
     1
 42
1.0
 92
        0
 66
   257
 43
1.0
 76
     1
 77
     6
 78
     2
 67
     7
 79
     3
170
     0
171
     0
290
     0
174
     0
 93
        1
 44
0.0
173
     0
291
     0
 45
0.0
1001
ACAD
1000
AcDbSavedByObjectVersion
1070
     0
  0
VISUALSTYLE
  5
75
102
{ACAD_XDICTIONARY
360
84B
102
}
102
{ACAD_REACTORS
330
62
102
}
330
62
100
AcDbVisualStyle
  2
X-Ray
 70
    25
 71
     2
 72
     2
 73
     1
 90
        1
 40
0.5
 41
-30.0
 62
     5
 63
     7
421
 16777215
 74
     1
 91
        0
 64
     7
 65
   257
 75
     1
175
     1
 42
1.0
 92
        8
 66
     7
 43
1.0
 76
     1
 77
     6
 78
     2
 67
     7
 79
     3
170
     0
171
     0
290
     0
174
     0
 93
       13
 44
0.0
173
     0
291
     0
 45
0.0
1001
ACAD
1000
AcDbSavedByObjectVersion
1070
     0
  0
DICTIONARYVAR
  5
750
102
{ACAD_REACTORS
330
74B
102
}
330
74B
100
DictionaryVariables
280
     0
  1
1:1
  0
DICTIONARYVAR
  5
74D
102
{ACAD_REACTORS
330
74B
102
}
330
74B
100
DictionaryVariables
280
     0
  1
STANDARD
  0
DICTIONARYVAR
  5
74C
102
{ACAD_REACTORS
330
74B
102
}
330
74B
100
DictionaryVariables
280
     0
  1
STANDARD
  0
DICTIONARYVAR
  5
74E
102
{ACAD_REACTORS
330
74B
102
}
330
74B
100
DictionaryVariables
280
     0
  1
Imperial24
  0
DICTIONARYVAR
  5
74F
102
{ACAD_REACTORS
330
74B
102
}
330
74B
100
DictionaryVariables
280
     0
  1
Imperial24
  0
DICTIONARYVAR
  5
821
102
{ACAD_REACTORS
330
74B
102
}
330
74B
100
DictionaryVariables
280
     0
  1
2
  0
DICTIONARY
  5
85C
330
96
100
AcDbDictionary
280
     1
281
     1
  3
ACAD_XREC_ROUNDTRIP
360
85D
  0
DICTIONARY
  5
860
330
119
100
AcDbDictionary
280
     1
281
     1
  3
ACAD_XREC_ROUNDTRIP
360
861
  0
DICTIONARY
  5
742
330
98
100
AcDbDictionary
280
     1
281
     1
  3
ADSK_XREC_LAYOUTTHUMBNAIL
360
743
  0
DICTIONARY
  5
53
330
52
100
AcDbDictionary
280
     1
281
     1
  3
ACAD_XREC_ROUNDTRIP
360
825
  3
BUMPTILE
360
55
  3
DIFFUSETILE
360
54
  3
OPACITYTILE
360
58
  3
REFLECTIONTILE
360
57
  3
REFRACTIONTILE
360
59
  3
SPECULARTILE
360
56
  0
DICTIONARY
  5
4B
330
4A
100
AcDbDictionary
280
     1
281
     1
  3
ACAD_XREC_ROUNDTRIP
360
824
  3
BUMPTILE
360
4D
  3
DIFFUSETILE
360
4C
  3
OPACITYTILE
360
50
  3
REFLECTIONTILE
360
4F
  3
REFRACTIONTILE
360
51
  3
SPECULARTILE
360
4E
  0
DICTIONARY
  5
5B
330
5A
100
AcDbDictionary
280
     1
281
     1
  3
ACAD_XREC_ROUNDTRIP
360
826
  3
BUMPTILE
360
5D
  3
DIFFUSETILE
360
5C
  3
OPACITYTILE
360
60
  3
REFLECTIONTILE
360
5F
  3
REFRACTIONTILE
360
61
  3
SPECULARTILE
360
5E
  0
DICTIONARY
  5
858
330
92
100
AcDbDictionary
280
     1
281
     1
  3
ACAD_XREC_ROUNDTRIP
360
859
  0
XRECORD
  5
746
102
{ACAD_REACTORS
330
745
102
}
330
745
100
AcDbXrecord
280
     1
 70
     2
 71
     3
 72
     0
  0
DICTIONARY
  5
85A
330
94
100
AcDbDictionary
280
     1
281
     1
  3
ACAD_XREC_ROUNDTRIP
360
85B
  0
DICTIONARY
  5
85E
330
118
100
AcDbDictionary
280
     1
281
     1
  3
ACAD_XREC_ROUNDTRIP
360
85F
  0
DICTIONARY
  5
6FA
330
7E
100
AcDbDictionary
280
     1
281
     1
  3
ACAD_ROUNDTRIP_2008_TABLESTYLE_CELLSTYLEMAP
360
822
  3
ACAD_XREC_ROUNDTRIP
360
857
  0
DICTIONARY
  5
831
330
68
100
AcDbDictionary
280
     1
281
     1
  3
ACAD_XREC_ROUNDTRIP
360
832
  0
DICTIONARY
  5
82F
330
67
100
AcDbDictionary
280
     1
281
     1
  3
ACAD_XREC_ROUNDTRIP
360
830
  0
DICTIONARY
  5
83D
330
6E
100
AcDbDictionary
280
     1
281
     1
  3
ACAD_XREC_ROUNDTRIP
360
83E
  0
DICTIONARY
  5
845
330
72
100
AcDbDictionary
280
     1
281
     1
  3
ACAD_XREC_ROUNDTRIP
360
846
  0
DICTIONARY
  5
837
330
6B
100
AcDbDictionary
280
     1
281
     1
  3
ACAD_XREC_ROUNDTRIP
360
838
  0
DICTIONARY
  5
83B
330
6D
100
AcDbDictionary
280
     1
281
     1
  3
ACAD_XREC_ROUNDTRIP
360
83C
  0
DICTIONARY
  5
855
330
7A
100
AcDbDictionary
280
     1
281
     1
  3
ACAD_XREC_ROUNDTRIP
360
856
  0
DICTIONARY
  5
843
330
71
100
AcDbDictionary
280
     1
281
     1
  3
ACAD_XREC_ROUNDTRIP
360
844
  0
DICTIONARY
  5
827
330
63
100
AcDbDictionary
280
     1
281
     1
  3
ACAD_XREC_ROUNDTRIP
360
828
  0
DICTIONARY
  5
829
330
64
100
AcDbDictionary
280
     1
281
     1
  3
ACAD_XREC_ROUNDTRIP
360
82A
  0
DICTIONARY
  5
82B
330
65
100
AcDbDictionary
280
     1
281
     1
  3
ACAD_XREC_ROUNDTRIP
360
82C
  0
DICTIONARY
  5
82D
330
66
100
AcDbDictionary
280
     1
281
     1
  3
ACAD_XREC_ROUNDTRIP
360
82E
  0
DICTIONARY
  5
835
330
6A
100
AcDbDictionary
280
     1
281
     1
  3
ACAD_XREC_ROUNDTRIP
360
836
  0
DICTIONARY
  5
851
330
78
100
AcDbDictionary
280
     1
281
     1
  3
ACAD_XREC_ROUNDTRIP
360
852
  0
DICTIONARY
  5
841
330
70
100
AcDbDictionary
280
     1
281
     1
  3
ACAD_XREC_ROUNDTRIP
360
842
  0
DICTIONARY
  5
853
330
79
100
AcDbDictionary
280
     1
281
     1
  3
ACAD_XREC_ROUNDTRIP
360
854
  0
DICTIONARY
  5
839
330
6C
100
AcDbDictionary
280
     1
281
     1
  3
ACAD_XREC_ROUNDTRIP
360
83A
  0
DICTIONARY
  5
84F
330
77
100
AcDbDictionary
280
     1
281
     1
  3
ACAD_XREC_ROUNDTRIP
360
850
  0
DICTIONARY
  5
84D
330
76
100
AcDbDictionary
280
     1
281
     1
  3
ACAD_XREC_ROUNDTRIP
360
84E
  0
DICTIONARY
  5
847
330
73
100
AcDbDictionary
280
     1
281
     1
  3
ACAD_XREC_ROUNDTRIP
360
848
  0
DICTIONARY
  5
849
330
74
100
AcDbDictionary
280
     1
281
     1
  3
ACAD_XREC_ROUNDTRIP
360
84A
  0
DICTIONARY
  5
83F
330
6F
100
AcDbDictionary
280
     1
281
     1
  3
ACAD_XREC_ROUNDTRIP
360
840
  0
DICTIONARY
  5
833
330
69
100
AcDbDictionary
280
     1
281
     1
  3
ACAD_XREC_ROUNDTRIP
360
834
  0
DICTIONARY
  5
84B
330
75
100
AcDbDictionary
280
     1
281
     1
  3
ACAD_XREC_ROUNDTRIP
360
84C
  0
XRECORD
  5
85D
102
{ACAD_REACTORS
330
85C
102
}
330
85C
100
AcDbXrecord
280
     1
102
DISPLAYNAME
  1
Imperial24
102
FLAGS
 90
        0
  0
XRECORD
  5
861
102
{ACAD_REACTORS
330
860
102
}
330
860
100
AcDbXrecord
280
     1
102
DISPLAYNAME
  1
Metric50
102
FLAGS
 90
        0
  0
XRECORD
  5
743
102
{ACAD_REACTORS
330
742
102
}
330
742
100
AcDbXrecord
280
     1
310
2800000000010000630000000100080000000000006300000100000001000000000100000000000000000000FFFFFFFF000000FF000000FF000000FF000000FF000000FF000000FF000000FF000000FF000000FF330000FF660000FF990000FFCC0000FFFF0000FF003300FF333300FF663300FF993300FFCC3300FFFF3300
310
FF006600FF336600FF666600FF996600FFCC6600FFFF6600FF009900FF339900FF669900FF999900FFCC9900FFFF9900FF00CC00FF33CC00FF66CC00FF99CC00FFCCCC00FFFFCC00FF00FF00FF33FF00FF66FF00FF99FF00FFCCFF00FFFFFF00FF000033FF330033FF660033FF990033FFCC0033FFFF0033FF003333FF3333
310
33FF663333FF993333FFCC3333FFFF3333FF006633FF336633FF666633FF996633FFCC6633FFFF6633FF009933FF339933FF669933FF999933FFCC9933FFFF9933FF00CC33FF33CC33FF66CC33FF99CC33FFCCCC33FFFFCC33FF00FF33FF33FF33FF66FF33FF99FF33FFCCFF33FFFFFF33FF000066FF330066FF660066FF99
310
0066FFCC0066FFFF0066FF003366FF333366FF663366FF993366FFCC3366FFFF3366FF006666FF336666FF666666FF996666FFCC6666FFFF6666FF009966FF339966FF669966FF999966FFCC9966FFFF9966FF00CC66FF33CC66FF66CC66FF99CC66FFCCCC66FFFFCC66FF00FF66FF33FF66FF66FF66FF99FF66FFCCFF66FF
310
FFFF66FF000099FF330099FF660099FF990099FFCC0099FFFF0099FF003399FF333399FF663399FF993399FFCC3399FFFF3399FF006699FF336699FF666699FF996699FFCC6699FFFF6699FF009999FF339999FF669999FF999999FFCC9999FFFF9999FF00CC99FF33CC99FF66CC99FF99CC99FFCCCC99FFFFCC99FF00FF99
310
FF33FF99FF66FF99FF99FF99FFCCFF99FFFFFF99FF0000CCFF3300CCFF6600CCFF9900CCFFCC00CCFFFF00CCFF0033CCFF3333CCFF6633CCFF9933CCFFCC33CCFFFF33CCFF0066CCFF3366CCFF6666CCFF9966CCFFCC66CCFFFF66CCFF0099CCFF3399CCFF6699CCFF9999CCFFCC99CCFFFF99CCFF00CCCCFF33CCCCFF66CC
310
CCFF99CCCCFFCCCCCCFFFFCCCCFF00FFCCFF33FFCCFF66FFCCFF99FFCCFFCCFFCCFFFFFFCCFF0000FFFF3300FFFF6600FFFF9900FFFFCC00FFFFFF00FFFF0033FFFF3333FFFF6633FFFF9933FFFFCC33FFFFFF33FFFF0066FFFF3366FFFF6666FFFF9966FFFFCC66FFFFFF66FFFF0099FFFF3399FFFF6699FFFF9999FFFFCC
310
99FFFFFF99FFFF00CCFFFF33CCFFFF66CCFFFF99CCFFFFCCCCFFFFFFCCFFFF00FFFFFF33FFFFFF66FFFFFF99FFFFFFCCFFFFFFFFFFFFFF000000FF0D0D0DFF1A1A1AFF282828FF353535FF434343FF505050FF5D5D5DFF6B6B6BFF787878FF868686FF939393FFA1A1A1FFAEAEAEFFBBBBBBFFC9C9C9FFD6D6D6FFE4E4E4FF
310
F1F1F1FFFFFFFFFF000000FF000000FF000000FF000000FF000000FF000000FF000000FF000000FF000000FF000000FF00000000000000000000000000000000000000000000000000000000000000000000000000000000000000000000000000000000000000000000000000000000000000000000000000000000000000
310
00000000000000000000000000000000000000000000000000000000000000000000000000000000000000000000000000000000000000000000000000000000000000000000000000000000000000000000000000000000000000000000000000000000000000000000000000000000000000000000000000000000000000
310
0000000000000000000000000000000000000000000000000000000000000000000000000000000000000000000000000000000000000000000000000000000000000000000000000000000000000000000000000000000000000000000000000000000000000000000000000000F5F5F5F5F5F5F5F5F5F5F5F5F5F5F5F5F5
310
F5F5F5F5F5F5F5F5F5F5F5F5F5F5F5F5F5F5F5F5F5F5F5F5F5F5F5F5F5F5F5F5F5F5F5F5F5F5F5F5F5F5F5F5F5F5F5F5F5F5F5F5F5F5F5F5F5F5F5F5F5F5F5F5F5F5F5F5F5F5F5F5F5F5F5F5F5F5F5F5F5F5F5F5F5F5F5F5F5F5F5F5F5F5F5F5F5F5F5F5F5F5F5F5F5F5F5F5F5F5F5F5F5F5F5F5F5F5F50000000000000000
310
00000000000000000000000000000000000000000000000000000000000000000000000000000000000000000000000000000000000000000000000000000000000000000000000000000000000000000000000000000000000000000000000000000000000000000000000000000000F50000000000000000000000000000
310
000000000000000000000000000000000000000000000000000000000000000000000000000000000000000000000000000000000000000000000000000000000000000000000000000000000000000000000000000000000000000000000000000000000000000000000000000000000000000000F50000F5000000000000
310
000000000000000000000000000000000000000000000000000000000000000000000000000000000000000000000000000000000000000000000000000000000000000000000000000000000000000000000000000000000000000000000000000000000000000000000000000000000000F5000000000000000000000000
310
0000000000000000000000000000000000000000000000000000000000000000000000000000000000000000000000000000000000000000000000000000000000000000000000000000000000000000000000000000000000000000000000000000000000000000000000000000000000000000000000F50000F500000000
310
0000000000000000000000000000000000000000000000000000000000000000000000000000000000000000000000000000000000000000000000000000000000000000000000000000000000000000000000000000000000000000000000000000000000000000000000000000000000000000F500000000000000000000
310
00000000000000000000000000000000000000000000000000000000000000000000000000000000000000000000000000000000000000000000000000000000000000000000000000000000000000000000000000000000000000000000000000000000000000000000000000000000000000000000000000F50000F50000
310
00000000000000000000000000000000000000000000000000000000000000000000000000000000000000000000000000000000000000000000000000000000000000000000000000000000000000000000000000000000000000000000000000000000000000000000000000000000000000000000F50000000000000000
310
000000000000000000000000000000000000000000000000000000000000000000000000000000000000000000000000000000000000000000000000000000000000000000000000000000000000000000000000000000000000000000000000000000000000000000000000000000000000000000000000000000F50000F5
310
000000000000000000000000000000000000000000000000000000000000000000000000000000000000000000000000000000000000000000000000000000000000000000000000000000000000000000000000000000000000000000000000000000000000000000000000000000000000000000000000F5000000000000
310
0000000000000000000000000000000000000000000000000000000000000000000000000000000000000000000000000000000000000000000000000000000000000000000000000000000000000000000000000000000000000000000000000000000000000000000000000000000000000000000000000000000000F500
310
00F5000000000000000000000000000000000000000000000000000000000000000000000000000000000000000000000000000000000000000000000000000000000000000000000000000000000000000000000000000000000000000000000000000000000000000000000000000000000000000000000000F500000000
310
00000000000000000000000000000000000000000000000000000000000000000000000000000000000000000000000000000000000000000000000000000000000000000000000000000000000000000000000000000000000000000000000000000000000000000000000000000000000000000000000000000000000000
310
F50000F5000000000000000000000000000000000000000000000000000000000000000000000000000000000000000000000000000000000000000000000000000000000000000000000000000000000000000000000000000000000000000000000000000000000000000000000000000000000000000000000000F50000
310
00000000000000000000000000000000000000000000000000000000000000000000000000000000000000000000000000000000000000000000000000000000000000000000000000000000000000000000000000000000000000000000000000000000000000000000000000000000000000000000000000000000000000
310
0000F50000F5000000000000000000000000000000000000000000000000000000000000000000000000000000000000000000000000000000000000000000000000000000000000000000000000000000000000000000000000000000000000000000000000000000000000000000000000000000000000000000000000F5
310
00000000000000000000000000000000000000000000000000000000000000000000000000000000000000000000000000000000000000000000000000000000000000000000000000000000000000000000000000000000000000000000000000000000000000000000000000000000000000000000000000000000000000
310
00000000F50000F50000000000000000000000000000000000000000000000000000000000000000000000000000000000000000000000000000000000000000000000000000000000000000000000000000000000000000000000000000000000000000000000000000000000000000000000000000000000000000000000
310
00F50000000000000000000000000000000000000000000000000000000000000000000000000000000000000000000000000000000000000000000000000000000000000000000000000000000000000000000000000000000000000000000000000000000000000000000000000000000000000000000000000000000000
310
000000000000F50000F5000000000000000000000000000000000000000000000000000000000000000000000000000000000000000000000000000000000000000000000000000000000000000000000000000000000000000000000000000000000000000000000000000000000000000000000000000000000000000000
310
000000F5000000000000000000000000000000000000000000000000000000000000000000000000000000000000000000000000000000000000000000000000000000000000000000000000000000000000000000000000000000000000000000000000000000000000000000000000000000000000000000000000000000
310
0000000000000000F50000F500000000000000000000000000000000000000000000000000000000000000000000000000000000000000000000000000000000000000000000000000000000000000000000000000000000000000000000000000000000000000000000000000000000000000000000000000000000000000
310
0000000000F500000000000000000000000000000000000000000000000000000000000000000000000000000000000000000000000000000000000000000000000000000000000000000000000000000000000000000000000000000000000000000000000000000000000000000000000000000000000000000000000000
310
00000000000000000000F50000F50000000000000000000000000000000000000000000000000000000000000000000000000000000000000000000000000000000000000000000000000000000000000000000000000000000000000000000000000000000000000000000000000000000000000000000000000000000000
310
00000000000000F50000000000000000000000000000000000000000000000000000000000000000000000000000000000000000000000000000000000000000000000000000000000000000000000000000000000000000000000000000000000000000000000000000000000000000000000000000000000000000000000
310
000000000000000000000000F50000F5000000000000000000000000000000000000000000000000000000000000000000000000000000000000000000000000000000000000000000000000000000000000000000000000000000000000000000000000000000000000000000000000000000000000000000000000000000
310
000000000000000000F5000000000000000000000000000000000000000000000000000000000000000000000000000000000000000000000000000000000000000000000000000000000000000000000000000000000000000000000000000000000000000000000000000000000000000000000000000000000000000000
310
0000000000000000000000000000F50000F500000000000000000000000000000000000000000000000000000000000000000000000000000000000000000000000000000000000000000000000000000000000000000000000000000000000000000000000000000000000000000000000000000000000000000000000000
310
0000000000000000000000F500000000000000000000000000000000000000000000000000000000000000000000000000000000000000000000000000000000000000000000000000000000000000000000000000000000000000000000000000000000000000000000000000000000000000000000000000000000000000
310
00000000000000000000000000000000F50000F50000000000000000000000000000000000000000000000000000000000000000000000000000000000000000000000000000000000000000000000000000000000000000000000000000000000000000000000000000000000000000000000000000000000000000000000
310
00000000000000000000000000F50000000000000000000000000000000000000000000000000000000000000000000000000000000000000000000000000000000000000000000000000000000000000000000000000000000000000000000000000000000000000000000000000000000000000000000000000000000000
310
000000000000000000000000000000000000F50000F5000000000000000000000000000000000000000000000000000000000000000000000000000000000000000000000000000000000000000000000000000000000000000000000000000000000000000000000000000000000000000000000000000000000000000000
310
000000000000000000000000000000F5000000000000000000000000000000000000000000000000000000000000000000000000000000000000000000000000000000000000000000000000000000000000000000000000000000000000000000000000000000000000000000000000000000000000000000000000000000
310
0000000000000000000000000000000000000000F50000F500000000000000000000000000000000000000000000000000000000000000000000000000000000000000000000000000000000000000000000000000000000000000000000000000000000000000000000000000000000000000000000000000000000000000
310
0000000000000000000000000000000000F500000000000000000000000000000000000000000000000000000000000000000000000000000000000000000000000000000000000000000000000000000000000000000000000000000000000000000000000000000000000000000000000000000000000000000000000000
310
00000000000000000000000000000000000000000000F50000F50000000000000000000000000000000000000000000000000000000000000000000000000000000000000000000000000000000000000000000000000000000000000000000000000000000000000000000000000000000000000000000000000000000000
310
00000000000000000000000000000000000000F50000000000000000000000000000000000000000000000000000000000000000000000000000000000000000000000000000000000000000000000000000000000000000000000000000000000000000000000000000000000000000000000000000000000000000000000
310
000000000000000000000000000000000000000000000000F50000F5000000000000000000000000000000000000000000000000000000000000000000000000000000000000000000000000000000000000000000000000000000000000000000000000000000000000000000000000000000000000000000000000000000
310
000000000000000000000000000000000000000000F5000000000000000000000000000000000000000000000000000000000000000000000000000000000000000000000000000000000000000000000000000000000000000000000000000000000000000000000000000000000000000000000000000000000000000000
310
0000000000000000000000000000000000000000000000000000F50000F500000000000000000000000000000000000000000000000000000000000000000000000000000000000000000000000000000000000000000000000000000000000000000000000000000000000000000000000000000000000000000000000000
310
0000000000000000000000000000000000000000000000F500000000000000000000000000000000000000000000000000000000000000000000000000000000000000000000000000000000000000000000000000000000000000000000000000000000000000000000000000000000000000000000000000000000000000
310
00000000000000000000000000000000000000000000000000000000F50000F50000000000000000000000000000000000000000000000000000000000000000000000000000000000000000000000000000000000000000000000000000000000000000000000000000000000000000000000000000000000000000000000
310
00000000000000000000000000000000000000000000000000F500000000000000000000000000000000000000000000000000000000000000000000000000000000000000000000000000DC00000000DC00000000000000000000000000000000000000000000000000000000000000000000000000000000000000000000
310
000000000000000000000000000000000000000000000000000000000000F50000F5000000000000000000000000000000000000000000000000000000000000000000000000000000000000000000000000000000000000000000000000000000000000000000000000000000000000000000000000000000000000000000
310
000000000000000000000000000000000000000000000000000000F50000000000000000000000000000000000000000000000000000000000000000000000000000000000000000000000DCDCDCDCDCDCDCDCDC00000000000000000000000000000000000000000000000000000000000000000000000000000000000000
310
0000000000000000000000000000000000000000000000000000000000000000F50000F500000000000000000000000000000000000000000000000000000000000000000000000000000000000000000000000000000000000000000000000000000000000000000000000000000000000000000000000000000000000000
310
0000000000000000000000000000000000000000000000000000000000F50000000000000000000000000000000000000000000000000000000000000000000000000000000000000000000000DCDCDC00000000DCDC0000000000000000000000000000000000000000000000000000000000000000000000000000000000
310
00000000000000000000000000000000000000000000000000000000000000000000F50000F50000000000000000000000000000000000000000000000000000000000000000000000000000000000000000000000000000000000000000000000000000000000000000000000000000000000000000000000000000000000
310
00000000000000000000000000000000000000000000000000000000000000F50000000000000000000000000000000000000000000000000000000000000000000000000000000000000000000000DCDCDCDCDCDCDCDCDC000000000000000000000000000000000000000000000000000000000000000000000000000000
310
000000000000000000000000000000000000000000000000000000000000000000000000F50000F5000000000000000000000000000000000000000000000000000000000000000000000000000000000000000000000000000000000000000000000000000000000000000000000000000000000000000000000000000000
310
000000000000000000000000000000000000000000000000000000000000000000F5000000000000000000000000000000000000000000000000000000000000000000000000000000000000000000000000DCDC000000DCDCDC00000000000000000000000000000000000000000000000000000000000000000000000000
310
0000000000000000000000000000000000000000000000000000000000000000000000000000F50000F500000000000000000000000000000000000000000000000000000000000000000000000000000000000000000000000000000000000000000000000000000000000000000000000000000000000000000000000000
310
0000000000000000000000000000000000000000000000000000000000000000000000F500000000000000000000000000000000000000000000000000000000000000000000000000000000000000000000DCDCDCDCDCDCDCDCDCDCDC00000000000000000000000000000000000000000000000000000000000000000000
310
00000000000000000000000000000000000000000000000000000000000000000000000000000000F50000F50000000000000000000000000000000000000000000000000000000000000000000000000000000000000000000000000000000000000000000000000000000000000000000000000000000000000000000000
310
00000000000000000000000000000000000000000000000000000000000000000000000000F5000000000000000000000000000000000000000000000000000000000000000000000000000000000000000000000000DC0000000000DCDC000000000000000000000000000000000000000000000000000000000000000000
310
000000000000000000000000000000000000000000000000000000000000000000000000000000000000F50000F5000000000000000000000000000000000000000000000000000000000000000000000000000000000000000000000000000000000000000000000000000000000000000000000000000000000000000000
310
000000000000000000000000000000000000000000000000000000000000000000000000000000F5000000000000000000000000000000000000000000000000000000000000000000000000000000000000000000000000DCDC000000DCDCDC00000000000000000000000000000000000000000000000000000000000000
310
0000000000000000000000000000000000000000000000000000000000000000000000000000000000000000F50000F500000000000000000000000000000000000000000000000000000000000000000000000000000000000000000000000000000000000000000000000000000000000000000000000000000000000000
310
0000000000000000000000000000000000000000000000000000000000000000000000000000000000F5000000000000000000000000000000000000000000000000000000000000000000000000000000000000000000000000DC0000000000DCDC00DCDC0000000000000000000000000000000000000000000000000000
310
00000000000000000000000000000000000000000000000000000000000000000000000000000000000000000000F50000F50000000000000000000000000000000000000000000000000000000000000000000000000000000000000000000000000000000000000000000000000000000000000000000000000000000000
310
00000000000000000000000000000000000000000000000000000000000000000000000000000000000000F50000000000000000000000000000000000000000000000000000000000000000000000000000000000000000000000F52D2DDCDCDC2D2DF5DCDCDC000000000000000000000000000000000000000000000000
310
000000000000000000000000000000000000000000000000000000000000000000000000000000000000000000000000F50000F5000000000000000000000000000000000000000000000000000000000000000000000000000000000000000000000000000000000000000000000000000000000000000000000000000000
310
000000000000000000000000000000000000000000000000000000000000000000000000000000000000000000F500000000000000000000000000000000000000000000000000000000000000000000000000000000000000000000002D2D2DDCDCDC2D2D2DDCDCDC00000000000000000000000000000000000000000000
310
0000000000000000000000000000000000000000000000000000000000000000000000000000000000000000000000000000F50000F500000000000000000000000000000000000000000000000000000000000000000000000000000000000000000000000000000000000000000000000000000000000000000000000000
310
0000000000000000000000000000000000000000000000000000000000000000000000000000000000000000000000F500000000000000000000000000000000000000000000000000000000000000000000000000000000000000000000002D2D2D2DDC2D2D2D2D00DCDC0000000000000000000000000000000000000000
310
00000000000000000000000000000000000000000000000000000000000000000000000000000000000000000000000000000000F50000F50000000000000000000000000000000000000000000000000000000000000000000000000000000000000000000000000000000000000000000000000000000000000000000000
310
00000000000000000000000000000000000000000000000000000000000000000000000000000000000000000000000000F5000000000000000000000000000000000000000000000000000000000000000000000000000000000000000000000000002D00DC00002D0000DCDC000000000000000000000000000000000000
310
000000000000000000000000000000000000000000000000000000000000000000000000000000000000000000000000000000000000F50000F5000000000000000000000000000000000000000000000000000000000000000000000000000000000000000000000000000000000000000000000000000000000000000000
310
000000000000000000000000000000000000000000000000000000000000000000000000000000000000000000000000000000F5000000000000000000000000000000000000000000000000000000000000000000000000000000000000000000000000002D0000002D000000000000000000000000000000000000000000
310
0000000000000000000000000000000000000000000000000000000000000000000000000000000000000000000000000000000000000000F50000F500000000000000000000000000000000000000000000000000000000000000000000000000000000000000000000000000000000000000000000000000000000000000
310
0000000000000000000000000000000000000000000000000000000000000000000000000000000000000000000000000000000000F5000000000000000000000000000000000000000000000000000000000000000000000000000000000000000000000000002D0000002D00000000000000000000000000000000000000
310
00000000000000000000000000000000000000000000000000000000000000000000000000000000000000000000000000000000000000000000F50000F50000000000000000000000000000000000000000000000000000000000000000000000000000000000000000000000000000000000000000000000000000000000
310
00000000000000000000000000000000000000000000000000000000000000000000000000000000000000000000000000000000000000F5000000000000000000000000000000000000000000000000000000000000000000000000000000000000000000000000002D002D2D000000000000000000000000000000000000
310
000000000000000000000000000000000000000000000000000000000000000000000000000000000000000000000000000000000000000000000000F50000F5000000000000000000000000000000000000000000000000000000000000000000000000000000000000000000000000000000000000000000000000000000
310
000000000000000000000000000000000000000000000000000000000000000000000000000000000000000000000000000000000000000000F5000000000000000000000000000000000000000000000000000000000000000000000000000000000000000000000000002D2D000000000000000000000000000000000000
310
0000000000000000000000000000000000000000000000000000000000000000000000000000000000000000000000000000000000000000000000000000F50000F500000000000000000000000000000000000000000000000000000000000000000000000000000000000000000000000000000000000000000000000000
310
0000000000000000000000000000000000000000000000000000000000000000000000000000000000000000000000000000000000000000000000F500000000000000000000000000000000000000000000000000000000000000000000000000000000000000000000000000000000000000000000000000000000000000
310
00000000000000000000000000000000000000000000000000000000000000000000000000000000000000000000000000000000000000000000000000000000F50000F50000000000000000000000000000000000000000000000000000000000000000000000000000000000000000000000000000000000000000000000
310
00000000000000000000000000000000000000000000000000000000000000000000000000000000000000000000000000000000000000000000000000F50000000000000000000000000000000000000000000000000000000000000000000000000000000000000000000000000000000000000000000000000000000000
310
000000000000000000000000000000000000000000000000000000000000000000000000000000000000000000000000000000000000000000000000000000000000F50000F5000000000000000000000000000000000000000000000000000000000000000000000000000000000000000000000000000000000000000000
310
000000000000000000000000000000000000000000000000000000000000000000000000000000000000000000000000000000000000000000000000000000F5000000000000000000000000000000000000000000000000000000000000000000000000000000000000000000000000000000000000000000000000000000
310
0000000000000000000000000000000000000000000000000000000000000000000000000000000000000000000000000000000000000000000000000000000000000000F50000F500000000000000000000000000000000000000000000000000000000000000000000000000000000000000000000000000000000000000
310
0000000000000000000000000000000000000000000000000000000000000000000000000000000000000000000000000000000000000000000000000000000000F500000000000000000000000000000000000000000000000000000000000000000000000000000000000000000000000000000000000000000000000000
310
00000000000000000000000000000000000000000000000000000000000000000000000000000000000000000000000000000000000000000000000000000000000000000000F50000F50000000000000000000000000000000000000000000000000000000000000000000000000000000000000000000000000000000000
310
00000000000000000000000000000000000000000000000000000000000000000000000000000000000000000000000000000000000000000000000000000000000000F50000000000000000000000000000000000000000000000000000000000000000000000000000000000000000000000000000000000000000000000
310
000000000000000000000000000000000000000000000000000000000000000000000000000000000000000000000000000000000000000000000000000000000000000000000000F50000F5000000000000000000000000000000000000000000000000000000000000000000000000000000000000000000000000000000
310
000000000000000000000000000000000000000000000000000000000000000000000000000000000000000000000000000000000000000000000000000000000000000000F5000000000000000000000000000000000000000000000000000000000000000000000000000000000000000000000000000000000000000000
310
0000000000000000000000000000000000000000000000000000000000000000000000000000000000000000000000000000000000000000000000000000000000000000000000000000F50000F500000000000000000000000000000000000000000000000000000000000000000000000000000000000000000000000000
310
0000000000000000000000000000000000000000000000000000000000000000000000000000000000000000000000000000000000000000000000000000000000000000000000F500000000000000000000000000000000000000000000000000000000000000000000000000000000000000000000000000000000000000
310
00000000000000000000000000000000000000000000000000000000000000000000000000000000000000000000000000000000000000000000000000000000000000000000000000000000F50000F50000000000000000000000000000000000000000000000000000000000000000000000000000000000000000000000
310
00000000000000000000000000000000000000000000000000000000000000000000000000000000000000000000000000000000000000000000000000000000000000000000000000F50000000000000000000000000000000000000000000000000000000000000000000000000000000000000000000000000000000000
310
000000000000000000000000000000000000000000000000000000000000000000000000000000000000000000000000000000000000000000000000000000000000000000000000000000000000F50000F5000000000000000000000000000000000000000000000000000000000000000000000000000000000000000000
310
000000000000000000000000000000000000000000000000000000000000000000000000000000000000000000000000000000000000000000000000000000000000000000000000000000F5000000000000000000000000000000000000000000000000000000000000000000000000000000000000000000000000DCDCDC
310
DCDCDCDC00000000000000000000000000000000000000000000000000000000000000000000000000000000000000000000000000000000000000000000000000000000000000000000000000000000F50000F500000000000000000000000000000000000000000000000000000000000000000000000000000000000000
310
0000000000000000000000000000000000000000000000000000000000000000000000000000000000000000000000000000000000000000000000000000000000000000000000000000000000F5000000000000000000000000000000000000000000000000000000000000000000000000000000000000000000000000DC
310
DCDCDCDCDCDC00000000000000000000000000000000000000DCDC00000000000000000000000000000000000000000000000000000000000000000000000000000000000000000000000000000000000000F50000F50000000000000000000000000000000000000000000000000000000000000000000000000000000000
310
00000000000000000000000000000000000000000000000000000000000000000000000000000000000000000000000000000000000000000000000000000000000000000000000000000000000000F500000000000000000000000000000000000000000000000000000000000000000000000000000000000000000000DC
310
DCDCDCDCDCDCDCDCDCDC000000000000000000000000000000DCDCDCDCDC000000000000000000000000000000000000000000000000000000000000000000000000000000000000000000000000000000000000F50000F5000000000000000000000000000000000000000000000000000000000000000000000000000000
310
000000000000000000000000000000000000000000000000000000000000000000000000000000000000000000000000000000000000000000000000000000000000000000000000000000000000000000F5000000000000000000000000000000000000000000000000000000000000000000000000000000000000000000
310
00DCDCDC00DCDCDCDCDCDCDC0000000000000000000000000000000000DCDCF5000000000000000000000000000000000000000000000000000000000000000000000000000000000000000000000000000000000000F50000F500000000000000000000000000000000000000000000000000000000000000000000000000
310
0000000000000000000000000000000000000000000000000000000000000000000000000000000000000000000000000000000000000000000000000000000000000000000000000000000000000000000000F500000000000000000000000000000000000000000000000000000000000000000000000000000000000000
310
000000002D2D2D2D2D2D2D2D2D0000000000000000000000000000000000002DF5F5000000000000DC0000000000000000000000000000000000000000000000000000000000000000000000000000000000000000000000F50000F50000000000000000000000000000000000000000000000000000000000000000000000
310
00000000000000000000000000000000000000000000000000000000000000000000000000000000000000000000000000000000000000000000000000000000000000000000000000000000000000000000000000F50000000000000000000000000000000000000000000000000000000000000000000000000000000000
310
0000000000002D2D2D2D2D2D2D2D2DDCDCDCDC00000000000000000000000000002D2DDCDCDCDCDCDCDCDCDC00000000000000000000000000000000000000000000000000000000000000000000000000000000000000000000F50000F5000000000000000000000000000000000000000000000000000000000000000000
310
000000000000000000000000000000000000000000000000000000000000000000000000000000000000000000000000000000000000000000000000000000000000000000000000000000000000000000000000000000F5000000000000000000000000000000000000000000000000000000000000000000000000000000
310
00000000000000002D2D2D2D2D2D2D2D2D00DCDCDCDC000000000000000000000000002D2DF5DCDCDCDCDCDCDCDC00000000000000000000000000000000000000000000000000000000000000000000000000000000000000000000F50000F500000000000000000000000000000000000000000000000000000000000000
310
0000000000000000000000000000000000000000000000000000000000000000000000000000000000000000000000000000000000000000000000000000000000000000000000000000000000000000000000000000000000F500000000000000000000000000000000000000000000000000000000000000000000000000
310
000000000000000000002D2D2D0000002D2D2D00DC00DC00000000000000000000000000002D2DF5000000DCDCDCDCDC00000000000000000000000000000000000000000000000000000000000000000000000000000000000000000000F50000F50000000000000000000000000000000000000000000000000000000000
310
00000000000000000000000000000000000000000000000000000000000000000000000000000000000000000000000000000000000000000000000000000000000000000000000000000000000000000000000000000000000000F50000000000000000000000000000000000000000000000000000000000000000000000
310
0000000000000000000000002D2D2D2D002D2D2D2DDCDCDCDC00000000000000000000000000002D2DF50000DCDCDCDCDCDC00000000000000000000000000000000000000000000000000000000000000000000000000000000000000000000F50000F5000000000000000000000000000000000000000000000000000000
310
000000000000000000000000000000000000000000000000000000000000000000000000000000000000000000000000000000000000000000000000000000000000000000000000000000000000000000000000000000000000000000F5000000000000000000000000000000000000000000000000000000000000000000
310
00000000000000000000000000002D2D2D2D002D2D2D2DDCDCDCDC00000000000000000000000000002D2DF50000DCDCDCDCDCDC00000000000000000000000000000000000000000000000000000000000000000000000000000000000000000000F50000F500000000000000000000000000000000000000000000000000
310
0000000000000000000000000000000000000000000000000000000000000000000000000000000000000000000000000000000000000000000000000000000000000000000000000000000000000000000000000000000000000000000000F500000000000000000000000000000000000000000000000000000000000000
310
000000000000000000000000000000002D2D2D002D002D2D2DDCDCDCDC0000000000000000000000000000DCDCF50000DCDCDCDCDCDC00000000000000000000000000000000000000000000000000000000000000000000000000000000000000000000F50000F50000000000000000000000000000000000000000000000
310
00000000000000000000000000000000000000000000000000000000000000000000000000000000000000000000000000000000000000000000000000000000000000000000000000000000000000000000000000000000000000000000000000F50000000000000000000000000000000000000000000000000000000000
310
0000000000000000000000000000000000002D2D2D002D002D2D2DDCDCDCDC0000000000000000000000000000DCDCF50000DCDCDCDCDCDC00000000000000000000000000000000000000000000000000000000000000000000000000000000000000000000F50000F5000000000000000000000000000000000000000000
310
000000000000000000000000000000000000000000000000000000000000000000000000000000000000000000000000000000000000000000000000000000000000000000000000000000000000000000000000000000000000000000000000000000F5000000000000000000000000000000000000000000000000000000
310
00000000000000000000000000000000000000002D2D2D00002D2D2D2DDCDCDCDC00000000000000000000000000DCDCDCF50000DCDCDCDCDCDC00000000000000000000000000000000000000000000000000000000000000000000000000000000000000000000F50000F500000000000000000000000000000000000000
310
0000000000000000000000000000000000000000000000000000000000000000000000000000000000000000000000000000000000000000000000000000000000000000000000000000000000000000000000000000000000000000000000000000000000F500000000000000000000000000000000000000000000000000
310
000000000000000000000000000000000000000000002D2D2D00002D2D2D2DDCDCDCDC00000000000000000000000000002D2DF50000DCDCDCDCDCDC00000000000000000000000000000000000000000000000000000000000000000000000000000000000000000000F50000F50000000000000000000000000000000000
310
00000000000000000000000000000000000000000000000000000000000000000000000000000000000000000000000000000000000000000000000000000000000000000000000000000000000000000000000000000000000000000000000000000000000000F50000000000000000000000000000000000000000000000
310
0000000000000000000000000000000000000000000000002D2D2D0000002D2D2D00DCDCDC00000000000000000000000000002D2DF50000DCDCDCDCDCDC00000000000000000000000000000000000000000000000000000000000000000000000000000000000000000000F50000F5000000000000000000000000000000
310
000000000000000000000000000000000000000000000000000000000000000000000000000000000000000000000000000000000000000000000000000000000000000000000000000000000000000000000000000000000000000000000000000000000000000000F5000000000000000000000000000000000000000000
310
00000000000000000000000000000000000000000000000000002D2D2D2D2D2D2D2D2D00DCDCDCDC000000000000000000000000002D2DF5DCDCDCDCDCDC00DC00000000000000000000000000000000000000000000000000000000000000000000000000000000000000000000F50000F500000000000000000000000000
310
0000000000000000000000000000000000000000000000000000000000000000000000000000000000000000000000000000000000000000000000000000000000000000000000000000000000000000000000000000000000000000000000000000000000000000000000F500000000000000000000000000000000000000
310
000000000000000000000000000000000000000000000000000000002D2D2D2D2D2D2D2D2DDCDCDCDC00000000000000000000000000002D2DDCDCDCDCDCDCDCDCDC00000000000000000000000000000000000000000000000000000000000000000000000000000000000000000000F50000F50000000000000000000000
310
00000000000000000000000000000000000000000000000000000000000000000000000000000000000000000000000000000000000000000000000000000000000000000000000000000000000000000000000000000000000000000000000000000000000000000000000000F50000000000000000000000000000000000
310
0000000000000000000000000000000000000000000000000000000000002D2D2D2D2D2D2D2D2DDCDC000000000000000000000000000000002DF5F50000DCDCDC00DC0000000000000000000000000000000000000000000000000000000000000000000000000000000000000000000000F50000F5000000000000000000
310
000000000000000000000000000000000000000000000000000000000000000000000000000000000000000000000000000000000000000000000000000000000000000000000000000000000000000000000000000000000000000000000000000000000000000000000000000000F5000000000000000000000000000000
310
0000000000000000000000000000000000000000000000000000000000000000000000000000000000000000000000000000000000000000000000F5F5F5000000000000000000000000000000000000000000000000000000000000000000000000000000000000000000000000000000000000F50000F500000000000000
310
0000000000000000000000000000000000000000000000000000000000000000000000000000000000000000000000000000000000000000000000000000000000000000000000000000000000000000000000000000000000000000000000000000000000000000000000000000000000F500000000000000000000000000
310
00000000000000000000000000000000000000000000000000000000000000000000000000000000000000000000000000000000000000000000000000000000000000000000000000000000000000000000000000000000000000000000000000000000000000000000000000000000000000000000F50000F50000000000
310
00000000000000000000000000000000000000000000000000000000000000000000000000000000000000000000000000000000000000000000000000000000000000000000000000000000000000000000000000000000000000000000000000000000000000000000000000000000000000F50000000000000000000000
310
000000000000000000000000000000000000000000000000000000000000000000000000000000000000000000000000000000000000000000000000000000000000000000000000000000000000000000000000000000000000000000000000000000000000000000000000000000000000000000000000F50000F5000000
310
000000000000000000000000000000000000000000000000000000000000000000000000000000000000000000000000000000000000000000000000000000000000000000000000000000000000000000000000000000000000000000000000000000000000000000000000000000000000000000F5000000000000000000
310
0000000000000000000000000000000000000000000000000000000000000000000000000000000000000000000000000000000000000000000000000000000000000000000000000000000000000000000000000000000000000000000000000000000000000000000000000000000000000000000000000000F50000F500
310
0000000000000000000000000000000000000000000000000000000000000000000000000000000000000000000000000000000000000000000000000000000000000000000000000000000000000000000000000000000000000000000000000000000000000000000000000000000000000000000000F500000000000000
310
00000000000000000000000000000000000000000000000000000000000000000000000000000000000000000000000000000000000000000000000000000000000000000000000000000000000000000000000000000000000000000000000000000000000000000000000000000000000000000000000000000000F50000
310
F5000000000000000000000000000000000000000000000000000000000000000000000000000000000000000000000000000000000000000000000000000000000000000000000000000000000000000000000000000000000000000000000000000000000000000000000000000000000000000000000000F50000000000
310
000000000000000000000000000000000000000000000000000000000000000000000000000000000000000000000000000000000000000000000000000000000000000000000000000000000000000000000000000000000000000000000000000000000000000000000000000000000000000000000000000000000000F5
310
0000F5000000000000000000000000000000000000000000000000000000000000000000000000000000000000000000000000000000000000000000000000000000000000000000000000000000000000000000000000000000000000000000000000000000000000000000000000000000000000000000000000F5000000
310
00000000000000000000000000000000000000000000000000000000000000000000000000000000000000000000000000000000000000000000000000000000000000000000000000000000000000000000000000000000000000000000000000000000000000000000000000000000000000000000000000000000000000
310
00F50000F5000000000000000000000000000000000000000000000000000000000000000000000000000000000000000000000000000000000000000000000000000000000000000000000000000000000000000000000000000000000000000000000000000000000000000000000000000000000000000000000000F500
310
00000000000000000000000000000000000000000000000000000000000000000000000000000000000000000000000000000000000000000000000000000000000000000000000000000000000000000000000000000000000000000000000000000000000000000000000000000000000000000000000000000000000000
310
000000F50000F5000000000000000000000000000000000000000000000000000000000000000000000000000000000000000000000000000000000000000000000000000000000000000000000000000000000000000000000000000000000000000000000000000000000000000000000000000000000000000000000000
310
F5000000000000000000000000000000000000000000000000000000000000000000000000000000000000000000000000000000000000000000000000000000000000000000000000000000000000000000000000000000000000000000000000000000000000000000000000000000000000000000000000000000000000
310
0000000000F50000F500000000000000000000000000000000000000000000000000000000000000000000000000000000000000000000000000000000000000000000000000000000000000000000000000000000000000000000000000000000000000000000000000000000000000000000000000000000000000000000
310
0000F500000000000000000000000000000000000000000000000000000000000000000000000000000000000000000000000000000000000000000000000000000000000000000000000000000000000000000000000000000000000000000000000000000000000000000000000000000000000000000000000000000000
310
00000000000000F50000F50000000000000000000000000000000000000000000000000000000000000000000000000000000000000000000000000000000000000000000000000000000000000000000000000000000000000000000000000000000000000000000000000000000000000000000000000000000000000000
310
00000000F50000000000000000000000000000000000000000000000000000000000000000000000000000000000000000000000000000000000000000000000000000000000000000000000000000000000000000000000000000000000000000000000000000000000000000000000000000000000000000000000000000
310
000000000000000000F50000F5000000000000000000000000000000000000000000000000000000000000000000000000000000000000000000000000000000000000000000000000000000000000000000000000000000000000000000000000000000000000000000000000000000000000000000000000000000000000
310
000000000000F5000000000000000000000000000000000000000000000000000000000000000000000000000000000000000000000000000000000000000000000000000000000000000000000000000000000000000000000000000000000000000000000000000000000000000000000000000000000000000000000000
310
0000000000000000000000F50000F500000000000000000000000000000000000000000000000000000000000000000000000000000000000000000000000000000000000000000000000000000000000000000000000000000000000000000000000000000000000000000000000000000000000000000000000000000000
310
0000000000000000F500000000000000000000000000000000000000000000000000000000000000000000000000000000000000000000000000000000000000000000000000000000000000000000000000000000000000000000000000000000000000000000000000000000000000000000000000000000000000000000
310
00000000000000000000000000F50000F50000000000000000000000000000000000000000000000000000000000000000000000000000000000000000000000000000000000000000000000000000000000000000000000000000000000000000000000000000000000000000000000000000000000000000000000000000
310
00000000000000000000F50000000000000000000000000000000000000000000000000000000000000000000000000000000000000000000000000000000000000000000000000000000000000000000000000000000000000000000000000000000000000000000000000000000000000000000000000000000000000000
310
000000000000000000000000000000F50000F5000000000000000000000000000000000000000000000000000000000000000000000000000000000000000000000000000000000000000000000000000000000000000000000000000000000000000000000000000000000000000000000000000000000000000000000000
310
000000000000000000000000F5000000000000000000000000000000000000000000000000000000000000000000000000000000000000000000000000000000000000000000000000000000000000000000000000000000000000000000000000000000000000000000000000000000000000000000000000000000000000
310
0000000000000000000000000000000000F50000F500000000000000000000000000000000000000000000000000000000000000000000000000000000000000000000000000000000000000000000000000000000000000000000000000000000000000000000000000000000000000000000000000000000000000000000
310
0000000000000000000000000000F500000000000000000000000000000000000000000000000000000000000000000000000000000000000000000000000000000000000000000000000000000000000000000000000000000000000000000000000000000000000000000000000000000000000000000000000000000000
310
00000000000000000000000000000000000000F50000F50000000000000000000000000000000000000000000000000000000000000000000000000000000000000000000000000000000000000000000000000000000000000000000000000000000000000000000000000000000000000000000000000000000000000000
310
00000000000000000000000000000000F50000000000000000000000000000000000000000000000000000000000000000000000000000000000000000000000000000000000000000000000000000000000000000000000000000000000000000000000000000000000000000000000000000000000000000000000000000
310
000000000000000000000000000000000000000000F50000F5000000000000000000000000000000000000000000000000000000000000000000000000000000000000000000000000000000000000000000000000000000000000000000000000000000000000000000000000000000000000000000000000000000000000
310
000000000000000000000000000000000000F5000000000000000000000000000000000000000000000000000000000000000000000000000000000000000000000000000000000000000000000000000000000000000000000000000000000000000000000000000000000000000000000000000000000000000000000000
310
0000000000000000000000000000000000000000000000F50000F500000000000000000000000000000000000000000000000000000000000000000000000000000000000000000000000000000000000000000000000000000000000000000000000000000000000000000000000000000000000000000000000000000000
310
0000000000000000000000000000000000000000F500000000000000000000000000000000000000000000000000000000000000000000000000000000000000000000000000000000000000000000000000000000000000000000000000000000000000000000000000000000000000000000000000000000000000000000
310
00000000000000000000000000000000000000000000000000F50000F50000000000000000000000000000000000000000000000000000000000000000000000000000000000000000000000000000000000000000000000000000000000000000000000000000000000000000000000000000000000000000000000000000
310
00000000000000000000000000000000000000000000F50000000000000000000000000000000000000000000000000000000000000000000000000000000000000000000000000000000000000000000000000000000000000000000000000000000000000000000000000000000000000000000000000000000000000000
310
000000000000000000000000000000000000000000000000000000F50000F5000000000000000000000000000000000000000000000000000000000000000000000000000000000000000000000000000000000000000000000000000000000000000000000000000000000000000000000000000000000000000000000000
310
000000000000000000000000000000000000000000000000F5000000000000000000000000000000000000000000000000000000000000000000000000000000000000000000000000000000000000000000000000000000000000000000000000000000000000000000000000000000000000000000000000000000000000
310
0000000000000000000000000000000000000000000000000000000000F50000F500000000000000000000000000000000000000000000000000000000000000000000000000000000000000000000000000000000000000000000000000000000000000000000000000000000000000000000000000000000000000000000
310
0000000000000000000000000000000000000000000000000000F500000000000000000000000000000000000000000000000000000000000000000000000000000000000000000000000000000000000000000000000000000000000000000000000000000000000000000000000000000000000000000000000000000000
310
00000000000000000000000000000000000000000000000000000000000000F50000F50000000000000000000000000000000000000000000000000000000000000000000000000000000000000000000000000000000000000000000000000000000000000000000000000000000000000000000000000000000000000000
310
00000000000000000000000000000000000000000000000000000000F50000000000000000000000000000000000000000000000000000000000000000000000000000000000000000000000000000000000000000000000000000000000000000000000000000000000000000000000000000000000000000000000000000
310
000000000000000000000000000000000000000000000000000000000000000000F50000F5000000000000000000000000000000000000000000000000000000000000000000000000000000000000000000000000000000000000000000000000000000000000000000000000000000000000000000000000000000000000
310
000000000000000000000000000000000000000000000000000000000000F5000000000000000000000000000000000000000000000000000000000000000000000000000000000000000000000000000000000000000000000000000000000000000000000000000000000000000000000000000000000000000000000000
310
0000000000000000000000000000000000000000000000000000000000000000000000F50000F500000000000000000000000000000000000000000000000000000000000000000000000000000000000000000000000000000000000000000000000000000000000000000000000000000000000000000000000000000000
310
0000000000000000000000000000000000000000000000000000000000000000F500000000000000000000000000000000000000000000000000000000000000000000000000000000000000000000000000000000000000000000000000000000000000000000000000000000000000000000000000000000000000000000
310
00000000000000000000000000000000000000000000000000000000000000000000000000F50000F50000000000000000000000000000000000000000000000000000000000000000000000000000000000000000000000000000000000000000000000000000000000000000000000000000000000000000000000000000
310
00000000000000000000000000000000000000000000000000000000000000000000F50000000000000000000000000000000000000000000000000000000000000000000000000000000000000000000000000000000000000000000000000000000000000000000000000000000000000000000000000000000000000000
310
000000000000000000000000000000000000000000000000000000000000000000000000000000F50000F5000000000000000000000000000000000000000000000000000000000000000000000000000000000000000000000000000000000000000000000000000000000000000000000000000000000000000000000000
310
000000000000000000000000000000000000000000000000000000000000000000000000F5F5F5F5F5F5F5F5F5F5F5F5F5F5F5F5F5F5F5F5F5F5F5F5F5F5F5F5F5F5F5F5F5F5F5F5F5F5F5F5F5F5F5F5F5F5F5F5F5F5F5F5F5F5F5F5F5F5F5F5F5F5F5F5F5F5F5F5F5F5F5F5F5F5F5F5F5F5F5F5F5F5F5F5F5F5F5F5F5F5F5
310
F5F5F5F5F5F5F5F5F5F5F5F5F5F5F5F5F5F5F5F5F5F5F5F5F5F5F5F5F5F5F5F5F5F5F5F5F5F5F5F5F5F50000F500000000000000000000000000000000000000000000000000000000000000000000000000000000000000000000000000000000000000000000000000000000000000000000000000000000000000000000
310
0000000000000000000000000000000000000000000000000000000000000000000000000000F5F5F5F5F5F5F5F5F5F5F5F5F5F5000000000000000000000000000000000000000000000000000000000000000000000000000000000000000000000000000000000000000000000000000000000000000000000000000000
310
00000000000000000000000000000000000000000000000000000000000000000000000000000000000000F50000F50000000000000000000000000000000000000000000000000000000000000000000000000000000000000000000000000000000000000000000000000000000000000000000000000000000000000000
310
00000000000000000000000000000000000000000000000000000000000000000000000000000000F5F5F5F5F5F5F5F5F5F5F5F5F5F5F5F5F5F5F5F5F5F5F5F5F5F5F5F5F5F5F5F5F5F5F5F5F5F5F5F5F5F5F5F5F5F5F5F5F5F5F5F5F5F5F5F5F5F5F5F5F5F5F5F5F5F5F5F5F5F5F5F5F5F5F5F5F5F5F5F5F5F5F5F5F5F5F5
310
F5F5F5F5F5F5F5F5F5F5F5F5F5F5F5F5F5F5F5F5F5F5F5F5F5F5F5F5F5F5F5F5F5F5F5F5F5F5F5F5F5F5F5F5F5F50000F5000000000000000000000000000000000000000000000000000000000000000000000000000000000000000000000000000000000000000000000000000000000000000000000000000000000000
310
000000000000000000000000000000000000000000000000000000000000000000000000000000000000F5F5F5F5F5F5F5F5F5F5F5F5F5F5F5F5F5F5F5F5F5F5F5F5F5F5F500F5F5F5F5F5F5F5F5F5F5F5F5F5F5F5F5F5F5F5F5F5F5F5F5F5F5F5F5F500000000000000000000000000000000000000000000000000000000
310
0000000000000000000000000000000000000000000000000000000000000000000000000000000000000000000000F50000F500000000000000000000000000000000000000000000000000000000000000000000000000000000000000000000000000000000000000000000000000000000000000000000000000000000
310
0000000000000000000000000000000000000000000000000000000000000000000000000000000000000000F5F5F5F5F5F5F5F5F5F5F5F5F5F5F5F5F5F5F5F5F5F5F5F5F5F5F5F5F5F5F5F5F5F5F5F5F5F5F5F5F5F5F5F5F5F5F5F5F5F5F5F5F5F5F5F5F5F5F5F5F5F5F5F5F5F5F5F5F5F5F5F5F5F5F5F5F5F5F5F5F5F5F5
310
F5F5F5F5F5F5F5F5F5F5F5F5F5F5F5F5F5F5F5F5F5F5F5F5F5F5F5F5F5F5F5F5F5F5F5F5F5F5F5F5F5F5F5F5F5F5F5F5F5F50000F50000000000000000000000000000000000000000000000000000000000000000000000000000000000000000000000000000000000000000000000000000000000000000000000000000
310
00000000000000000000000000000000000000000000000000000000000000000000000000000000000000000000F50000F5F5F5F5F5F5F5F5F5F500F5F5F5F5F5F5F5F5F5F5F5F5F500F5F5F5F5F500F5F5F5F5F5000000000000000000000000000000000000000000000000000000000000000000000000000000000000
310
000000F5F5F5F5F5F5F5F5F5F5F5F5F5F5F5F5F5F5F5F5F5F5F5F5F5F5F5F5F5F5F5F5F5F5F5F5F5F5F5F5F5F5F5F5F5F5F5F5F50000F5000000000000000000000000000000000000000000000000000000000000000000000000000000000000000000000000000000000000000000000000000000000000000000000000
310
000000000000000000000000000000000000000000000000000000000000000000000000000000000000000000000000F5F5F5F5F5F5F5F5F5F5F5F5F5F5F5F5F5F5F5F5F5F5F5F5F5F5F5F5F5F5F5F5F5F5F5F5F5F5F5F5F5F5F5F5F5F5F5F5F5F5F5F5F5F5F5F5F5F5F5F5F5F5F5F5F5F5F5F5F5F5F5F5F5F5F5F5F5F5F5
310
F5F5F5F5F5F5F5F5F5F5F5F5F5F5F5F5F5F5F5F5F5F5F5F5F5F5F5F5F5F5F5F5F5F5F5F5F5F5F5F5F5F5F5F5F5F5F5F5F5F5F5F5F5F5F5F5F500000000000000000000000000000000000000000000000000000000000000000000000000000000000000000000000000000000000000000000000000000000000000000000
310
00000000000000000000000000000000000000000000000000000000000000000000000000000000000000000000000000000000000000000000000000000000000000000000000000000000000000000000000000000000000000000000000000000000000000000000000000000000000000000000000000000000000000
310
0000000000000000000000000000000000000000000000000000000000000000000000000000000000000000000000000000000000000000000000000000000000000000000000000000000000000000000000000000000000000000000000000000000000000000000000000000000000000000000000
  0
XRECORD
  5
825
102
{ACAD_REACTORS
330
53
102
}
330
53
100
AcDbXrecord
280
     1
102
MATERIAL
148
0.0
149
0.0
149
0.0
 93
        0
 94
      127
282
     0
 72
     0
 77
     0
171
     0
175
     0
179
     0
273
     0
  0
XRECORD
  5
55
102
{ACAD_REACTORS
330
53
102
}
330
53
100
AcDbXrecord
280
     1
270
     1
271
     1
  0
XRECORD
  5
54
102
{ACAD_REACTORS
330
53
102
}
330
53
100
AcDbXrecord
280
     1
270
     1
271
     1
  0
XRECORD
  5
58
102
{ACAD_REACTORS
330
53
102
}
330
53
100
AcDbXrecord
280
     1
270
     1
271
     1
  0
XRECORD
  5
57
102
{ACAD_REACTORS
330
53
102
}
330
53
100
AcDbXrecord
280
     1
270
     1
271
     1
  0
XRECORD
  5
59
102
{ACAD_REACTORS
330
53
102
}
330
53
100
AcDbXrecord
280
     1
270
     1
271
     1
  0
XRECORD
  5
56
102
{ACAD_REACTORS
330
53
102
}
330
53
100
AcDbXrecord
280
     1
270
     1
271
     1
  0
XRECORD
  5
824
102
{ACAD_REACTORS
330
4B
102
}
330
4B
100
AcDbXrecord
280
     1
102
MATERIAL
148
0.0
149
0.0
149
0.0
 93
        0
 94
      127
282
     0
 72
     0
 77
     0
171
     0
175
     0
179
     0
273
     0
  0
XRECORD
  5
4D
102
{ACAD_REACTORS
330
4B
102
}
330
4B
100
AcDbXrecord
280
     1
270
     1
271
     1
  0
XRECORD
  5
4C
102
{ACAD_REACTORS
330
4B
102
}
330
4B
100
AcDbXrecord
280
     1
270
     1
271
     1
  0
XRECORD
  5
50
102
{ACAD_REACTORS
330
4B
102
}
330
4B
100
AcDbXrecord
280
     1
270
     1
271
     1
  0
XRECORD
  5
4F
102
{ACAD_REACTORS
330
4B
102
}
330
4B
100
AcDbXrecord
280
     1
270
     1
271
     1
  0
XRECORD
  5
51
102
{ACAD_REACTORS
330
4B
102
}
330
4B
100
AcDbXrecord
280
     1
270
     1
271
     1
  0
XRECORD
  5
4E
102
{ACAD_REACTORS
330
4B
102
}
330
4B
100
AcDbXrecord
280
     1
270
     1
271
     1
  0
XRECORD
  5
826
102
{ACAD_REACTORS
330
5B
102
}
330
5B
100
AcDbXrecord
280
     1
102
MATERIAL
148
0.0
149
0.0
149
0.0
 93
        0
 94
      127
282
     0
 72
     0
 77
     0
171
     0
175
     0
179
     0
273
     0
  0
XRECORD
  5
5D
102
{ACAD_REACTORS
330
5B
102
}
330
5B
100
AcDbXrecord
280
     1
270
     1
271
     1
  0
XRECORD
  5
5C
102
{ACAD_REACTORS
330
5B
102
}
330
5B
100
AcDbXrecord
280
     1
270
     1
271
     1
  0
XRECORD
  5
60
102
{ACAD_REACTORS
330
5B
102
}
330
5B
100
AcDbXrecord
280
     1
270
     1
271
     1
  0
XRECORD
  5
5F
102
{ACAD_REACTORS
330
5B
102
}
330
5B
100
AcDbXrecord
280
     1
270
     1
271
     1
  0
XRECORD
  5
61
102
{ACAD_REACTORS
330
5B
102
}
330
5B
100
AcDbXrecord
280
     1
270
     1
271
     1
  0
XRECORD
  5
5E
102
{ACAD_REACTORS
330
5B
102
}
330
5B
100
AcDbXrecord
280
     1
270
     1
271
     1
  0
XRECORD
  5
859
102
{ACAD_REACTORS
330
858
102
}
330
858
100
AcDbXrecord
280
     1
102
ACAD_ROUNDTRIP_2012_MLEADER_STYLE
298
     1
  0
XRECORD
  5
85B
102
{ACAD_REACTORS
330
85A
102
}
330
85A
100
AcDbXrecord
280
     1
102
DISPLAYNAME
  1
Imperial24
102
FLAGS
 90
        0
  0
XRECORD
  5
85F
102
{ACAD_REACTORS
330
85E
102
}
330
85E
100
AcDbXrecord
280
     1
102
DISPLAYNAME
  1
Metric50
102
FLAGS
 90
        0
  0
CELLSTYLEMAP
  5
822
102
{ACAD_REACTORS
330
6FA
102
}
330
6FA
100
AcDbCellStyleMap
 90
        3
300
CELLSTYLE
  1
TABLEFORMAT_BEGIN
 90
        5
170
     1
 91
        0
 92
    32768
 62
   257
 93
        1
300
CONTENTFORMAT
  1
CONTENTFORMAT_BEGIN
 90
        0
 91
        0
 92
      512
 93
        0
300

 40
0.0
140
1.0
 94
        5
 62
     0
340
10
144
0.25
309
CONTENTFORMAT_END
171
     0
 94
        0
309
TABLEFORMAT_END
  1
CELLSTYLE_BEGIN
 90
        1
 91
        1
300
_TITLE
309
CELLSTYLE_END
300
CELLSTYLE
  1
TABLEFORMAT_BEGIN
 90
        5
170
     1
 91
        0
 92
        0
 62
   257
 93
        1
300
CONTENTFORMAT
  1
CONTENTFORMAT_BEGIN
 90
        0
 91
        0
 92
      512
 93
        0
300

 40
0.0
140
1.0
 94
        5
 62
     0
340
10
144
0.18
309
CONTENTFORMAT_END
171
     0
 94
        0
309
TABLEFORMAT_END
  1
CELLSTYLE_BEGIN
 90
        2
 91
        1
300
_HEADER
309
CELLSTYLE_END
300
CELLSTYLE
  1
TABLEFORMAT_BEGIN
 90
        5
170
     1
 91
        0
 92
        0
 62
   257
 93
        1
300
CONTENTFORMAT
  1
CONTENTFORMAT_BEGIN
 90
        0
 91
        0
 92
      512
 93
        0
300

 40
0.0
140
1.0
 94
        2
 62
     0
340
10
144
0.18
309
CONTENTFORMAT_END
171
     0
 94
        0
309
TABLEFORMAT_END
  1
CELLSTYLE_BEGIN
 90
        3
 91
        2
300
_DATA
309
CELLSTYLE_END
  0
XRECORD
  5
857
102
{ACAD_REACTORS
330
6FA
102
}
330
6FA
100
AcDbXrecord
280
     1
102
ACAD_ROUNDTRIP_PRE2007_TABLESTYLE
 90
      512
 91
        0
  1

 92
      512
 93
        0
  2

 94
      512
 95
        0
  3

  0
XRECORD
  5
832
102
{ACAD_REACTORS
330
831
102
}
330
831
100
AcDbXrecord
280
     1
102
RTVSPost2010Prop28
280
     1
102
RTVSPost2010PropOp28
 70
     1
102
RTVSPost2010Prop29
280
     1
102
RTVSPost2010PropOp29
 70
     1
102
RTVSPost2010Prop30
280
     0
102
RTVSPost2010PropOp30
 70
     1
102
RTVSPost2010Prop31
280
     0
102
RTVSPost2010PropOp31
 70
     1
102
RTVSPost2010Prop32
280
     0
102
RTVSPost2010PropOp32
 70
     1
102
RTVSPost2010Prop33
280
     0
102
RTVSPost2010PropOp33
 70
     1
102
RTVSPost2010Prop34
280
     0
102
RTVSPost2010PropOp34
 70
     1
102
RTVSPost2010Prop35
280
     0
102
RTVSPost2010PropOp35
 70
     1
102
RTVSPost2010Prop36
280
     0
102
RTVSPost2010PropOp36
 70
     1
102
RTVSPost2010Prop37
 90
       50
102
RTVSPost2010PropOp37
 70
     1
102
RTVSPost2010Prop38
140
0.0
102
RTVSPost2010PropOp38
 70
     1
102
RTVSPost2010Prop39
140
1.0
102
RTVSPost2010PropOp39
 70
     1
102
RTVSPost2010Prop40
 90
        0
102
RTVSPost2010PropOp40
 70
     1
102
RTVSPost2010Prop41ColorIndex
 90
       18
102
RTVSPost2010Prop41ColorRGB
 90
        0
102
RTVSPost2010PropOp41
 70
     1
102
RTVSPost2010Prop42
 90
       50
102
RTVSPost2010PropOp42
 70
     1
102
RTVSPost2010Prop43
 90
        3
102
RTVSPost2010PropOp43
 70
     1
102
RTVSPost2010Prop44ColorIndex
 90
        5
102
RTVSPost2010Prop44ColorRGB
 90
      255
102
RTVSPost2010PropOp44
 70
     1
102
RTVSPost2010Prop45
280
     0
102
RTVSPost2010PropOp45
 70
     1
102
RTVSPost2010Prop46
 90
       50
102
RTVSPost2010PropOp46
 70
     1
102
RTVSPost2010Prop47
 90
       50
102
RTVSPost2010PropOp47
 70
     1
102
RTVSPost2010Prop48
 90
       50
102
RTVSPost2010PropOp48
 70
     1
102
RTVSPost2010Prop49
280
     0
102
RTVSPost2010PropOp49
 70
     1
102
RTVSPost2010Prop50
 90
       50
102
RTVSPost2010PropOp50
 70
     1
102
RTVSPost2010Prop51ColorIndex
 90
      256
102
RTVSPost2010Prop51ColorRGB
 90
-16777216
102
RTVSPost2010PropOp51
 70
     0
102
RTVSPost2010Prop52
140
1.0
102
RTVSPost2010PropOp52
 70
     0
102
RTVSPost2010Prop53
 90
        2
102
RTVSPost2010PropOp53
 70
     1
102
RTVSPost2010Prop54
  1
strokes_ogs.tif
102
RTVSPost2010PropOp54
 70
     1
102
RTVSPost2010Prop55
280
     0
102
RTVSPost2010PropOp55
 70
     1
102
RTVSPost2010Prop56
140
1.0
102
RTVSPost2010PropOp56
 70
     1
102
RTVSPost2010Prop57
140
1.0
102
RTVSPost2010PropOp57
 70
     1
102
RTVSPropertyOp0
 70
     1
102
RTVSPropertyOp1
 70
     1
102
RTVSPropertyOp2
 70
     1
102
RTVSPropertyOp3
 70
     1
102
RTVSPropertyOp4
 70
     1
102
RTVSPropertyOp5
 70
     1
102
RTVSPropertyOp6
 70
     1
102
RTVSPropertyOp7
 70
     1
102
RTVSPropertyOp8
 70
     1
102
RTVSPropertyOp9
 70
     1
102
RTVSPropertyOp10
 70
     1
102
RTVSPropertyOp11
 70
     1
102
RTVSPropertyOp12
 70
     1
102
RTVSPropertyOp13
 70
     1
102
RTVSPropertyOp14
 70
     1
102
RTVSPropertyOp15
 70
     1
102
RTVSPropertyOp16
 70
     1
102
RTVSPropertyOp17
 70
     1
102
RTVSPropertyOp18
 70
     1
102
RTVSPropertyOp19
 70
     1
102
RTVSPropertyOp20
 70
     1
102
RTVSPropertyOp21
 70
     1
102
RTVSPropertyOp22
 70
     1
102
RTVSPropertyOp23
 70
     1
102
RTVSPropertyOp24
 70
     1
102
RTVSPropertyOp25
 70
     1
102
RTVSPropertyOp26
 70
     1
102
RTVSPropertyOp27
 70
     1
102
RTVSPropertyOp28
 70
     1
102
RTVSPropertyOp29
 70
     1
102
RTVSPropertyOp30
 70
     1
102
RTVSPropertyOp31
 70
     1
102
RTVSPropertyOp32
 70
     1
102
RTVSPropertyOp33
 70
     1
102
RTVSPropertyOp34
 70
     1
102
RTVSPropertyOp35
 70
     1
102
RTVSPropertyOp36
 70
     1
102
RTVSPropertyOp37
 70
     1
102
RTVSPropertyOp38
 70
     1
102
RTVSPropertyOp39
 70
     1
102
RTVSPropertyOp40
 70
     1
102
RTVSPropertyOp41
 70
     1
102
RTVSPropertyOp42
 70
     1
102
RTVSPropertyOp43
 70
     1
102
RTVSPropertyOp44
 70
     1
102
RTVSPropertyOp45
 70
     1
102
RTVSPropertyOp46
 70
     1
102
RTVSPropertyOp47
 70
     1
102
RTVSPropertyOp48
 70
     1
102
RTVSPropertyOp49
 70
     1
102
RTVSPropertyOp50
 70
     1
102
RTVSPropertyOp51
 70
     0
102
RTVSPropertyOp52
 70
     0
102
RTVSPropertyOp53
 70
     1
102
RTVSPropertyOp54
 70
     1
102
RTVSPropertyOp55
 70
     1
102
RTVSPropertyOp56
 70
     1
102
RTVSPropertyOp57
 70
     1
102
RTVSPropertyOp58
 70
     1
102
RTVSPropertyOp59
 70
     1
102
RTVSPropertyOp60
 70
     1
102
RTVSPropertyOp61
 70
     1
102
RTVSPropertyOp62
 70
     1
  0
XRECORD
  5
830
102
{ACAD_REACTORS
330
82F
102
}
330
82F
100
AcDbXrecord
280
     1
102
RTVSPost2010Prop28
280
     0
102
RTVSPost2010PropOp28
 70
     1
102
RTVSPost2010Prop29
280
     1
102
RTVSPost2010PropOp29
 70
     1
102
RTVSPost2010Prop30
280
     1
102
RTVSPost2010PropOp30
 70
     1
102
RTVSPost2010Prop31
280
     0
102
RTVSPost2010PropOp31
 70
     1
102
RTVSPost2010Prop32
280
     0
102
RTVSPost2010PropOp32
 70
     1
102
RTVSPost2010Prop33
280
     0
102
RTVSPost2010PropOp33
 70
     1
102
RTVSPost2010Prop34
280
     0
102
RTVSPost2010PropOp34
 70
     1
102
RTVSPost2010Prop35
280
     0
102
RTVSPost2010PropOp35
 70
     1
102
RTVSPost2010Prop36
280
     0
102
RTVSPost2010PropOp36
 70
     1
102
RTVSPost2010Prop37
 90
       50
102
RTVSPost2010PropOp37
 70
     1
102
RTVSPost2010Prop38
140
0.0
102
RTVSPost2010PropOp38
 70
     1
102
RTVSPost2010Prop39
140
1.0
102
RTVSPost2010PropOp39
 70
     1
102
RTVSPost2010Prop40
 90
        0
102
RTVSPost2010PropOp40
 70
     1
102
RTVSPost2010Prop41ColorIndex
 90
       18
102
RTVSPost2010Prop41ColorRGB
 90
        0
102
RTVSPost2010PropOp41
 70
     1
102
RTVSPost2010Prop42
 90
       50
102
RTVSPost2010PropOp42
 70
     1
102
RTVSPost2010Prop43
 90
        3
102
RTVSPost2010PropOp43
 70
     1
102
RTVSPost2010Prop44ColorIndex
 90
        5
102
RTVSPost2010Prop44ColorRGB
 90
      255
102
RTVSPost2010PropOp44
 70
     1
102
RTVSPost2010Prop45
280
     0
102
RTVSPost2010PropOp45
 70
     1
102
RTVSPost2010Prop46
 90
       50
102
RTVSPost2010PropOp46
 70
     1
102
RTVSPost2010Prop47
 90
       50
102
RTVSPost2010PropOp47
 70
     1
102
RTVSPost2010Prop48
 90
       50
102
RTVSPost2010PropOp48
 70
     1
102
RTVSPost2010Prop49
280
     0
102
RTVSPost2010PropOp49
 70
     1
102
RTVSPost2010Prop50
 90
       50
102
RTVSPost2010PropOp50
 70
     1
102
RTVSPost2010Prop51ColorIndex
 90
      256
102
RTVSPost2010Prop51ColorRGB
 90
-16777216
102
RTVSPost2010PropOp51
 70
     0
102
RTVSPost2010Prop52
140
1.0
102
RTVSPost2010PropOp52
 70
     0
102
RTVSPost2010Prop53
 90
        2
102
RTVSPost2010PropOp53
 70
     1
102
RTVSPost2010Prop54
  1
strokes_ogs.tif
102
RTVSPost2010PropOp54
 70
     1
102
RTVSPost2010Prop55
280
     0
102
RTVSPost2010PropOp55
 70
     1
102
RTVSPost2010Prop56
140
1.0
102
RTVSPost2010PropOp56
 70
     1
102
RTVSPost2010Prop57
140
1.0
102
RTVSPost2010PropOp57
 70
     1
102
RTVSPropertyOp0
 70
     1
102
RTVSPropertyOp1
 70
     1
102
RTVSPropertyOp2
 70
     1
102
RTVSPropertyOp3
 70
     1
102
RTVSPropertyOp4
 70
     1
102
RTVSPropertyOp5
 70
     1
102
RTVSPropertyOp6
 70
     1
102
RTVSPropertyOp7
 70
     1
102
RTVSPropertyOp8
 70
     1
102
RTVSPropertyOp9
 70
     1
102
RTVSPropertyOp10
 70
     1
102
RTVSPropertyOp11
 70
     1
102
RTVSPropertyOp12
 70
     1
102
RTVSPropertyOp13
 70
     1
102
RTVSPropertyOp14
 70
     1
102
RTVSPropertyOp15
 70
     1
102
RTVSPropertyOp16
 70
     1
102
RTVSPropertyOp17
 70
     1
102
RTVSPropertyOp18
 70
     1
102
RTVSPropertyOp19
 70
     1
102
RTVSPropertyOp20
 70
     1
102
RTVSPropertyOp21
 70
     1
102
RTVSPropertyOp22
 70
     1
102
RTVSPropertyOp23
 70
     1
102
RTVSPropertyOp24
 70
     1
102
RTVSPropertyOp25
 70
     1
102
RTVSPropertyOp26
 70
     1
102
RTVSPropertyOp27
 70
     1
102
RTVSPropertyOp28
 70
     1
102
RTVSPropertyOp29
 70
     1
102
RTVSPropertyOp30
 70
     1
102
RTVSPropertyOp31
 70
     1
102
RTVSPropertyOp32
 70
     1
102
RTVSPropertyOp33
 70
     1
102
RTVSPropertyOp34
 70
     1
102
RTVSPropertyOp35
 70
     1
102
RTVSPropertyOp36
 70
     1
102
RTVSPropertyOp37
 70
     1
102
RTVSPropertyOp38
 70
     1
102
RTVSPropertyOp39
 70
     1
102
RTVSPropertyOp40
 70
     1
102
RTVSPropertyOp41
 70
     1
102
RTVSPropertyOp42
 70
     1
102
RTVSPropertyOp43
 70
     1
102
RTVSPropertyOp44
 70
     1
102
RTVSPropertyOp45
 70
     1
102
RTVSPropertyOp46
 70
     1
102
RTVSPropertyOp47
 70
     1
102
RTVSPropertyOp48
 70
     1
102
RTVSPropertyOp49
 70
     1
102
RTVSPropertyOp50
 70
     1
102
RTVSPropertyOp51
 70
     0
102
RTVSPropertyOp52
 70
     0
102
RTVSPropertyOp53
 70
     1
102
RTVSPropertyOp54
 70
     1
102
RTVSPropertyOp55
 70
     1
102
RTVSPropertyOp56
 70
     1
102
RTVSPropertyOp57
 70
     1
102
RTVSPropertyOp58
 70
     1
102
RTVSPropertyOp59
 70
     1
102
RTVSPropertyOp60
 70
     1
102
RTVSPropertyOp61
 70
     1
102
RTVSPropertyOp62
 70
     1
  0
XRECORD
  5
83E
102
{ACAD_REACTORS
330
83D
102
}
330
83D
100
AcDbXrecord
280
     1
102
RTVSPost2010Prop28
280
     0
102
RTVSPost2010PropOp28
 70
     1
102
RTVSPost2010Prop29
280
     1
102
RTVSPost2010PropOp29
 70
     1
102
RTVSPost2010Prop30
280
     1
102
RTVSPost2010PropOp30
 70
     1
102
RTVSPost2010Prop31
280
     0
102
RTVSPost2010PropOp31
 70
     1
102
RTVSPost2010Prop32
280
     0
102
RTVSPost2010PropOp32
 70
     1
102
RTVSPost2010Prop33
280
     0
102
RTVSPost2010PropOp33
 70
     1
102
RTVSPost2010Prop34
280
     0
102
RTVSPost2010PropOp34
 70
     1
102
RTVSPost2010Prop35
280
     0
102
RTVSPost2010PropOp35
 70
     1
102
RTVSPost2010Prop36
280
     0
102
RTVSPost2010PropOp36
 70
     1
102
RTVSPost2010Prop37
 90
       50
102
RTVSPost2010PropOp37
 70
     1
102
RTVSPost2010Prop38
140
0.0
102
RTVSPost2010PropOp38
 70
     1
102
RTVSPost2010Prop39
140
1.0
102
RTVSPost2010PropOp39
 70
     1
102
RTVSPost2010Prop40
 90
        0
102
RTVSPost2010PropOp40
 70
     1
102
RTVSPost2010Prop41ColorIndex
 90
       18
102
RTVSPost2010Prop41ColorRGB
 90
        0
102
RTVSPost2010PropOp41
 70
     1
102
RTVSPost2010Prop42
 90
       50
102
RTVSPost2010PropOp42
 70
     1
102
RTVSPost2010Prop43
 90
        3
102
RTVSPost2010PropOp43
 70
     1
102
RTVSPost2010Prop44ColorIndex
 90
        5
102
RTVSPost2010Prop44ColorRGB
 90
      255
102
RTVSPost2010PropOp44
 70
     1
102
RTVSPost2010Prop45
280
     0
102
RTVSPost2010PropOp45
 70
     1
102
RTVSPost2010Prop46
 90
       50
102
RTVSPost2010PropOp46
 70
     1
102
RTVSPost2010Prop47
 90
       50
102
RTVSPost2010PropOp47
 70
     1
102
RTVSPost2010Prop48
 90
       50
102
RTVSPost2010PropOp48
 70
     1
102
RTVSPost2010Prop49
280
     0
102
RTVSPost2010PropOp49
 70
     1
102
RTVSPost2010Prop50
 90
       50
102
RTVSPost2010PropOp50
 70
     1
102
RTVSPost2010Prop51ColorIndex
 90
      256
102
RTVSPost2010Prop51ColorRGB
 90
-16777216
102
RTVSPost2010PropOp51
 70
     0
102
RTVSPost2010Prop52
140
1.0
102
RTVSPost2010PropOp52
 70
     0
102
RTVSPost2010Prop53
 90
        2
102
RTVSPost2010PropOp53
 70
     1
102
RTVSPost2010Prop54
  1
strokes_ogs.tif
102
RTVSPost2010PropOp54
 70
     1
102
RTVSPost2010Prop55
280
     0
102
RTVSPost2010PropOp55
 70
     1
102
RTVSPost2010Prop56
140
1.0
102
RTVSPost2010PropOp56
 70
     1
102
RTVSPost2010Prop57
140
1.0
102
RTVSPost2010PropOp57
 70
     1
102
RTVSPropertyOp0
 70
     1
102
RTVSPropertyOp1
 70
     1
102
RTVSPropertyOp2
 70
     1
102
RTVSPropertyOp3
 70
     1
102
RTVSPropertyOp4
 70
     1
102
RTVSPropertyOp5
 70
     1
102
RTVSPropertyOp6
 70
     1
102
RTVSPropertyOp7
 70
     1
102
RTVSPropertyOp8
 70
     1
102
RTVSPropertyOp9
 70
     1
102
RTVSPropertyOp10
 70
     1
102
RTVSPropertyOp11
 70
     1
102
RTVSPropertyOp12
 70
     1
102
RTVSPropertyOp13
 70
     1
102
RTVSPropertyOp14
 70
     1
102
RTVSPropertyOp15
 70
     1
102
RTVSPropertyOp16
 70
     1
102
RTVSPropertyOp17
 70
     1
102
RTVSPropertyOp18
 70
     1
102
RTVSPropertyOp19
 70
     1
102
RTVSPropertyOp20
 70
     1
102
RTVSPropertyOp21
 70
     1
102
RTVSPropertyOp22
 70
     1
102
RTVSPropertyOp23
 70
     1
102
RTVSPropertyOp24
 70
     1
102
RTVSPropertyOp25
 70
     1
102
RTVSPropertyOp26
 70
     1
102
RTVSPropertyOp27
 70
     1
102
RTVSPropertyOp28
 70
     1
102
RTVSPropertyOp29
 70
     1
102
RTVSPropertyOp30
 70
     1
102
RTVSPropertyOp31
 70
     1
102
RTVSPropertyOp32
 70
     1
102
RTVSPropertyOp33
 70
     1
102
RTVSPropertyOp34
 70
     1
102
RTVSPropertyOp35
 70
     1
102
RTVSPropertyOp36
 70
     1
102
RTVSPropertyOp37
 70
     1
102
RTVSPropertyOp38
 70
     1
102
RTVSPropertyOp39
 70
     1
102
RTVSPropertyOp40
 70
     1
102
RTVSPropertyOp41
 70
     1
102
RTVSPropertyOp42
 70
     1
102
RTVSPropertyOp43
 70
     1
102
RTVSPropertyOp44
 70
     1
102
RTVSPropertyOp45
 70
     1
102
RTVSPropertyOp46
 70
     1
102
RTVSPropertyOp47
 70
     1
102
RTVSPropertyOp48
 70
     1
102
RTVSPropertyOp49
 70
     1
102
RTVSPropertyOp50
 70
     1
102
RTVSPropertyOp51
 70
     0
102
RTVSPropertyOp52
 70
     0
102
RTVSPropertyOp53
 70
     1
102
RTVSPropertyOp54
 70
     1
102
RTVSPropertyOp55
 70
     1
102
RTVSPropertyOp56
 70
     1
102
RTVSPropertyOp57
 70
     1
102
RTVSPropertyOp58
 70
     1
102
RTVSPropertyOp59
 70
     1
102
RTVSPropertyOp60
 70
     1
102
RTVSPropertyOp61
 70
     1
102
RTVSPropertyOp62
 70
     1
  0
XRECORD
  5
846
102
{ACAD_REACTORS
330
845
102
}
330
845
100
AcDbXrecord
280
     1
102
RTVSPost2010Prop28
280
     0
102
RTVSPost2010PropOp28
 70
     1
102
RTVSPost2010Prop29
280
     1
102
RTVSPost2010PropOp29
 70
     1
102
RTVSPost2010Prop30
280
     1
102
RTVSPost2010PropOp30
 70
     1
102
RTVSPost2010Prop31
280
     0
102
RTVSPost2010PropOp31
 70
     1
102
RTVSPost2010Prop32
280
     0
102
RTVSPost2010PropOp32
 70
     1
102
RTVSPost2010Prop33
280
     0
102
RTVSPost2010PropOp33
 70
     1
102
RTVSPost2010Prop34
280
     0
102
RTVSPost2010PropOp34
 70
     1
102
RTVSPost2010Prop35
280
     0
102
RTVSPost2010PropOp35
 70
     1
102
RTVSPost2010Prop36
280
     0
102
RTVSPost2010PropOp36
 70
     1
102
RTVSPost2010Prop37
 90
       50
102
RTVSPost2010PropOp37
 70
     1
102
RTVSPost2010Prop38
140
0.0
102
RTVSPost2010PropOp38
 70
     1
102
RTVSPost2010Prop39
140
1.0
102
RTVSPost2010PropOp39
 70
     1
102
RTVSPost2010Prop40
 90
        0
102
RTVSPost2010PropOp40
 70
     1
102
RTVSPost2010Prop41ColorIndex
 90
       18
102
RTVSPost2010Prop41ColorRGB
 90
        0
102
RTVSPost2010PropOp41
 70
     1
102
RTVSPost2010Prop42
 90
       50
102
RTVSPost2010PropOp42
 70
     1
102
RTVSPost2010Prop43
 90
        3
102
RTVSPost2010PropOp43
 70
     1
102
RTVSPost2010Prop44ColorIndex
 90
        5
102
RTVSPost2010Prop44ColorRGB
 90
      255
102
RTVSPost2010PropOp44
 70
     1
102
RTVSPost2010Prop45
280
     0
102
RTVSPost2010PropOp45
 70
     1
102
RTVSPost2010Prop46
 90
       50
102
RTVSPost2010PropOp46
 70
     1
102
RTVSPost2010Prop47
 90
       50
102
RTVSPost2010PropOp47
 70
     1
102
RTVSPost2010Prop48
 90
       50
102
RTVSPost2010PropOp48
 70
     1
102
RTVSPost2010Prop49
280
     0
102
RTVSPost2010PropOp49
 70
     1
102
RTVSPost2010Prop50
 90
       50
102
RTVSPost2010PropOp50
 70
     1
102
RTVSPost2010Prop51ColorIndex
 90
      256
102
RTVSPost2010Prop51ColorRGB
 90
-16777216
102
RTVSPost2010PropOp51
 70
     0
102
RTVSPost2010Prop52
140
1.0
102
RTVSPost2010PropOp52
 70
     0
102
RTVSPost2010Prop53
 90
        2
102
RTVSPost2010PropOp53
 70
     1
102
RTVSPost2010Prop54
  1
strokes_ogs.tif
102
RTVSPost2010PropOp54
 70
     1
102
RTVSPost2010Prop55
280
     0
102
RTVSPost2010PropOp55
 70
     1
102
RTVSPost2010Prop56
140
1.0
102
RTVSPost2010PropOp56
 70
     1
102
RTVSPost2010Prop57
140
1.0
102
RTVSPost2010PropOp57
 70
     1
102
RTVSPropertyOp0
 70
     1
102
RTVSPropertyOp1
 70
     1
102
RTVSPropertyOp2
 70
     1
102
RTVSPropertyOp3
 70
     1
102
RTVSPropertyOp4
 70
     1
102
RTVSPropertyOp5
 70
     1
102
RTVSPropertyOp6
 70
     1
102
RTVSPropertyOp7
 70
     1
102
RTVSPropertyOp8
 70
     1
102
RTVSPropertyOp9
 70
     1
102
RTVSPropertyOp10
 70
     1
102
RTVSPropertyOp11
 70
     1
102
RTVSPropertyOp12
 70
     1
102
RTVSPropertyOp13
 70
     1
102
RTVSPropertyOp14
 70
     1
102
RTVSPropertyOp15
 70
     1
102
RTVSPropertyOp16
 70
     1
102
RTVSPropertyOp17
 70
     1
102
RTVSPropertyOp18
 70
     1
102
RTVSPropertyOp19
 70
     1
102
RTVSPropertyOp20
 70
     1
102
RTVSPropertyOp21
 70
     1
102
RTVSPropertyOp22
 70
     1
102
RTVSPropertyOp23
 70
     1
102
RTVSPropertyOp24
 70
     1
102
RTVSPropertyOp25
 70
     1
102
RTVSPropertyOp26
 70
     1
102
RTVSPropertyOp27
 70
     1
102
RTVSPropertyOp28
 70
     1
102
RTVSPropertyOp29
 70
     1
102
RTVSPropertyOp30
 70
     1
102
RTVSPropertyOp31
 70
     1
102
RTVSPropertyOp32
 70
     1
102
RTVSPropertyOp33
 70
     1
102
RTVSPropertyOp34
 70
     1
102
RTVSPropertyOp35
 70
     1
102
RTVSPropertyOp36
 70
     1
102
RTVSPropertyOp37
 70
     1
102
RTVSPropertyOp38
 70
     1
102
RTVSPropertyOp39
 70
     1
102
RTVSPropertyOp40
 70
     1
102
RTVSPropertyOp41
 70
     1
102
RTVSPropertyOp42
 70
     1
102
RTVSPropertyOp43
 70
     1
102
RTVSPropertyOp44
 70
     1
102
RTVSPropertyOp45
 70
     1
102
RTVSPropertyOp46
 70
     1
102
RTVSPropertyOp47
 70
     1
102
RTVSPropertyOp48
 70
     1
102
RTVSPropertyOp49
 70
     1
102
RTVSPropertyOp50
 70
     1
102
RTVSPropertyOp51
 70
     0
102
RTVSPropertyOp52
 70
     0
102
RTVSPropertyOp53
 70
     1
102
RTVSPropertyOp54
 70
     1
102
RTVSPropertyOp55
 70
     1
102
RTVSPropertyOp56
 70
     1
102
RTVSPropertyOp57
 70
     1
102
RTVSPropertyOp58
 70
     1
102
RTVSPropertyOp59
 70
     1
102
RTVSPropertyOp60
 70
     1
102
RTVSPropertyOp61
 70
     1
102
RTVSPropertyOp62
 70
     1
  0
XRECORD
  5
838
102
{ACAD_REACTORS
330
837
102
}
330
837
100
AcDbXrecord
280
     1
102
RTVSPost2010Prop28
280
     0
102
RTVSPost2010PropOp28
 70
     1
102
RTVSPost2010Prop29
280
     1
102
RTVSPost2010PropOp29
 70
     1
102
RTVSPost2010Prop30
280
     1
102
RTVSPost2010PropOp30
 70
     1
102
RTVSPost2010Prop31
280
     0
102
RTVSPost2010PropOp31
 70
     1
102
RTVSPost2010Prop32
280
     0
102
RTVSPost2010PropOp32
 70
     1
102
RTVSPost2010Prop33
280
     0
102
RTVSPost2010PropOp33
 70
     1
102
RTVSPost2010Prop34
280
     0
102
RTVSPost2010PropOp34
 70
     1
102
RTVSPost2010Prop35
280
     0
102
RTVSPost2010PropOp35
 70
     1
102
RTVSPost2010Prop36
280
     0
102
RTVSPost2010PropOp36
 70
     1
102
RTVSPost2010Prop37
 90
       50
102
RTVSPost2010PropOp37
 70
     1
102
RTVSPost2010Prop38
140
0.0
102
RTVSPost2010PropOp38
 70
     1
102
RTVSPost2010Prop39
140
1.0
102
RTVSPost2010PropOp39
 70
     1
102
RTVSPost2010Prop40
 90
        0
102
RTVSPost2010PropOp40
 70
     1
102
RTVSPost2010Prop41ColorIndex
 90
       18
102
RTVSPost2010Prop41ColorRGB
 90
        0
102
RTVSPost2010PropOp41
 70
     1
102
RTVSPost2010Prop42
 90
       50
102
RTVSPost2010PropOp42
 70
     1
102
RTVSPost2010Prop43
 90
        3
102
RTVSPost2010PropOp43
 70
     1
102
RTVSPost2010Prop44ColorIndex
 90
        5
102
RTVSPost2010Prop44ColorRGB
 90
      255
102
RTVSPost2010PropOp44
 70
     1
102
RTVSPost2010Prop45
280
     0
102
RTVSPost2010PropOp45
 70
     1
102
RTVSPost2010Prop46
 90
       50
102
RTVSPost2010PropOp46
 70
     1
102
RTVSPost2010Prop47
 90
       50
102
RTVSPost2010PropOp47
 70
     1
102
RTVSPost2010Prop48
 90
       50
102
RTVSPost2010PropOp48
 70
     1
102
RTVSPost2010Prop49
280
     0
102
RTVSPost2010PropOp49
 70
     1
102
RTVSPost2010Prop50
 90
       50
102
RTVSPost2010PropOp50
 70
     1
102
RTVSPost2010Prop51ColorIndex
 90
      256
102
RTVSPost2010Prop51ColorRGB
 90
-16777216
102
RTVSPost2010PropOp51
 70
     0
102
RTVSPost2010Prop52
140
1.0
102
RTVSPost2010PropOp52
 70
     0
102
RTVSPost2010Prop53
 90
        2
102
RTVSPost2010PropOp53
 70
     1
102
RTVSPost2010Prop54
  1
strokes_ogs.tif
102
RTVSPost2010PropOp54
 70
     1
102
RTVSPost2010Prop55
280
     0
102
RTVSPost2010PropOp55
 70
     1
102
RTVSPost2010Prop56
140
1.0
102
RTVSPost2010PropOp56
 70
     1
102
RTVSPost2010Prop57
140
1.0
102
RTVSPost2010PropOp57
 70
     1
102
RTVSPropertyOp0
 70
     1
102
RTVSPropertyOp1
 70
     1
102
RTVSPropertyOp2
 70
     1
102
RTVSPropertyOp3
 70
     1
102
RTVSPropertyOp4
 70
     1
102
RTVSPropertyOp5
 70
     1
102
RTVSPropertyOp6
 70
     1
102
RTVSPropertyOp7
 70
     1
102
RTVSPropertyOp8
 70
     1
102
RTVSPropertyOp9
 70
     1
102
RTVSPropertyOp10
 70
     1
102
RTVSPropertyOp11
 70
     1
102
RTVSPropertyOp12
 70
     1
102
RTVSPropertyOp13
 70
     1
102
RTVSPropertyOp14
 70
     1
102
RTVSPropertyOp15
 70
     1
102
RTVSPropertyOp16
 70
     1
102
RTVSPropertyOp17
 70
     1
102
RTVSPropertyOp18
 70
     1
102
RTVSPropertyOp19
 70
     1
102
RTVSPropertyOp20
 70
     1
102
RTVSPropertyOp21
 70
     1
102
RTVSPropertyOp22
 70
     1
102
RTVSPropertyOp23
 70
     1
102
RTVSPropertyOp24
 70
     1
102
RTVSPropertyOp25
 70
     1
102
RTVSPropertyOp26
 70
     1
102
RTVSPropertyOp27
 70
     1
102
RTVSPropertyOp28
 70
     1
102
RTVSPropertyOp29
 70
     1
102
RTVSPropertyOp30
 70
     1
102
RTVSPropertyOp31
 70
     1
102
RTVSPropertyOp32
 70
     1
102
RTVSPropertyOp33
 70
     1
102
RTVSPropertyOp34
 70
     1
102
RTVSPropertyOp35
 70
     1
102
RTVSPropertyOp36
 70
     1
102
RTVSPropertyOp37
 70
     1
102
RTVSPropertyOp38
 70
     1
102
RTVSPropertyOp39
 70
     1
102
RTVSPropertyOp40
 70
     1
102
RTVSPropertyOp41
 70
     1
102
RTVSPropertyOp42
 70
     1
102
RTVSPropertyOp43
 70
     1
102
RTVSPropertyOp44
 70
     1
102
RTVSPropertyOp45
 70
     1
102
RTVSPropertyOp46
 70
     1
102
RTVSPropertyOp47
 70
     1
102
RTVSPropertyOp48
 70
     1
102
RTVSPropertyOp49
 70
     1
102
RTVSPropertyOp50
 70
     1
102
RTVSPropertyOp51
 70
     0
102
RTVSPropertyOp52
 70
     0
102
RTVSPropertyOp53
 70
     1
102
RTVSPropertyOp54
 70
     1
102
RTVSPropertyOp55
 70
     1
102
RTVSPropertyOp56
 70
     1
102
RTVSPropertyOp57
 70
     1
102
RTVSPropertyOp58
 70
     1
102
RTVSPropertyOp59
 70
     1
102
RTVSPropertyOp60
 70
     1
102
RTVSPropertyOp61
 70
     1
102
RTVSPropertyOp62
 70
     1
  0
XRECORD
  5
83C
102
{ACAD_REACTORS
330
83B
102
}
330
83B
100
AcDbXrecord
280
     1
102
RTVSPost2010Prop28
280
     0
102
RTVSPost2010PropOp28
 70
     1
102
RTVSPost2010Prop29
280
     1
102
RTVSPost2010PropOp29
 70
     1
102
RTVSPost2010Prop30
280
     1
102
RTVSPost2010PropOp30
 70
     1
102
RTVSPost2010Prop31
280
     0
102
RTVSPost2010PropOp31
 70
     1
102
RTVSPost2010Prop32
280
     0
102
RTVSPost2010PropOp32
 70
     1
102
RTVSPost2010Prop33
280
     0
102
RTVSPost2010PropOp33
 70
     1
102
RTVSPost2010Prop34
280
     0
102
RTVSPost2010PropOp34
 70
     1
102
RTVSPost2010Prop35
280
     0
102
RTVSPost2010PropOp35
 70
     1
102
RTVSPost2010Prop36
280
     0
102
RTVSPost2010PropOp36
 70
     1
102
RTVSPost2010Prop37
 90
       50
102
RTVSPost2010PropOp37
 70
     1
102
RTVSPost2010Prop38
140
0.0
102
RTVSPost2010PropOp38
 70
     1
102
RTVSPost2010Prop39
140
1.0
102
RTVSPost2010PropOp39
 70
     1
102
RTVSPost2010Prop40
 90
        0
102
RTVSPost2010PropOp40
 70
     1
102
RTVSPost2010Prop41ColorIndex
 90
       18
102
RTVSPost2010Prop41ColorRGB
 90
        0
102
RTVSPost2010PropOp41
 70
     1
102
RTVSPost2010Prop42
 90
       50
102
RTVSPost2010PropOp42
 70
     1
102
RTVSPost2010Prop43
 90
        3
102
RTVSPost2010PropOp43
 70
     1
102
RTVSPost2010Prop44ColorIndex
 90
        5
102
RTVSPost2010Prop44ColorRGB
 90
      255
102
RTVSPost2010PropOp44
 70
     1
102
RTVSPost2010Prop45
280
     0
102
RTVSPost2010PropOp45
 70
     1
102
RTVSPost2010Prop46
 90
       50
102
RTVSPost2010PropOp46
 70
     1
102
RTVSPost2010Prop47
 90
       50
102
RTVSPost2010PropOp47
 70
     1
102
RTVSPost2010Prop48
 90
       50
102
RTVSPost2010PropOp48
 70
     1
102
RTVSPost2010Prop49
280
     0
102
RTVSPost2010PropOp49
 70
     1
102
RTVSPost2010Prop50
 90
       50
102
RTVSPost2010PropOp50
 70
     1
102
RTVSPost2010Prop51ColorIndex
 90
      256
102
RTVSPost2010Prop51ColorRGB
 90
-16777216
102
RTVSPost2010PropOp51
 70
     0
102
RTVSPost2010Prop52
140
1.0
102
RTVSPost2010PropOp52
 70
     0
102
RTVSPost2010Prop53
 90
        2
102
RTVSPost2010PropOp53
 70
     1
102
RTVSPost2010Prop54
  1
strokes_ogs.tif
102
RTVSPost2010PropOp54
 70
     1
102
RTVSPost2010Prop55
280
     0
102
RTVSPost2010PropOp55
 70
     1
102
RTVSPost2010Prop56
140
1.0
102
RTVSPost2010PropOp56
 70
     1
102
RTVSPost2010Prop57
140
1.0
102
RTVSPost2010PropOp57
 70
     1
102
RTVSPropertyOp0
 70
     1
102
RTVSPropertyOp1
 70
     1
102
RTVSPropertyOp2
 70
     1
102
RTVSPropertyOp3
 70
     1
102
RTVSPropertyOp4
 70
     1
102
RTVSPropertyOp5
 70
     1
102
RTVSPropertyOp6
 70
     1
102
RTVSPropertyOp7
 70
     1
102
RTVSPropertyOp8
 70
     1
102
RTVSPropertyOp9
 70
     1
102
RTVSPropertyOp10
 70
     1
102
RTVSPropertyOp11
 70
     1
102
RTVSPropertyOp12
 70
     1
102
RTVSPropertyOp13
 70
     1
102
RTVSPropertyOp14
 70
     1
102
RTVSPropertyOp15
 70
     1
102
RTVSPropertyOp16
 70
     1
102
RTVSPropertyOp17
 70
     1
102
RTVSPropertyOp18
 70
     1
102
RTVSPropertyOp19
 70
     1
102
RTVSPropertyOp20
 70
     1
102
RTVSPropertyOp21
 70
     1
102
RTVSPropertyOp22
 70
     1
102
RTVSPropertyOp23
 70
     1
102
RTVSPropertyOp24
 70
     1
102
RTVSPropertyOp25
 70
     1
102
RTVSPropertyOp26
 70
     1
102
RTVSPropertyOp27
 70
     1
102
RTVSPropertyOp28
 70
     1
102
RTVSPropertyOp29
 70
     1
102
RTVSPropertyOp30
 70
     1
102
RTVSPropertyOp31
 70
     1
102
RTVSPropertyOp32
 70
     1
102
RTVSPropertyOp33
 70
     1
102
RTVSPropertyOp34
 70
     1
102
RTVSPropertyOp35
 70
     1
102
RTVSPropertyOp36
 70
     1
102
RTVSPropertyOp37
 70
     1
102
RTVSPropertyOp38
 70
     1
102
RTVSPropertyOp39
 70
     1
102
RTVSPropertyOp40
 70
     1
102
RTVSPropertyOp41
 70
     1
102
RTVSPropertyOp42
 70
     1
102
RTVSPropertyOp43
 70
     1
102
RTVSPropertyOp44
 70
     1
102
RTVSPropertyOp45
 70
     1
102
RTVSPropertyOp46
 70
     1
102
RTVSPropertyOp47
 70
     1
102
RTVSPropertyOp48
 70
     1
102
RTVSPropertyOp49
 70
     1
102
RTVSPropertyOp50
 70
     1
102
RTVSPropertyOp51
 70
     0
102
RTVSPropertyOp52
 70
     0
102
RTVSPropertyOp53
 70
     1
102
RTVSPropertyOp54
 70
     1
102
RTVSPropertyOp55
 70
     1
102
RTVSPropertyOp56
 70
     1
102
RTVSPropertyOp57
 70
     1
102
RTVSPropertyOp58
 70
     1
102
RTVSPropertyOp59
 70
     1
102
RTVSPropertyOp60
 70
     1
102
RTVSPropertyOp61
 70
     1
102
RTVSPropertyOp62
 70
     1
  0
XRECORD
  5
856
102
{ACAD_REACTORS
330
855
102
}
330
855
100
AcDbXrecord
280
     1
102
RTVSPost2010Prop28
280
     0
102
RTVSPost2010PropOp28
 70
     0
102
RTVSPost2010Prop29
280
     1
102
RTVSPost2010PropOp29
 70
     0
102
RTVSPost2010Prop30
280
     1
102
RTVSPost2010PropOp30
 70
     0
102
RTVSPost2010Prop31
280
     0
102
RTVSPost2010PropOp31
 70
     0
102
RTVSPost2010Prop32
280
     0
102
RTVSPost2010PropOp32
 70
     0
102
RTVSPost2010Prop33
280
     0
102
RTVSPost2010PropOp33
 70
     0
102
RTVSPost2010Prop34
280
     0
102
RTVSPost2010PropOp34
 70
     0
102
RTVSPost2010Prop35
280
     0
102
RTVSPost2010PropOp35
 70
     0
102
RTVSPost2010Prop36
280
     0
102
RTVSPost2010PropOp36
 70
     0
102
RTVSPost2010Prop37
 90
       50
102
RTVSPost2010PropOp37
 70
     0
102
RTVSPost2010Prop38
140
0.0
102
RTVSPost2010PropOp38
 70
     0
102
RTVSPost2010Prop39
140
1.0
102
RTVSPost2010PropOp39
 70
     0
102
RTVSPost2010Prop40
 90
        0
102
RTVSPost2010PropOp40
 70
     0
102
RTVSPost2010Prop41ColorIndex
 90
       18
102
RTVSPost2010Prop41ColorRGB
 90
        0
102
RTVSPost2010PropOp41
 70
     0
102
RTVSPost2010Prop42
 90
       50
102
RTVSPost2010PropOp42
 70
     0
102
RTVSPost2010Prop43
 90
        3
102
RTVSPost2010PropOp43
 70
     0
102
RTVSPost2010Prop44ColorIndex
 90
        5
102
RTVSPost2010Prop44ColorRGB
 90
      255
102
RTVSPost2010PropOp44
 70
     0
102
RTVSPost2010Prop45
280
     0
102
RTVSPost2010PropOp45
 70
     0
102
RTVSPost2010Prop46
 90
       50
102
RTVSPost2010PropOp46
 70
     0
102
RTVSPost2010Prop47
 90
       50
102
RTVSPost2010PropOp47
 70
     0
102
RTVSPost2010Prop48
 90
       50
102
RTVSPost2010PropOp48
 70
     0
102
RTVSPost2010Prop49
280
     0
102
RTVSPost2010PropOp49
 70
     0
102
RTVSPost2010Prop50
 90
       50
102
RTVSPost2010PropOp50
 70
     0
102
RTVSPost2010Prop51ColorIndex
 90
      256
102
RTVSPost2010Prop51ColorRGB
 90
-16777216
102
RTVSPost2010PropOp51
 70
     0
102
RTVSPost2010Prop52
140
1.0
102
RTVSPost2010PropOp52
 70
     0
102
RTVSPost2010Prop53
 90
        2
102
RTVSPost2010PropOp53
 70
     0
102
RTVSPost2010Prop54
  1
strokes_ogs.tif
102
RTVSPost2010PropOp54
 70
     0
102
RTVSPost2010Prop55
280
     0
102
RTVSPost2010PropOp55
 70
     0
102
RTVSPost2010Prop56
140
1.0
102
RTVSPost2010PropOp56
 70
     0
102
RTVSPost2010Prop57
140
1.0
102
RTVSPost2010PropOp57
 70
     0
102
RTVSPropertyOp0
 70
     0
102
RTVSPropertyOp1
 70
     0
102
RTVSPropertyOp2
 70
     0
102
RTVSPropertyOp3
 70
     0
102
RTVSPropertyOp4
 70
     0
102
RTVSPropertyOp5
 70
     0
102
RTVSPropertyOp6
 70
     0
102
RTVSPropertyOp7
 70
     0
102
RTVSPropertyOp8
 70
     0
102
RTVSPropertyOp9
 70
     0
102
RTVSPropertyOp10
 70
     0
102
RTVSPropertyOp11
 70
     0
102
RTVSPropertyOp12
 70
     0
102
RTVSPropertyOp13
 70
     0
102
RTVSPropertyOp14
 70
     2
102
RTVSPropertyOp15
 70
     0
102
RTVSPropertyOp16
 70
     0
102
RTVSPropertyOp17
 70
     0
102
RTVSPropertyOp18
 70
     0
102
RTVSPropertyOp19
 70
     0
102
RTVSPropertyOp20
 70
     0
102
RTVSPropertyOp21
 70
     0
102
RTVSPropertyOp22
 70
     0
102
RTVSPropertyOp23
 70
     0
102
RTVSPropertyOp24
 70
     0
102
RTVSPropertyOp25
 70
     0
102
RTVSPropertyOp26
 70
     0
102
RTVSPropertyOp27
 70
     0
102
RTVSPropertyOp28
 70
     0
102
RTVSPropertyOp29
 70
     0
102
RTVSPropertyOp30
 70
     0
102
RTVSPropertyOp31
 70
     0
102
RTVSPropertyOp32
 70
     0
102
RTVSPropertyOp33
 70
     0
102
RTVSPropertyOp34
 70
     0
102
RTVSPropertyOp35
 70
     0
102
RTVSPropertyOp36
 70
     0
102
RTVSPropertyOp37
 70
     0
102
RTVSPropertyOp38
 70
     0
102
RTVSPropertyOp39
 70
     0
102
RTVSPropertyOp40
 70
     0
102
RTVSPropertyOp41
 70
     0
102
RTVSPropertyOp42
 70
     0
102
RTVSPropertyOp43
 70
     0
102
RTVSPropertyOp44
 70
     0
102
RTVSPropertyOp45
 70
     0
102
RTVSPropertyOp46
 70
     0
102
RTVSPropertyOp47
 70
     0
102
RTVSPropertyOp48
 70
     0
102
RTVSPropertyOp49
 70
     0
102
RTVSPropertyOp50
 70
     0
102
RTVSPropertyOp51
 70
     0
102
RTVSPropertyOp52
 70
     0
102
RTVSPropertyOp53
 70
     0
102
RTVSPropertyOp54
 70
     0
102
RTVSPropertyOp55
 70
     0
102
RTVSPropertyOp56
 70
     0
102
RTVSPropertyOp57
 70
     0
102
RTVSPropertyOp58
 70
     0
102
RTVSPropertyOp59
 70
     0
102
RTVSPropertyOp60
 70
     0
102
RTVSPropertyOp61
 70
     0
102
RTVSPropertyOp62
 70
     0
  0
XRECORD
  5
844
102
{ACAD_REACTORS
330
843
102
}
330
843
100
AcDbXrecord
280
     1
102
RTVSPost2010Prop28
280
     0
102
RTVSPost2010PropOp28
 70
     1
102
RTVSPost2010Prop29
280
     1
102
RTVSPost2010PropOp29
 70
     1
102
RTVSPost2010Prop30
280
     1
102
RTVSPost2010PropOp30
 70
     1
102
RTVSPost2010Prop31
280
     0
102
RTVSPost2010PropOp31
 70
     1
102
RTVSPost2010Prop32
280
     0
102
RTVSPost2010PropOp32
 70
     1
102
RTVSPost2010Prop33
280
     0
102
RTVSPost2010PropOp33
 70
     1
102
RTVSPost2010Prop34
280
     0
102
RTVSPost2010PropOp34
 70
     1
102
RTVSPost2010Prop35
280
     0
102
RTVSPost2010PropOp35
 70
     1
102
RTVSPost2010Prop36
280
     0
102
RTVSPost2010PropOp36
 70
     1
102
RTVSPost2010Prop37
 90
       50
102
RTVSPost2010PropOp37
 70
     1
102
RTVSPost2010Prop38
140
0.0
102
RTVSPost2010PropOp38
 70
     1
102
RTVSPost2010Prop39
140
1.0
102
RTVSPost2010PropOp39
 70
     1
102
RTVSPost2010Prop40
 90
        0
102
RTVSPost2010PropOp40
 70
     1
102
RTVSPost2010Prop41ColorIndex
 90
       18
102
RTVSPost2010Prop41ColorRGB
 90
        0
102
RTVSPost2010PropOp41
 70
     1
102
RTVSPost2010Prop42
 90
       50
102
RTVSPost2010PropOp42
 70
     1
102
RTVSPost2010Prop43
 90
        3
102
RTVSPost2010PropOp43
 70
     1
102
RTVSPost2010Prop44ColorIndex
 90
        5
102
RTVSPost2010Prop44ColorRGB
 90
      255
102
RTVSPost2010PropOp44
 70
     1
102
RTVSPost2010Prop45
280
     0
102
RTVSPost2010PropOp45
 70
     1
102
RTVSPost2010Prop46
 90
       50
102
RTVSPost2010PropOp46
 70
     1
102
RTVSPost2010Prop47
 90
       50
102
RTVSPost2010PropOp47
 70
     1
102
RTVSPost2010Prop48
 90
       50
102
RTVSPost2010PropOp48
 70
     1
102
RTVSPost2010Prop49
280
     0
102
RTVSPost2010PropOp49
 70
     1
102
RTVSPost2010Prop50
 90
       50
102
RTVSPost2010PropOp50
 70
     1
102
RTVSPost2010Prop51ColorIndex
 90
      256
102
RTVSPost2010Prop51ColorRGB
 90
-16777216
102
RTVSPost2010PropOp51
 70
     0
102
RTVSPost2010Prop52
140
1.0
102
RTVSPost2010PropOp52
 70
     0
102
RTVSPost2010Prop53
 90
        2
102
RTVSPost2010PropOp53
 70
     1
102
RTVSPost2010Prop54
  1
strokes_ogs.tif
102
RTVSPost2010PropOp54
 70
     1
102
RTVSPost2010Prop55
280
     0
102
RTVSPost2010PropOp55
 70
     1
102
RTVSPost2010Prop56
140
1.0
102
RTVSPost2010PropOp56
 70
     1
102
RTVSPost2010Prop57
140
1.0
102
RTVSPost2010PropOp57
 70
     1
102
RTVSPropertyOp0
 70
     1
102
RTVSPropertyOp1
 70
     1
102
RTVSPropertyOp2
 70
     1
102
RTVSPropertyOp3
 70
     1
102
RTVSPropertyOp4
 70
     1
102
RTVSPropertyOp5
 70
     1
102
RTVSPropertyOp6
 70
     1
102
RTVSPropertyOp7
 70
     1
102
RTVSPropertyOp8
 70
     1
102
RTVSPropertyOp9
 70
     1
102
RTVSPropertyOp10
 70
     1
102
RTVSPropertyOp11
 70
     1
102
RTVSPropertyOp12
 70
     1
102
RTVSPropertyOp13
 70
     1
102
RTVSPropertyOp14
 70
     1
102
RTVSPropertyOp15
 70
     1
102
RTVSPropertyOp16
 70
     1
102
RTVSPropertyOp17
 70
     1
102
RTVSPropertyOp18
 70
     1
102
RTVSPropertyOp19
 70
     1
102
RTVSPropertyOp20
 70
     1
102
RTVSPropertyOp21
 70
     1
102
RTVSPropertyOp22
 70
     1
102
RTVSPropertyOp23
 70
     1
102
RTVSPropertyOp24
 70
     1
102
RTVSPropertyOp25
 70
     1
102
RTVSPropertyOp26
 70
     1
102
RTVSPropertyOp27
 70
     1
102
RTVSPropertyOp28
 70
     1
102
RTVSPropertyOp29
 70
     1
102
RTVSPropertyOp30
 70
     1
102
RTVSPropertyOp31
 70
     1
102
RTVSPropertyOp32
 70
     1
102
RTVSPropertyOp33
 70
     1
102
RTVSPropertyOp34
 70
     1
102
RTVSPropertyOp35
 70
     1
102
RTVSPropertyOp36
 70
     1
102
RTVSPropertyOp37
 70
     1
102
RTVSPropertyOp38
 70
     1
102
RTVSPropertyOp39
 70
     1
102
RTVSPropertyOp40
 70
     1
102
RTVSPropertyOp41
 70
     1
102
RTVSPropertyOp42
 70
     1
102
RTVSPropertyOp43
 70
     1
102
RTVSPropertyOp44
 70
     1
102
RTVSPropertyOp45
 70
     1
102
RTVSPropertyOp46
 70
     1
102
RTVSPropertyOp47
 70
     1
102
RTVSPropertyOp48
 70
     1
102
RTVSPropertyOp49
 70
     1
102
RTVSPropertyOp50
 70
     1
102
RTVSPropertyOp51
 70
     0
102
RTVSPropertyOp52
 70
     0
102
RTVSPropertyOp53
 70
     1
102
RTVSPropertyOp54
 70
     1
102
RTVSPropertyOp55
 70
     1
102
RTVSPropertyOp56
 70
     1
102
RTVSPropertyOp57
 70
     1
102
RTVSPropertyOp58
 70
     1
102
RTVSPropertyOp59
 70
     1
102
RTVSPropertyOp60
 70
     1
102
RTVSPropertyOp61
 70
     1
102
RTVSPropertyOp62
 70
     1
  0
XRECORD
  5
828
102
{ACAD_REACTORS
330
827
102
}
330
827
100
AcDbXrecord
280
     1
102
RTVSPost2010Prop28
280
     0
102
RTVSPost2010PropOp28
 70
     1
102
RTVSPost2010Prop29
280
     1
102
RTVSPost2010PropOp29
 70
     1
102
RTVSPost2010Prop30
280
     1
102
RTVSPost2010PropOp30
 70
     1
102
RTVSPost2010Prop31
280
     0
102
RTVSPost2010PropOp31
 70
     1
102
RTVSPost2010Prop32
280
     0
102
RTVSPost2010PropOp32
 70
     1
102
RTVSPost2010Prop33
280
     0
102
RTVSPost2010PropOp33
 70
     1
102
RTVSPost2010Prop34
280
     0
102
RTVSPost2010PropOp34
 70
     1
102
RTVSPost2010Prop35
280
     0
102
RTVSPost2010PropOp35
 70
     1
102
RTVSPost2010Prop36
280
     0
102
RTVSPost2010PropOp36
 70
     1
102
RTVSPost2010Prop37
 90
       50
102
RTVSPost2010PropOp37
 70
     1
102
RTVSPost2010Prop38
140
0.0
102
RTVSPost2010PropOp38
 70
     1
102
RTVSPost2010Prop39
140
1.0
102
RTVSPost2010PropOp39
 70
     1
102
RTVSPost2010Prop40
 90
        0
102
RTVSPost2010PropOp40
 70
     1
102
RTVSPost2010Prop41ColorIndex
 90
       18
102
RTVSPost2010Prop41ColorRGB
 90
        0
102
RTVSPost2010PropOp41
 70
     1
102
RTVSPost2010Prop42
 90
       50
102
RTVSPost2010PropOp42
 70
     1
102
RTVSPost2010Prop43
 90
        3
102
RTVSPost2010PropOp43
 70
     1
102
RTVSPost2010Prop44ColorIndex
 90
        5
102
RTVSPost2010Prop44ColorRGB
 90
      255
102
RTVSPost2010PropOp44
 70
     1
102
RTVSPost2010Prop45
280
     0
102
RTVSPost2010PropOp45
 70
     1
102
RTVSPost2010Prop46
 90
       50
102
RTVSPost2010PropOp46
 70
     1
102
RTVSPost2010Prop47
 90
       50
102
RTVSPost2010PropOp47
 70
     1
102
RTVSPost2010Prop48
 90
       50
102
RTVSPost2010PropOp48
 70
     1
102
RTVSPost2010Prop49
280
     0
102
RTVSPost2010PropOp49
 70
     1
102
RTVSPost2010Prop50
 90
       50
102
RTVSPost2010PropOp50
 70
     1
102
RTVSPost2010Prop51ColorIndex
 90
      256
102
RTVSPost2010Prop51ColorRGB
 90
-16777216
102
RTVSPost2010PropOp51
 70
     0
102
RTVSPost2010Prop52
140
1.0
102
RTVSPost2010PropOp52
 70
     0
102
RTVSPost2010Prop53
 90
        2
102
RTVSPost2010PropOp53
 70
     1
102
RTVSPost2010Prop54
  1
strokes_ogs.tif
102
RTVSPost2010PropOp54
 70
     1
102
RTVSPost2010Prop55
280
     0
102
RTVSPost2010PropOp55
 70
     1
102
RTVSPost2010Prop56
140
1.0
102
RTVSPost2010PropOp56
 70
     1
102
RTVSPost2010Prop57
140
1.0
102
RTVSPost2010PropOp57
 70
     1
102
RTVSPropertyOp0
 70
     1
102
RTVSPropertyOp1
 70
     1
102
RTVSPropertyOp2
 70
     1
102
RTVSPropertyOp3
 70
     1
102
RTVSPropertyOp4
 70
     1
102
RTVSPropertyOp5
 70
     1
102
RTVSPropertyOp6
 70
     1
102
RTVSPropertyOp7
 70
     1
102
RTVSPropertyOp8
 70
     1
102
RTVSPropertyOp9
 70
     1
102
RTVSPropertyOp10
 70
     1
102
RTVSPropertyOp11
 70
     1
102
RTVSPropertyOp12
 70
     1
102
RTVSPropertyOp13
 70
     1
102
RTVSPropertyOp14
 70
     1
102
RTVSPropertyOp15
 70
     1
102
RTVSPropertyOp16
 70
     1
102
RTVSPropertyOp17
 70
     1
102
RTVSPropertyOp18
 70
     1
102
RTVSPropertyOp19
 70
     1
102
RTVSPropertyOp20
 70
     1
102
RTVSPropertyOp21
 70
     1
102
RTVSPropertyOp22
 70
     1
102
RTVSPropertyOp23
 70
     1
102
RTVSPropertyOp24
 70
     1
102
RTVSPropertyOp25
 70
     1
102
RTVSPropertyOp26
 70
     1
102
RTVSPropertyOp27
 70
     1
102
RTVSPropertyOp28
 70
     1
102
RTVSPropertyOp29
 70
     1
102
RTVSPropertyOp30
 70
     1
102
RTVSPropertyOp31
 70
     1
102
RTVSPropertyOp32
 70
     1
102
RTVSPropertyOp33
 70
     1
102
RTVSPropertyOp34
 70
     1
102
RTVSPropertyOp35
 70
     1
102
RTVSPropertyOp36
 70
     1
102
RTVSPropertyOp37
 70
     1
102
RTVSPropertyOp38
 70
     1
102
RTVSPropertyOp39
 70
     1
102
RTVSPropertyOp40
 70
     1
102
RTVSPropertyOp41
 70
     1
102
RTVSPropertyOp42
 70
     1
102
RTVSPropertyOp43
 70
     1
102
RTVSPropertyOp44
 70
     1
102
RTVSPropertyOp45
 70
     1
102
RTVSPropertyOp46
 70
     1
102
RTVSPropertyOp47
 70
     1
102
RTVSPropertyOp48
 70
     1
102
RTVSPropertyOp49
 70
     1
102
RTVSPropertyOp50
 70
     1
102
RTVSPropertyOp51
 70
     0
102
RTVSPropertyOp52
 70
     0
102
RTVSPropertyOp53
 70
     1
102
RTVSPropertyOp54
 70
     1
102
RTVSPropertyOp55
 70
     1
102
RTVSPropertyOp56
 70
     1
102
RTVSPropertyOp57
 70
     1
102
RTVSPropertyOp58
 70
     1
102
RTVSPropertyOp59
 70
     1
102
RTVSPropertyOp60
 70
     1
102
RTVSPropertyOp61
 70
     1
102
RTVSPropertyOp62
 70
     1
  0
XRECORD
  5
82A
102
{ACAD_REACTORS
330
829
102
}
330
829
100
AcDbXrecord
280
     1
102
RTVSPost2010Prop28
280
     0
102
RTVSPost2010PropOp28
 70
     1
102
RTVSPost2010Prop29
280
     1
102
RTVSPost2010PropOp29
 70
     1
102
RTVSPost2010Prop30
280
     1
102
RTVSPost2010PropOp30
 70
     1
102
RTVSPost2010Prop31
280
     0
102
RTVSPost2010PropOp31
 70
     1
102
RTVSPost2010Prop32
280
     0
102
RTVSPost2010PropOp32
 70
     1
102
RTVSPost2010Prop33
280
     0
102
RTVSPost2010PropOp33
 70
     1
102
RTVSPost2010Prop34
280
     0
102
RTVSPost2010PropOp34
 70
     1
102
RTVSPost2010Prop35
280
     0
102
RTVSPost2010PropOp35
 70
     1
102
RTVSPost2010Prop36
280
     0
102
RTVSPost2010PropOp36
 70
     1
102
RTVSPost2010Prop37
 90
       50
102
RTVSPost2010PropOp37
 70
     1
102
RTVSPost2010Prop38
140
0.0
102
RTVSPost2010PropOp38
 70
     1
102
RTVSPost2010Prop39
140
1.0
102
RTVSPost2010PropOp39
 70
     1
102
RTVSPost2010Prop40
 90
        0
102
RTVSPost2010PropOp40
 70
     1
102
RTVSPost2010Prop41ColorIndex
 90
       18
102
RTVSPost2010Prop41ColorRGB
 90
        0
102
RTVSPost2010PropOp41
 70
     1
102
RTVSPost2010Prop42
 90
       50
102
RTVSPost2010PropOp42
 70
     1
102
RTVSPost2010Prop43
 90
        3
102
RTVSPost2010PropOp43
 70
     1
102
RTVSPost2010Prop44ColorIndex
 90
        5
102
RTVSPost2010Prop44ColorRGB
 90
      255
102
RTVSPost2010PropOp44
 70
     1
102
RTVSPost2010Prop45
280
     0
102
RTVSPost2010PropOp45
 70
     1
102
RTVSPost2010Prop46
 90
       50
102
RTVSPost2010PropOp46
 70
     1
102
RTVSPost2010Prop47
 90
       50
102
RTVSPost2010PropOp47
 70
     1
102
RTVSPost2010Prop48
 90
       50
102
RTVSPost2010PropOp48
 70
     1
102
RTVSPost2010Prop49
280
     0
102
RTVSPost2010PropOp49
 70
     1
102
RTVSPost2010Prop50
 90
       50
102
RTVSPost2010PropOp50
 70
     1
102
RTVSPost2010Prop51ColorIndex
 90
      256
102
RTVSPost2010Prop51ColorRGB
 90
-16777216
102
RTVSPost2010PropOp51
 70
     0
102
RTVSPost2010Prop52
140
1.0
102
RTVSPost2010PropOp52
 70
     0
102
RTVSPost2010Prop53
 90
        2
102
RTVSPost2010PropOp53
 70
     1
102
RTVSPost2010Prop54
  1
strokes_ogs.tif
102
RTVSPost2010PropOp54
 70
     1
102
RTVSPost2010Prop55
280
     0
102
RTVSPost2010PropOp55
 70
     1
102
RTVSPost2010Prop56
140
1.0
102
RTVSPost2010PropOp56
 70
     1
102
RTVSPost2010Prop57
140
1.0
102
RTVSPost2010PropOp57
 70
     1
102
RTVSPropertyOp0
 70
     1
102
RTVSPropertyOp1
 70
     1
102
RTVSPropertyOp2
 70
     1
102
RTVSPropertyOp3
 70
     1
102
RTVSPropertyOp4
 70
     1
102
RTVSPropertyOp5
 70
     1
102
RTVSPropertyOp6
 70
     1
102
RTVSPropertyOp7
 70
     1
102
RTVSPropertyOp8
 70
     1
102
RTVSPropertyOp9
 70
     1
102
RTVSPropertyOp10
 70
     1
102
RTVSPropertyOp11
 70
     1
102
RTVSPropertyOp12
 70
     1
102
RTVSPropertyOp13
 70
     1
102
RTVSPropertyOp14
 70
     1
102
RTVSPropertyOp15
 70
     1
102
RTVSPropertyOp16
 70
     1
102
RTVSPropertyOp17
 70
     1
102
RTVSPropertyOp18
 70
     1
102
RTVSPropertyOp19
 70
     1
102
RTVSPropertyOp20
 70
     1
102
RTVSPropertyOp21
 70
     1
102
RTVSPropertyOp22
 70
     1
102
RTVSPropertyOp23
 70
     1
102
RTVSPropertyOp24
 70
     1
102
RTVSPropertyOp25
 70
     1
102
RTVSPropertyOp26
 70
     1
102
RTVSPropertyOp27
 70
     1
102
RTVSPropertyOp28
 70
     1
102
RTVSPropertyOp29
 70
     1
102
RTVSPropertyOp30
 70
     1
102
RTVSPropertyOp31
 70
     1
102
RTVSPropertyOp32
 70
     1
102
RTVSPropertyOp33
 70
     1
102
RTVSPropertyOp34
 70
     1
102
RTVSPropertyOp35
 70
     1
102
RTVSPropertyOp36
 70
     1
102
RTVSPropertyOp37
 70
     1
102
RTVSPropertyOp38
 70
     1
102
RTVSPropertyOp39
 70
     1
102
RTVSPropertyOp40
 70
     1
102
RTVSPropertyOp41
 70
     1
102
RTVSPropertyOp42
 70
     1
102
RTVSPropertyOp43
 70
     1
102
RTVSPropertyOp44
 70
     1
102
RTVSPropertyOp45
 70
     1
102
RTVSPropertyOp46
 70
     1
102
RTVSPropertyOp47
 70
     1
102
RTVSPropertyOp48
 70
     1
102
RTVSPropertyOp49
 70
     1
102
RTVSPropertyOp50
 70
     1
102
RTVSPropertyOp51
 70
     0
102
RTVSPropertyOp52
 70
     0
102
RTVSPropertyOp53
 70
     1
102
RTVSPropertyOp54
 70
     1
102
RTVSPropertyOp55
 70
     1
102
RTVSPropertyOp56
 70
     1
102
RTVSPropertyOp57
 70
     1
102
RTVSPropertyOp58
 70
     1
102
RTVSPropertyOp59
 70
     1
102
RTVSPropertyOp60
 70
     1
102
RTVSPropertyOp61
 70
     1
102
RTVSPropertyOp62
 70
     1
  0
XRECORD
  5
82C
102
{ACAD_REACTORS
330
82B
102
}
330
82B
100
AcDbXrecord
280
     1
102
RTVSPost2010Prop28
280
     0
102
RTVSPost2010PropOp28
 70
     1
102
RTVSPost2010Prop29
280
     1
102
RTVSPost2010PropOp29
 70
     1
102
RTVSPost2010Prop30
280
     1
102
RTVSPost2010PropOp30
 70
     1
102
RTVSPost2010Prop31
280
     0
102
RTVSPost2010PropOp31
 70
     1
102
RTVSPost2010Prop32
280
     0
102
RTVSPost2010PropOp32
 70
     1
102
RTVSPost2010Prop33
280
     0
102
RTVSPost2010PropOp33
 70
     1
102
RTVSPost2010Prop34
280
     0
102
RTVSPost2010PropOp34
 70
     1
102
RTVSPost2010Prop35
280
     0
102
RTVSPost2010PropOp35
 70
     1
102
RTVSPost2010Prop36
280
     0
102
RTVSPost2010PropOp36
 70
     1
102
RTVSPost2010Prop37
 90
       50
102
RTVSPost2010PropOp37
 70
     1
102
RTVSPost2010Prop38
140
0.0
102
RTVSPost2010PropOp38
 70
     1
102
RTVSPost2010Prop39
140
1.0
102
RTVSPost2010PropOp39
 70
     1
102
RTVSPost2010Prop40
 90
        0
102
RTVSPost2010PropOp40
 70
     1
102
RTVSPost2010Prop41ColorIndex
 90
       18
102
RTVSPost2010Prop41ColorRGB
 90
        0
102
RTVSPost2010PropOp41
 70
     1
102
RTVSPost2010Prop42
 90
       50
102
RTVSPost2010PropOp42
 70
     1
102
RTVSPost2010Prop43
 90
        3
102
RTVSPost2010PropOp43
 70
     1
102
RTVSPost2010Prop44ColorIndex
 90
        5
102
RTVSPost2010Prop44ColorRGB
 90
      255
102
RTVSPost2010PropOp44
 70
     1
102
RTVSPost2010Prop45
280
     0
102
RTVSPost2010PropOp45
 70
     1
102
RTVSPost2010Prop46
 90
       50
102
RTVSPost2010PropOp46
 70
     1
102
RTVSPost2010Prop47
 90
       50
102
RTVSPost2010PropOp47
 70
     1
102
RTVSPost2010Prop48
 90
       50
102
RTVSPost2010PropOp48
 70
     1
102
RTVSPost2010Prop49
280
     0
102
RTVSPost2010PropOp49
 70
     1
102
RTVSPost2010Prop50
 90
       50
102
RTVSPost2010PropOp50
 70
     1
102
RTVSPost2010Prop51ColorIndex
 90
      256
102
RTVSPost2010Prop51ColorRGB
 90
-16777216
102
RTVSPost2010PropOp51
 70
     0
102
RTVSPost2010Prop52
140
1.0
102
RTVSPost2010PropOp52
 70
     0
102
RTVSPost2010Prop53
 90
        2
102
RTVSPost2010PropOp53
 70
     1
102
RTVSPost2010Prop54
  1
strokes_ogs.tif
102
RTVSPost2010PropOp54
 70
     1
102
RTVSPost2010Prop55
280
     0
102
RTVSPost2010PropOp55
 70
     1
102
RTVSPost2010Prop56
140
1.0
102
RTVSPost2010PropOp56
 70
     1
102
RTVSPost2010Prop57
140
1.0
102
RTVSPost2010PropOp57
 70
     1
102
RTVSPropertyOp0
 70
     1
102
RTVSPropertyOp1
 70
     1
102
RTVSPropertyOp2
 70
     1
102
RTVSPropertyOp3
 70
     1
102
RTVSPropertyOp4
 70
     1
102
RTVSPropertyOp5
 70
     1
102
RTVSPropertyOp6
 70
     1
102
RTVSPropertyOp7
 70
     1
102
RTVSPropertyOp8
 70
     1
102
RTVSPropertyOp9
 70
     1
102
RTVSPropertyOp10
 70
     1
102
RTVSPropertyOp11
 70
     1
102
RTVSPropertyOp12
 70
     1
102
RTVSPropertyOp13
 70
     1
102
RTVSPropertyOp14
 70
     1
102
RTVSPropertyOp15
 70
     1
102
RTVSPropertyOp16
 70
     1
102
RTVSPropertyOp17
 70
     1
102
RTVSPropertyOp18
 70
     1
102
RTVSPropertyOp19
 70
     1
102
RTVSPropertyOp20
 70
     1
102
RTVSPropertyOp21
 70
     1
102
RTVSPropertyOp22
 70
     1
102
RTVSPropertyOp23
 70
     1
102
RTVSPropertyOp24
 70
     1
102
RTVSPropertyOp25
 70
     1
102
RTVSPropertyOp26
 70
     1
102
RTVSPropertyOp27
 70
     1
102
RTVSPropertyOp28
 70
     1
102
RTVSPropertyOp29
 70
     1
102
RTVSPropertyOp30
 70
     1
102
RTVSPropertyOp31
 70
     1
102
RTVSPropertyOp32
 70
     1
102
RTVSPropertyOp33
 70
     1
102
RTVSPropertyOp34
 70
     1
102
RTVSPropertyOp35
 70
     1
102
RTVSPropertyOp36
 70
     1
102
RTVSPropertyOp37
 70
     1
102
RTVSPropertyOp38
 70
     1
102
RTVSPropertyOp39
 70
     1
102
RTVSPropertyOp40
 70
     1
102
RTVSPropertyOp41
 70
     1
102
RTVSPropertyOp42
 70
     1
102
RTVSPropertyOp43
 70
     1
102
RTVSPropertyOp44
 70
     1
102
RTVSPropertyOp45
 70
     1
102
RTVSPropertyOp46
 70
     1
102
RTVSPropertyOp47
 70
     1
102
RTVSPropertyOp48
 70
     1
102
RTVSPropertyOp49
 70
     1
102
RTVSPropertyOp50
 70
     1
102
RTVSPropertyOp51
 70
     0
102
RTVSPropertyOp52
 70
     0
102
RTVSPropertyOp53
 70
     1
102
RTVSPropertyOp54
 70
     1
102
RTVSPropertyOp55
 70
     1
102
RTVSPropertyOp56
 70
     1
102
RTVSPropertyOp57
 70
     1
102
RTVSPropertyOp58
 70
     1
102
RTVSPropertyOp59
 70
     1
102
RTVSPropertyOp60
 70
     1
102
RTVSPropertyOp61
 70
     1
102
RTVSPropertyOp62
 70
     1
  0
XRECORD
  5
82E
102
{ACAD_REACTORS
330
82D
102
}
330
82D
100
AcDbXrecord
280
     1
102
RTVSPost2010Prop28
280
     0
102
RTVSPost2010PropOp28
 70
     1
102
RTVSPost2010Prop29
280
     1
102
RTVSPost2010PropOp29
 70
     1
102
RTVSPost2010Prop30
280
     1
102
RTVSPost2010PropOp30
 70
     1
102
RTVSPost2010Prop31
280
     0
102
RTVSPost2010PropOp31
 70
     1
102
RTVSPost2010Prop32
280
     0
102
RTVSPost2010PropOp32
 70
     1
102
RTVSPost2010Prop33
280
     0
102
RTVSPost2010PropOp33
 70
     1
102
RTVSPost2010Prop34
280
     0
102
RTVSPost2010PropOp34
 70
     1
102
RTVSPost2010Prop35
280
     0
102
RTVSPost2010PropOp35
 70
     1
102
RTVSPost2010Prop36
280
     0
102
RTVSPost2010PropOp36
 70
     1
102
RTVSPost2010Prop37
 90
       50
102
RTVSPost2010PropOp37
 70
     1
102
RTVSPost2010Prop38
140
0.0
102
RTVSPost2010PropOp38
 70
     1
102
RTVSPost2010Prop39
140
1.0
102
RTVSPost2010PropOp39
 70
     1
102
RTVSPost2010Prop40
 90
        0
102
RTVSPost2010PropOp40
 70
     1
102
RTVSPost2010Prop41ColorIndex
 90
       18
102
RTVSPost2010Prop41ColorRGB
 90
        0
102
RTVSPost2010PropOp41
 70
     1
102
RTVSPost2010Prop42
 90
       50
102
RTVSPost2010PropOp42
 70
     1
102
RTVSPost2010Prop43
 90
        3
102
RTVSPost2010PropOp43
 70
     1
102
RTVSPost2010Prop44ColorIndex
 90
        5
102
RTVSPost2010Prop44ColorRGB
 90
      255
102
RTVSPost2010PropOp44
 70
     1
102
RTVSPost2010Prop45
280
     0
102
RTVSPost2010PropOp45
 70
     1
102
RTVSPost2010Prop46
 90
       50
102
RTVSPost2010PropOp46
 70
     1
102
RTVSPost2010Prop47
 90
       50
102
RTVSPost2010PropOp47
 70
     1
102
RTVSPost2010Prop48
 90
       50
102
RTVSPost2010PropOp48
 70
     1
102
RTVSPost2010Prop49
280
     0
102
RTVSPost2010PropOp49
 70
     1
102
RTVSPost2010Prop50
 90
       50
102
RTVSPost2010PropOp50
 70
     1
102
RTVSPost2010Prop51ColorIndex
 90
      256
102
RTVSPost2010Prop51ColorRGB
 90
-16777216
102
RTVSPost2010PropOp51
 70
     0
102
RTVSPost2010Prop52
140
1.0
102
RTVSPost2010PropOp52
 70
     0
102
RTVSPost2010Prop53
 90
        2
102
RTVSPost2010PropOp53
 70
     1
102
RTVSPost2010Prop54
  1
strokes_ogs.tif
102
RTVSPost2010PropOp54
 70
     1
102
RTVSPost2010Prop55
280
     0
102
RTVSPost2010PropOp55
 70
     1
102
RTVSPost2010Prop56
140
1.0
102
RTVSPost2010PropOp56
 70
     1
102
RTVSPost2010Prop57
140
1.0
102
RTVSPost2010PropOp57
 70
     1
102
RTVSPropertyOp0
 70
     1
102
RTVSPropertyOp1
 70
     1
102
RTVSPropertyOp2
 70
     1
102
RTVSPropertyOp3
 70
     1
102
RTVSPropertyOp4
 70
     1
102
RTVSPropertyOp5
 70
     1
102
RTVSPropertyOp6
 70
     1
102
RTVSPropertyOp7
 70
     1
102
RTVSPropertyOp8
 70
     1
102
RTVSPropertyOp9
 70
     1
102
RTVSPropertyOp10
 70
     1
102
RTVSPropertyOp11
 70
     1
102
RTVSPropertyOp12
 70
     1
102
RTVSPropertyOp13
 70
     1
102
RTVSPropertyOp14
 70
     1
102
RTVSPropertyOp15
 70
     1
102
RTVSPropertyOp16
 70
     1
102
RTVSPropertyOp17
 70
     1
102
RTVSPropertyOp18
 70
     1
102
RTVSPropertyOp19
 70
     1
102
RTVSPropertyOp20
 70
     1
102
RTVSPropertyOp21
 70
     1
102
RTVSPropertyOp22
 70
     1
102
RTVSPropertyOp23
 70
     1
102
RTVSPropertyOp24
 70
     1
102
RTVSPropertyOp25
 70
     1
102
RTVSPropertyOp26
 70
     1
102
RTVSPropertyOp27
 70
     1
102
RTVSPropertyOp28
 70
     1
102
RTVSPropertyOp29
 70
     1
102
RTVSPropertyOp30
 70
     1
102
RTVSPropertyOp31
 70
     1
102
RTVSPropertyOp32
 70
     1
102
RTVSPropertyOp33
 70
     1
102
RTVSPropertyOp34
 70
     1
102
RTVSPropertyOp35
 70
     1
102
RTVSPropertyOp36
 70
     1
102
RTVSPropertyOp37
 70
     1
102
RTVSPropertyOp38
 70
     1
102
RTVSPropertyOp39
 70
     1
102
RTVSPropertyOp40
 70
     1
102
RTVSPropertyOp41
 70
     1
102
RTVSPropertyOp42
 70
     1
102
RTVSPropertyOp43
 70
     1
102
RTVSPropertyOp44
 70
     1
102
RTVSPropertyOp45
 70
     1
102
RTVSPropertyOp46
 70
     1
102
RTVSPropertyOp47
 70
     1
102
RTVSPropertyOp48
 70
     1
102
RTVSPropertyOp49
 70
     1
102
RTVSPropertyOp50
 70
     1
102
RTVSPropertyOp51
 70
     0
102
RTVSPropertyOp52
 70
     0
102
RTVSPropertyOp53
 70
     1
102
RTVSPropertyOp54
 70
     1
102
RTVSPropertyOp55
 70
     1
102
RTVSPropertyOp56
 70
     1
102
RTVSPropertyOp57
 70
     1
102
RTVSPropertyOp58
 70
     1
102
RTVSPropertyOp59
 70
     1
102
RTVSPropertyOp60
 70
     1
102
RTVSPropertyOp61
 70
     1
102
RTVSPropertyOp62
 70
     1
  0
XRECORD
  5
836
102
{ACAD_REACTORS
330
835
102
}
330
835
100
AcDbXrecord
280
     1
102
RTVSPost2010Prop28
280
     0
102
RTVSPost2010PropOp28
 70
     1
102
RTVSPost2010Prop29
280
     1
102
RTVSPost2010PropOp29
 70
     1
102
RTVSPost2010Prop30
280
     1
102
RTVSPost2010PropOp30
 70
     1
102
RTVSPost2010Prop31
280
     0
102
RTVSPost2010PropOp31
 70
     1
102
RTVSPost2010Prop32
280
     0
102
RTVSPost2010PropOp32
 70
     1
102
RTVSPost2010Prop33
280
     0
102
RTVSPost2010PropOp33
 70
     1
102
RTVSPost2010Prop34
280
     0
102
RTVSPost2010PropOp34
 70
     1
102
RTVSPost2010Prop35
280
     0
102
RTVSPost2010PropOp35
 70
     1
102
RTVSPost2010Prop36
280
     0
102
RTVSPost2010PropOp36
 70
     1
102
RTVSPost2010Prop37
 90
       50
102
RTVSPost2010PropOp37
 70
     1
102
RTVSPost2010Prop38
140
0.0
102
RTVSPost2010PropOp38
 70
     1
102
RTVSPost2010Prop39
140
1.0
102
RTVSPost2010PropOp39
 70
     1
102
RTVSPost2010Prop40
 90
        0
102
RTVSPost2010PropOp40
 70
     1
102
RTVSPost2010Prop41ColorIndex
 90
       18
102
RTVSPost2010Prop41ColorRGB
 90
        0
102
RTVSPost2010PropOp41
 70
     1
102
RTVSPost2010Prop42
 90
       50
102
RTVSPost2010PropOp42
 70
     1
102
RTVSPost2010Prop43
 90
        3
102
RTVSPost2010PropOp43
 70
     1
102
RTVSPost2010Prop44ColorIndex
 90
        5
102
RTVSPost2010Prop44ColorRGB
 90
      255
102
RTVSPost2010PropOp44
 70
     1
102
RTVSPost2010Prop45
280
     0
102
RTVSPost2010PropOp45
 70
     1
102
RTVSPost2010Prop46
 90
       50
102
RTVSPost2010PropOp46
 70
     1
102
RTVSPost2010Prop47
 90
       50
102
RTVSPost2010PropOp47
 70
     1
102
RTVSPost2010Prop48
 90
       50
102
RTVSPost2010PropOp48
 70
     1
102
RTVSPost2010Prop49
280
     0
102
RTVSPost2010PropOp49
 70
     1
102
RTVSPost2010Prop50
 90
       50
102
RTVSPost2010PropOp50
 70
     1
102
RTVSPost2010Prop51ColorIndex
 90
      256
102
RTVSPost2010Prop51ColorRGB
 90
-16777216
102
RTVSPost2010PropOp51
 70
     0
102
RTVSPost2010Prop52
140
1.0
102
RTVSPost2010PropOp52
 70
     0
102
RTVSPost2010Prop53
 90
        2
102
RTVSPost2010PropOp53
 70
     1
102
RTVSPost2010Prop54
  1
strokes_ogs.tif
102
RTVSPost2010PropOp54
 70
     1
102
RTVSPost2010Prop55
280
     0
102
RTVSPost2010PropOp55
 70
     1
102
RTVSPost2010Prop56
140
1.0
102
RTVSPost2010PropOp56
 70
     1
102
RTVSPost2010Prop57
140
1.0
102
RTVSPost2010PropOp57
 70
     1
102
RTVSPropertyOp0
 70
     1
102
RTVSPropertyOp1
 70
     1
102
RTVSPropertyOp2
 70
     1
102
RTVSPropertyOp3
 70
     1
102
RTVSPropertyOp4
 70
     1
102
RTVSPropertyOp5
 70
     1
102
RTVSPropertyOp6
 70
     1
102
RTVSPropertyOp7
 70
     1
102
RTVSPropertyOp8
 70
     1
102
RTVSPropertyOp9
 70
     1
102
RTVSPropertyOp10
 70
     1
102
RTVSPropertyOp11
 70
     1
102
RTVSPropertyOp12
 70
     1
102
RTVSPropertyOp13
 70
     1
102
RTVSPropertyOp14
 70
     1
102
RTVSPropertyOp15
 70
     1
102
RTVSPropertyOp16
 70
     1
102
RTVSPropertyOp17
 70
     1
102
RTVSPropertyOp18
 70
     1
102
RTVSPropertyOp19
 70
     1
102
RTVSPropertyOp20
 70
     1
102
RTVSPropertyOp21
 70
     1
102
RTVSPropertyOp22
 70
     1
102
RTVSPropertyOp23
 70
     1
102
RTVSPropertyOp24
 70
     1
102
RTVSPropertyOp25
 70
     1
102
RTVSPropertyOp26
 70
     1
102
RTVSPropertyOp27
 70
     1
102
RTVSPropertyOp28
 70
     1
102
RTVSPropertyOp29
 70
     1
102
RTVSPropertyOp30
 70
     1
102
RTVSPropertyOp31
 70
     1
102
RTVSPropertyOp32
 70
     1
102
RTVSPropertyOp33
 70
     1
102
RTVSPropertyOp34
 70
     1
102
RTVSPropertyOp35
 70
     1
102
RTVSPropertyOp36
 70
     1
102
RTVSPropertyOp37
 70
     1
102
RTVSPropertyOp38
 70
     1
102
RTVSPropertyOp39
 70
     1
102
RTVSPropertyOp40
 70
     1
102
RTVSPropertyOp41
 70
     1
102
RTVSPropertyOp42
 70
     1
102
RTVSPropertyOp43
 70
     1
102
RTVSPropertyOp44
 70
     1
102
RTVSPropertyOp45
 70
     1
102
RTVSPropertyOp46
 70
     1
102
RTVSPropertyOp47
 70
     1
102
RTVSPropertyOp48
 70
     1
102
RTVSPropertyOp49
 70
     1
102
RTVSPropertyOp50
 70
     1
102
RTVSPropertyOp51
 70
     0
102
RTVSPropertyOp52
 70
     0
102
RTVSPropertyOp53
 70
     1
102
RTVSPropertyOp54
 70
     1
102
RTVSPropertyOp55
 70
     1
102
RTVSPropertyOp56
 70
     1
102
RTVSPropertyOp57
 70
     1
102
RTVSPropertyOp58
 70
     1
102
RTVSPropertyOp59
 70
     1
102
RTVSPropertyOp60
 70
     1
102
RTVSPropertyOp61
 70
     1
102
RTVSPropertyOp62
 70
     1
  0
XRECORD
  5
852
102
{ACAD_REACTORS
330
851
102
}
330
851
100
AcDbXrecord
280
     1
102
RTVSPost2010Prop28
280
     0
102
RTVSPost2010PropOp28
 70
     0
102
RTVSPost2010Prop29
280
     1
102
RTVSPost2010PropOp29
 70
     0
102
RTVSPost2010Prop30
280
     1
102
RTVSPost2010PropOp30
 70
     0
102
RTVSPost2010Prop31
280
     0
102
RTVSPost2010PropOp31
 70
     0
102
RTVSPost2010Prop32
280
     0
102
RTVSPost2010PropOp32
 70
     0
102
RTVSPost2010Prop33
280
     0
102
RTVSPost2010PropOp33
 70
     0
102
RTVSPost2010Prop34
280
     0
102
RTVSPost2010PropOp34
 70
     0
102
RTVSPost2010Prop35
280
     0
102
RTVSPost2010PropOp35
 70
     0
102
RTVSPost2010Prop36
280
     0
102
RTVSPost2010PropOp36
 70
     0
102
RTVSPost2010Prop37
 90
       50
102
RTVSPost2010PropOp37
 70
     0
102
RTVSPost2010Prop38
140
0.0
102
RTVSPost2010PropOp38
 70
     0
102
RTVSPost2010Prop39
140
1.0
102
RTVSPost2010PropOp39
 70
     0
102
RTVSPost2010Prop40
 90
        0
102
RTVSPost2010PropOp40
 70
     0
102
RTVSPost2010Prop41ColorIndex
 90
       18
102
RTVSPost2010Prop41ColorRGB
 90
        0
102
RTVSPost2010PropOp41
 70
     0
102
RTVSPost2010Prop42
 90
       50
102
RTVSPost2010PropOp42
 70
     0
102
RTVSPost2010Prop43
 90
        3
102
RTVSPost2010PropOp43
 70
     0
102
RTVSPost2010Prop44ColorIndex
 90
        5
102
RTVSPost2010Prop44ColorRGB
 90
      255
102
RTVSPost2010PropOp44
 70
     0
102
RTVSPost2010Prop45
280
     0
102
RTVSPost2010PropOp45
 70
     0
102
RTVSPost2010Prop46
 90
       50
102
RTVSPost2010PropOp46
 70
     0
102
RTVSPost2010Prop47
 90
       50
102
RTVSPost2010PropOp47
 70
     0
102
RTVSPost2010Prop48
 90
       50
102
RTVSPost2010PropOp48
 70
     0
102
RTVSPost2010Prop49
280
     0
102
RTVSPost2010PropOp49
 70
     0
102
RTVSPost2010Prop50
 90
       50
102
RTVSPost2010PropOp50
 70
     0
102
RTVSPost2010Prop51ColorIndex
 90
      256
102
RTVSPost2010Prop51ColorRGB
 90
-16777216
102
RTVSPost2010PropOp51
 70
     0
102
RTVSPost2010Prop52
140
1.0
102
RTVSPost2010PropOp52
 70
     0
102
RTVSPost2010Prop53
 90
        2
102
RTVSPost2010PropOp53
 70
     0
102
RTVSPost2010Prop54
  1
strokes_ogs.tif
102
RTVSPost2010PropOp54
 70
     0
102
RTVSPost2010Prop55
280
     0
102
RTVSPost2010PropOp55
 70
     0
102
RTVSPost2010Prop56
140
1.0
102
RTVSPost2010PropOp56
 70
     0
102
RTVSPost2010Prop57
140
1.0
102
RTVSPost2010PropOp57
 70
     0
102
RTVSPropertyOp0
 70
     0
102
RTVSPropertyOp1
 70
     0
102
RTVSPropertyOp2
 70
     0
102
RTVSPropertyOp3
 70
     0
102
RTVSPropertyOp4
 70
     0
102
RTVSPropertyOp5
 70
     0
102
RTVSPropertyOp6
 70
     0
102
RTVSPropertyOp7
 70
     0
102
RTVSPropertyOp8
 70
     0
102
RTVSPropertyOp9
 70
     0
102
RTVSPropertyOp10
 70
     0
102
RTVSPropertyOp11
 70
     0
102
RTVSPropertyOp12
 70
     0
102
RTVSPropertyOp13
 70
     0
102
RTVSPropertyOp14
 70
     2
102
RTVSPropertyOp15
 70
     0
102
RTVSPropertyOp16
 70
     0
102
RTVSPropertyOp17
 70
     0
102
RTVSPropertyOp18
 70
     0
102
RTVSPropertyOp19
 70
     0
102
RTVSPropertyOp20
 70
     0
102
RTVSPropertyOp21
 70
     0
102
RTVSPropertyOp22
 70
     0
102
RTVSPropertyOp23
 70
     0
102
RTVSPropertyOp24
 70
     0
102
RTVSPropertyOp25
 70
     0
102
RTVSPropertyOp26
 70
     0
102
RTVSPropertyOp27
 70
     0
102
RTVSPropertyOp28
 70
     0
102
RTVSPropertyOp29
 70
     0
102
RTVSPropertyOp30
 70
     0
102
RTVSPropertyOp31
 70
     0
102
RTVSPropertyOp32
 70
     0
102
RTVSPropertyOp33
 70
     0
102
RTVSPropertyOp34
 70
     0
102
RTVSPropertyOp35
 70
     0
102
RTVSPropertyOp36
 70
     0
102
RTVSPropertyOp37
 70
     0
102
RTVSPropertyOp38
 70
     0
102
RTVSPropertyOp39
 70
     0
102
RTVSPropertyOp40
 70
     0
102
RTVSPropertyOp41
 70
     0
102
RTVSPropertyOp42
 70
     0
102
RTVSPropertyOp43
 70
     0
102
RTVSPropertyOp44
 70
     0
102
RTVSPropertyOp45
 70
     0
102
RTVSPropertyOp46
 70
     0
102
RTVSPropertyOp47
 70
     0
102
RTVSPropertyOp48
 70
     0
102
RTVSPropertyOp49
 70
     0
102
RTVSPropertyOp50
 70
     0
102
RTVSPropertyOp51
 70
     0
102
RTVSPropertyOp52
 70
     0
102
RTVSPropertyOp53
 70
     0
102
RTVSPropertyOp54
 70
     0
102
RTVSPropertyOp55
 70
     0
102
RTVSPropertyOp56
 70
     0
102
RTVSPropertyOp57
 70
     0
102
RTVSPropertyOp58
 70
     0
102
RTVSPropertyOp59
 70
     0
102
RTVSPropertyOp60
 70
     0
102
RTVSPropertyOp61
 70
     0
102
RTVSPropertyOp62
 70
     0
  0
XRECORD
  5
842
102
{ACAD_REACTORS
330
841
102
}
330
841
100
AcDbXrecord
280
     1
102
RTVSPost2010Prop28
280
     0
102
RTVSPost2010PropOp28
 70
     1
102
RTVSPost2010Prop29
280
     1
102
RTVSPost2010PropOp29
 70
     1
102
RTVSPost2010Prop30
280
     1
102
RTVSPost2010PropOp30
 70
     1
102
RTVSPost2010Prop31
280
     0
102
RTVSPost2010PropOp31
 70
     1
102
RTVSPost2010Prop32
280
     0
102
RTVSPost2010PropOp32
 70
     1
102
RTVSPost2010Prop33
280
     0
102
RTVSPost2010PropOp33
 70
     1
102
RTVSPost2010Prop34
280
     0
102
RTVSPost2010PropOp34
 70
     1
102
RTVSPost2010Prop35
280
     0
102
RTVSPost2010PropOp35
 70
     1
102
RTVSPost2010Prop36
280
     0
102
RTVSPost2010PropOp36
 70
     1
102
RTVSPost2010Prop37
 90
       50
102
RTVSPost2010PropOp37
 70
     1
102
RTVSPost2010Prop38
140
0.0
102
RTVSPost2010PropOp38
 70
     1
102
RTVSPost2010Prop39
140
1.0
102
RTVSPost2010PropOp39
 70
     1
102
RTVSPost2010Prop40
 90
        0
102
RTVSPost2010PropOp40
 70
     1
102
RTVSPost2010Prop41ColorIndex
 90
       18
102
RTVSPost2010Prop41ColorRGB
 90
        0
102
RTVSPost2010PropOp41
 70
     1
102
RTVSPost2010Prop42
 90
       50
102
RTVSPost2010PropOp42
 70
     1
102
RTVSPost2010Prop43
 90
        3
102
RTVSPost2010PropOp43
 70
     1
102
RTVSPost2010Prop44ColorIndex
 90
        5
102
RTVSPost2010Prop44ColorRGB
 90
      255
102
RTVSPost2010PropOp44
 70
     1
102
RTVSPost2010Prop45
280
     0
102
RTVSPost2010PropOp45
 70
     1
102
RTVSPost2010Prop46
 90
       50
102
RTVSPost2010PropOp46
 70
     1
102
RTVSPost2010Prop47
 90
       50
102
RTVSPost2010PropOp47
 70
     1
102
RTVSPost2010Prop48
 90
       50
102
RTVSPost2010PropOp48
 70
     1
102
RTVSPost2010Prop49
280
     0
102
RTVSPost2010PropOp49
 70
     1
102
RTVSPost2010Prop50
 90
       50
102
RTVSPost2010PropOp50
 70
     1
102
RTVSPost2010Prop51ColorIndex
 90
      256
102
RTVSPost2010Prop51ColorRGB
 90
-16777216
102
RTVSPost2010PropOp51
 70
     0
102
RTVSPost2010Prop52
140
1.0
102
RTVSPost2010PropOp52
 70
     0
102
RTVSPost2010Prop53
 90
        2
102
RTVSPost2010PropOp53
 70
     1
102
RTVSPost2010Prop54
  1
strokes_ogs.tif
102
RTVSPost2010PropOp54
 70
     1
102
RTVSPost2010Prop55
280
     0
102
RTVSPost2010PropOp55
 70
     1
102
RTVSPost2010Prop56
140
1.0
102
RTVSPost2010PropOp56
 70
     1
102
RTVSPost2010Prop57
140
1.0
102
RTVSPost2010PropOp57
 70
     1
102
RTVSPropertyOp0
 70
     1
102
RTVSPropertyOp1
 70
     1
102
RTVSPropertyOp2
 70
     1
102
RTVSPropertyOp3
 70
     1
102
RTVSPropertyOp4
 70
     1
102
RTVSPropertyOp5
 70
     1
102
RTVSPropertyOp6
 70
     1
102
RTVSPropertyOp7
 70
     1
102
RTVSPropertyOp8
 70
     1
102
RTVSPropertyOp9
 70
     1
102
RTVSPropertyOp10
 70
     1
102
RTVSPropertyOp11
 70
     1
102
RTVSPropertyOp12
 70
     1
102
RTVSPropertyOp13
 70
     1
102
RTVSPropertyOp14
 70
     1
102
RTVSPropertyOp15
 70
     1
102
RTVSPropertyOp16
 70
     1
102
RTVSPropertyOp17
 70
     1
102
RTVSPropertyOp18
 70
     1
102
RTVSPropertyOp19
 70
     1
102
RTVSPropertyOp20
 70
     1
102
RTVSPropertyOp21
 70
     1
102
RTVSPropertyOp22
 70
     1
102
RTVSPropertyOp23
 70
     1
102
RTVSPropertyOp24
 70
     1
102
RTVSPropertyOp25
 70
     1
102
RTVSPropertyOp26
 70
     1
102
RTVSPropertyOp27
 70
     1
102
RTVSPropertyOp28
 70
     1
102
RTVSPropertyOp29
 70
     1
102
RTVSPropertyOp30
 70
     1
102
RTVSPropertyOp31
 70
     1
102
RTVSPropertyOp32
 70
     1
102
RTVSPropertyOp33
 70
     1
102
RTVSPropertyOp34
 70
     1
102
RTVSPropertyOp35
 70
     1
102
RTVSPropertyOp36
 70
     1
102
RTVSPropertyOp37
 70
     1
102
RTVSPropertyOp38
 70
     1
102
RTVSPropertyOp39
 70
     1
102
RTVSPropertyOp40
 70
     1
102
RTVSPropertyOp41
 70
     1
102
RTVSPropertyOp42
 70
     1
102
RTVSPropertyOp43
 70
     1
102
RTVSPropertyOp44
 70
     1
102
RTVSPropertyOp45
 70
     1
102
RTVSPropertyOp46
 70
     1
102
RTVSPropertyOp47
 70
     1
102
RTVSPropertyOp48
 70
     1
102
RTVSPropertyOp49
 70
     1
102
RTVSPropertyOp50
 70
     1
102
RTVSPropertyOp51
 70
     0
102
RTVSPropertyOp52
 70
     0
102
RTVSPropertyOp53
 70
     1
102
RTVSPropertyOp54
 70
     1
102
RTVSPropertyOp55
 70
     1
102
RTVSPropertyOp56
 70
     1
102
RTVSPropertyOp57
 70
     1
102
RTVSPropertyOp58
 70
     1
102
RTVSPropertyOp59
 70
     1
102
RTVSPropertyOp60
 70
     1
102
RTVSPropertyOp61
 70
     1
102
RTVSPropertyOp62
 70
     1
  0
XRECORD
  5
854
102
{ACAD_REACTORS
330
853
102
}
330
853
100
AcDbXrecord
280
     1
102
RTVSPost2010Prop28
280
     0
102
RTVSPost2010PropOp28
 70
     0
102
RTVSPost2010Prop29
280
     1
102
RTVSPost2010PropOp29
 70
     0
102
RTVSPost2010Prop30
280
     1
102
RTVSPost2010PropOp30
 70
     0
102
RTVSPost2010Prop31
280
     0
102
RTVSPost2010PropOp31
 70
     0
102
RTVSPost2010Prop32
280
     0
102
RTVSPost2010PropOp32
 70
     0
102
RTVSPost2010Prop33
280
     0
102
RTVSPost2010PropOp33
 70
     0
102
RTVSPost2010Prop34
280
     0
102
RTVSPost2010PropOp34
 70
     0
102
RTVSPost2010Prop35
280
     0
102
RTVSPost2010PropOp35
 70
     0
102
RTVSPost2010Prop36
280
     0
102
RTVSPost2010PropOp36
 70
     0
102
RTVSPost2010Prop37
 90
       50
102
RTVSPost2010PropOp37
 70
     0
102
RTVSPost2010Prop38
140
0.0
102
RTVSPost2010PropOp38
 70
     0
102
RTVSPost2010Prop39
140
1.0
102
RTVSPost2010PropOp39
 70
     0
102
RTVSPost2010Prop40
 90
        0
102
RTVSPost2010PropOp40
 70
     0
102
RTVSPost2010Prop41ColorIndex
 90
       18
102
RTVSPost2010Prop41ColorRGB
 90
        0
102
RTVSPost2010PropOp41
 70
     0
102
RTVSPost2010Prop42
 90
       50
102
RTVSPost2010PropOp42
 70
     0
102
RTVSPost2010Prop43
 90
        3
102
RTVSPost2010PropOp43
 70
     0
102
RTVSPost2010Prop44ColorIndex
 90
        5
102
RTVSPost2010Prop44ColorRGB
 90
      255
102
RTVSPost2010PropOp44
 70
     0
102
RTVSPost2010Prop45
280
     0
102
RTVSPost2010PropOp45
 70
     0
102
RTVSPost2010Prop46
 90
       50
102
RTVSPost2010PropOp46
 70
     0
102
RTVSPost2010Prop47
 90
       50
102
RTVSPost2010PropOp47
 70
     0
102
RTVSPost2010Prop48
 90
       50
102
RTVSPost2010PropOp48
 70
     0
102
RTVSPost2010Prop49
280
     0
102
RTVSPost2010PropOp49
 70
     0
102
RTVSPost2010Prop50
 90
       50
102
RTVSPost2010PropOp50
 70
     0
102
RTVSPost2010Prop51ColorIndex
 90
      256
102
RTVSPost2010Prop51ColorRGB
 90
-16777216
102
RTVSPost2010PropOp51
 70
     0
102
RTVSPost2010Prop52
140
1.0
102
RTVSPost2010PropOp52
 70
     0
102
RTVSPost2010Prop53
 90
        2
102
RTVSPost2010PropOp53
 70
     0
102
RTVSPost2010Prop54
  1
strokes_ogs.tif
102
RTVSPost2010PropOp54
 70
     0
102
RTVSPost2010Prop55
280
     0
102
RTVSPost2010PropOp55
 70
     0
102
RTVSPost2010Prop56
140
1.0
102
RTVSPost2010PropOp56
 70
     0
102
RTVSPost2010Prop57
140
1.0
102
RTVSPost2010PropOp57
 70
     0
102
RTVSPropertyOp0
 70
     0
102
RTVSPropertyOp1
 70
     0
102
RTVSPropertyOp2
 70
     0
102
RTVSPropertyOp3
 70
     0
102
RTVSPropertyOp4
 70
     0
102
RTVSPropertyOp5
 70
     0
102
RTVSPropertyOp6
 70
     0
102
RTVSPropertyOp7
 70
     0
102
RTVSPropertyOp8
 70
     0
102
RTVSPropertyOp9
 70
     0
102
RTVSPropertyOp10
 70
     0
102
RTVSPropertyOp11
 70
     0
102
RTVSPropertyOp12
 70
     0
102
RTVSPropertyOp13
 70
     0
102
RTVSPropertyOp14
 70
     2
102
RTVSPropertyOp15
 70
     0
102
RTVSPropertyOp16
 70
     0
102
RTVSPropertyOp17
 70
     0
102
RTVSPropertyOp18
 70
     0
102
RTVSPropertyOp19
 70
     0
102
RTVSPropertyOp20
 70
     0
102
RTVSPropertyOp21
 70
     0
102
RTVSPropertyOp22
 70
     0
102
RTVSPropertyOp23
 70
     0
102
RTVSPropertyOp24
 70
     0
102
RTVSPropertyOp25
 70
     0
102
RTVSPropertyOp26
 70
     0
102
RTVSPropertyOp27
 70
     0
102
RTVSPropertyOp28
 70
     0
102
RTVSPropertyOp29
 70
     0
102
RTVSPropertyOp30
 70
     0
102
RTVSPropertyOp31
 70
     0
102
RTVSPropertyOp32
 70
     0
102
RTVSPropertyOp33
 70
     0
102
RTVSPropertyOp34
 70
     0
102
RTVSPropertyOp35
 70
     0
102
RTVSPropertyOp36
 70
     0
102
RTVSPropertyOp37
 70
     0
102
RTVSPropertyOp38
 70
     0
102
RTVSPropertyOp39
 70
     0
102
RTVSPropertyOp40
 70
     0
102
RTVSPropertyOp41
 70
     0
102
RTVSPropertyOp42
 70
     0
102
RTVSPropertyOp43
 70
     0
102
RTVSPropertyOp44
 70
     0
102
RTVSPropertyOp45
 70
     0
102
RTVSPropertyOp46
 70
     0
102
RTVSPropertyOp47
 70
     0
102
RTVSPropertyOp48
 70
     0
102
RTVSPropertyOp49
 70
     0
102
RTVSPropertyOp50
 70
     0
102
RTVSPropertyOp51
 70
     0
102
RTVSPropertyOp52
 70
     0
102
RTVSPropertyOp53
 70
     0
102
RTVSPropertyOp54
 70
     0
102
RTVSPropertyOp55
 70
     0
102
RTVSPropertyOp56
 70
     0
102
RTVSPropertyOp57
 70
     0
102
RTVSPropertyOp58
 70
     0
102
RTVSPropertyOp59
 70
     0
102
RTVSPropertyOp60
 70
     0
102
RTVSPropertyOp61
 70
     0
102
RTVSPropertyOp62
 70
     0
  0
XRECORD
  5
83A
102
{ACAD_REACTORS
330
839
102
}
330
839
100
AcDbXrecord
280
     1
102
RTVSPost2010Prop28
280
     0
102
RTVSPost2010PropOp28
 70
     1
102
RTVSPost2010Prop29
280
     1
102
RTVSPost2010PropOp29
 70
     1
102
RTVSPost2010Prop30
280
     1
102
RTVSPost2010PropOp30
 70
     1
102
RTVSPost2010Prop31
280
     0
102
RTVSPost2010PropOp31
 70
     1
102
RTVSPost2010Prop32
280
     0
102
RTVSPost2010PropOp32
 70
     1
102
RTVSPost2010Prop33
280
     0
102
RTVSPost2010PropOp33
 70
     1
102
RTVSPost2010Prop34
280
     0
102
RTVSPost2010PropOp34
 70
     1
102
RTVSPost2010Prop35
280
     0
102
RTVSPost2010PropOp35
 70
     1
102
RTVSPost2010Prop36
280
     0
102
RTVSPost2010PropOp36
 70
     1
102
RTVSPost2010Prop37
 90
       50
102
RTVSPost2010PropOp37
 70
     1
102
RTVSPost2010Prop38
140
0.0
102
RTVSPost2010PropOp38
 70
     1
102
RTVSPost2010Prop39
140
1.0
102
RTVSPost2010PropOp39
 70
     1
102
RTVSPost2010Prop40
 90
        0
102
RTVSPost2010PropOp40
 70
     1
102
RTVSPost2010Prop41ColorIndex
 90
       18
102
RTVSPost2010Prop41ColorRGB
 90
        0
102
RTVSPost2010PropOp41
 70
     1
102
RTVSPost2010Prop42
 90
       50
102
RTVSPost2010PropOp42
 70
     1
102
RTVSPost2010Prop43
 90
        3
102
RTVSPost2010PropOp43
 70
     1
102
RTVSPost2010Prop44ColorIndex
 90
        5
102
RTVSPost2010Prop44ColorRGB
 90
      255
102
RTVSPost2010PropOp44
 70
     1
102
RTVSPost2010Prop45
280
     0
102
RTVSPost2010PropOp45
 70
     1
102
RTVSPost2010Prop46
 90
       50
102
RTVSPost2010PropOp46
 70
     1
102
RTVSPost2010Prop47
 90
       50
102
RTVSPost2010PropOp47
 70
     1
102
RTVSPost2010Prop48
 90
       50
102
RTVSPost2010PropOp48
 70
     1
102
RTVSPost2010Prop49
280
     0
102
RTVSPost2010PropOp49
 70
     1
102
RTVSPost2010Prop50
 90
       50
102
RTVSPost2010PropOp50
 70
     1
102
RTVSPost2010Prop51ColorIndex
 90
      256
102
RTVSPost2010Prop51ColorRGB
 90
-16777216
102
RTVSPost2010PropOp51
 70
     0
102
RTVSPost2010Prop52
140
1.0
102
RTVSPost2010PropOp52
 70
     0
102
RTVSPost2010Prop53
 90
        2
102
RTVSPost2010PropOp53
 70
     1
102
RTVSPost2010Prop54
  1
strokes_ogs.tif
102
RTVSPost2010PropOp54
 70
     1
102
RTVSPost2010Prop55
280
     0
102
RTVSPost2010PropOp55
 70
     1
102
RTVSPost2010Prop56
140
1.0
102
RTVSPost2010PropOp56
 70
     1
102
RTVSPost2010Prop57
140
1.0
102
RTVSPost2010PropOp57
 70
     1
102
RTVSPropertyOp0
 70
     1
102
RTVSPropertyOp1
 70
     1
102
RTVSPropertyOp2
 70
     1
102
RTVSPropertyOp3
 70
     1
102
RTVSPropertyOp4
 70
     1
102
RTVSPropertyOp5
 70
     1
102
RTVSPropertyOp6
 70
     1
102
RTVSPropertyOp7
 70
     1
102
RTVSPropertyOp8
 70
     1
102
RTVSPropertyOp9
 70
     1
102
RTVSPropertyOp10
 70
     1
102
RTVSPropertyOp11
 70
     1
102
RTVSPropertyOp12
 70
     1
102
RTVSPropertyOp13
 70
     1
102
RTVSPropertyOp14
 70
     1
102
RTVSPropertyOp15
 70
     1
102
RTVSPropertyOp16
 70
     1
102
RTVSPropertyOp17
 70
     1
102
RTVSPropertyOp18
 70
     1
102
RTVSPropertyOp19
 70
     1
102
RTVSPropertyOp20
 70
     1
102
RTVSPropertyOp21
 70
     1
102
RTVSPropertyOp22
 70
     1
102
RTVSPropertyOp23
 70
     1
102
RTVSPropertyOp24
 70
     1
102
RTVSPropertyOp25
 70
     1
102
RTVSPropertyOp26
 70
     1
102
RTVSPropertyOp27
 70
     1
102
RTVSPropertyOp28
 70
     1
102
RTVSPropertyOp29
 70
     1
102
RTVSPropertyOp30
 70
     1
102
RTVSPropertyOp31
 70
     1
102
RTVSPropertyOp32
 70
     1
102
RTVSPropertyOp33
 70
     1
102
RTVSPropertyOp34
 70
     1
102
RTVSPropertyOp35
 70
     1
102
RTVSPropertyOp36
 70
     1
102
RTVSPropertyOp37
 70
     1
102
RTVSPropertyOp38
 70
     1
102
RTVSPropertyOp39
 70
     1
102
RTVSPropertyOp40
 70
     1
102
RTVSPropertyOp41
 70
     1
102
RTVSPropertyOp42
 70
     1
102
RTVSPropertyOp43
 70
     1
102
RTVSPropertyOp44
 70
     1
102
RTVSPropertyOp45
 70
     1
102
RTVSPropertyOp46
 70
     1
102
RTVSPropertyOp47
 70
     1
102
RTVSPropertyOp48
 70
     1
102
RTVSPropertyOp49
 70
     1
102
RTVSPropertyOp50
 70
     1
102
RTVSPropertyOp51
 70
     0
102
RTVSPropertyOp52
 70
     0
102
RTVSPropertyOp53
 70
     1
102
RTVSPropertyOp54
 70
     1
102
RTVSPropertyOp55
 70
     1
102
RTVSPropertyOp56
 70
     1
102
RTVSPropertyOp57
 70
     1
102
RTVSPropertyOp58
 70
     1
102
RTVSPropertyOp59
 70
     1
102
RTVSPropertyOp60
 70
     1
102
RTVSPropertyOp61
 70
     1
102
RTVSPropertyOp62
 70
     1
  0
XRECORD
  5
850
102
{ACAD_REACTORS
330
84F
102
}
330
84F
100
AcDbXrecord
280
     1
102
RTVSPost2010Prop28
280
     0
102
RTVSPost2010PropOp28
 70
     1
102
RTVSPost2010Prop29
280
     1
102
RTVSPost2010PropOp29
 70
     1
102
RTVSPost2010Prop30
280
     1
102
RTVSPost2010PropOp30
 70
     1
102
RTVSPost2010Prop31
280
     0
102
RTVSPost2010PropOp31
 70
     1
102
RTVSPost2010Prop32
280
     0
102
RTVSPost2010PropOp32
 70
     1
102
RTVSPost2010Prop33
280
     0
102
RTVSPost2010PropOp33
 70
     1
102
RTVSPost2010Prop34
280
     0
102
RTVSPost2010PropOp34
 70
     1
102
RTVSPost2010Prop35
280
     0
102
RTVSPost2010PropOp35
 70
     1
102
RTVSPost2010Prop36
280
     0
102
RTVSPost2010PropOp36
 70
     1
102
RTVSPost2010Prop37
 90
       50
102
RTVSPost2010PropOp37
 70
     1
102
RTVSPost2010Prop38
140
0.0
102
RTVSPost2010PropOp38
 70
     1
102
RTVSPost2010Prop39
140
1.0
102
RTVSPost2010PropOp39
 70
     1
102
RTVSPost2010Prop40
 90
        0
102
RTVSPost2010PropOp40
 70
     1
102
RTVSPost2010Prop41ColorIndex
 90
       18
102
RTVSPost2010Prop41ColorRGB
 90
        0
102
RTVSPost2010PropOp41
 70
     1
102
RTVSPost2010Prop42
 90
       50
102
RTVSPost2010PropOp42
 70
     1
102
RTVSPost2010Prop43
 90
        3
102
RTVSPost2010PropOp43
 70
     1
102
RTVSPost2010Prop44ColorIndex
 90
        5
102
RTVSPost2010Prop44ColorRGB
 90
      255
102
RTVSPost2010PropOp44
 70
     1
102
RTVSPost2010Prop45
280
     0
102
RTVSPost2010PropOp45
 70
     1
102
RTVSPost2010Prop46
 90
       50
102
RTVSPost2010PropOp46
 70
     1
102
RTVSPost2010Prop47
 90
       50
102
RTVSPost2010PropOp47
 70
     1
102
RTVSPost2010Prop48
 90
       50
102
RTVSPost2010PropOp48
 70
     1
102
RTVSPost2010Prop49
280
     0
102
RTVSPost2010PropOp49
 70
     1
102
RTVSPost2010Prop50
 90
       50
102
RTVSPost2010PropOp50
 70
     1
102
RTVSPost2010Prop51ColorIndex
 90
      256
102
RTVSPost2010Prop51ColorRGB
 90
-16777216
102
RTVSPost2010PropOp51
 70
     0
102
RTVSPost2010Prop52
140
1.0
102
RTVSPost2010PropOp52
 70
     0
102
RTVSPost2010Prop53
 90
        2
102
RTVSPost2010PropOp53
 70
     1
102
RTVSPost2010Prop54
  1
strokes_ogs.tif
102
RTVSPost2010PropOp54
 70
     1
102
RTVSPost2010Prop55
280
     0
102
RTVSPost2010PropOp55
 70
     1
102
RTVSPost2010Prop56
140
1.0
102
RTVSPost2010PropOp56
 70
     1
102
RTVSPost2010Prop57
140
1.0
102
RTVSPost2010PropOp57
 70
     1
102
RTVSPropertyOp0
 70
     1
102
RTVSPropertyOp1
 70
     1
102
RTVSPropertyOp2
 70
     1
102
RTVSPropertyOp3
 70
     1
102
RTVSPropertyOp4
 70
     1
102
RTVSPropertyOp5
 70
     1
102
RTVSPropertyOp6
 70
     1
102
RTVSPropertyOp7
 70
     1
102
RTVSPropertyOp8
 70
     1
102
RTVSPropertyOp9
 70
     1
102
RTVSPropertyOp10
 70
     1
102
RTVSPropertyOp11
 70
     1
102
RTVSPropertyOp12
 70
     1
102
RTVSPropertyOp13
 70
     1
102
RTVSPropertyOp14
 70
     1
102
RTVSPropertyOp15
 70
     1
102
RTVSPropertyOp16
 70
     1
102
RTVSPropertyOp17
 70
     1
102
RTVSPropertyOp18
 70
     1
102
RTVSPropertyOp19
 70
     1
102
RTVSPropertyOp20
 70
     1
102
RTVSPropertyOp21
 70
     1
102
RTVSPropertyOp22
 70
     1
102
RTVSPropertyOp23
 70
     1
102
RTVSPropertyOp24
 70
     1
102
RTVSPropertyOp25
 70
     1
102
RTVSPropertyOp26
 70
     1
102
RTVSPropertyOp27
 70
     1
102
RTVSPropertyOp28
 70
     1
102
RTVSPropertyOp29
 70
     1
102
RTVSPropertyOp30
 70
     1
102
RTVSPropertyOp31
 70
     1
102
RTVSPropertyOp32
 70
     1
102
RTVSPropertyOp33
 70
     1
102
RTVSPropertyOp34
 70
     1
102
RTVSPropertyOp35
 70
     1
102
RTVSPropertyOp36
 70
     1
102
RTVSPropertyOp37
 70
     1
102
RTVSPropertyOp38
 70
     1
102
RTVSPropertyOp39
 70
     1
102
RTVSPropertyOp40
 70
     1
102
RTVSPropertyOp41
 70
     1
102
RTVSPropertyOp42
 70
     1
102
RTVSPropertyOp43
 70
     1
102
RTVSPropertyOp44
 70
     1
102
RTVSPropertyOp45
 70
     1
102
RTVSPropertyOp46
 70
     1
102
RTVSPropertyOp47
 70
     1
102
RTVSPropertyOp48
 70
     1
102
RTVSPropertyOp49
 70
     1
102
RTVSPropertyOp50
 70
     1
102
RTVSPropertyOp51
 70
     0
102
RTVSPropertyOp52
 70
     0
102
RTVSPropertyOp53
 70
     1
102
RTVSPropertyOp54
 70
     1
102
RTVSPropertyOp55
 70
     1
102
RTVSPropertyOp56
 70
     1
102
RTVSPropertyOp57
 70
     1
102
RTVSPropertyOp58
 70
     1
102
RTVSPropertyOp59
 70
     1
102
RTVSPropertyOp60
 70
     1
102
RTVSPropertyOp61
 70
     1
102
RTVSPropertyOp62
 70
     1
  0
XRECORD
  5
84E
102
{ACAD_REACTORS
330
84D
102
}
330
84D
100
AcDbXrecord
280
     1
102
RTVSPost2010Prop28
280
     0
102
RTVSPost2010PropOp28
 70
     1
102
RTVSPost2010Prop29
280
     1
102
RTVSPost2010PropOp29
 70
     1
102
RTVSPost2010Prop30
280
     1
102
RTVSPost2010PropOp30
 70
     1
102
RTVSPost2010Prop31
280
     0
102
RTVSPost2010PropOp31
 70
     1
102
RTVSPost2010Prop32
280
     0
102
RTVSPost2010PropOp32
 70
     1
102
RTVSPost2010Prop33
280
     0
102
RTVSPost2010PropOp33
 70
     1
102
RTVSPost2010Prop34
280
     0
102
RTVSPost2010PropOp34
 70
     1
102
RTVSPost2010Prop35
280
     0
102
RTVSPost2010PropOp35
 70
     1
102
RTVSPost2010Prop36
280
     0
102
RTVSPost2010PropOp36
 70
     1
102
RTVSPost2010Prop37
 90
       50
102
RTVSPost2010PropOp37
 70
     1
102
RTVSPost2010Prop38
140
0.0
102
RTVSPost2010PropOp38
 70
     1
102
RTVSPost2010Prop39
140
1.0
102
RTVSPost2010PropOp39
 70
     1
102
RTVSPost2010Prop40
 90
        0
102
RTVSPost2010PropOp40
 70
     1
102
RTVSPost2010Prop41ColorIndex
 90
       18
102
RTVSPost2010Prop41ColorRGB
 90
        0
102
RTVSPost2010PropOp41
 70
     1
102
RTVSPost2010Prop42
 90
       50
102
RTVSPost2010PropOp42
 70
     1
102
RTVSPost2010Prop43
 90
        3
102
RTVSPost2010PropOp43
 70
     1
102
RTVSPost2010Prop44ColorIndex
 90
        5
102
RTVSPost2010Prop44ColorRGB
 90
      255
102
RTVSPost2010PropOp44
 70
     1
102
RTVSPost2010Prop45
280
     0
102
RTVSPost2010PropOp45
 70
     1
102
RTVSPost2010Prop46
 90
       50
102
RTVSPost2010PropOp46
 70
     1
102
RTVSPost2010Prop47
 90
       50
102
RTVSPost2010PropOp47
 70
     1
102
RTVSPost2010Prop48
 90
       50
102
RTVSPost2010PropOp48
 70
     1
102
RTVSPost2010Prop49
280
     0
102
RTVSPost2010PropOp49
 70
     1
102
RTVSPost2010Prop50
 90
       50
102
RTVSPost2010PropOp50
 70
     1
102
RTVSPost2010Prop51ColorIndex
 90
      256
102
RTVSPost2010Prop51ColorRGB
 90
-16777216
102
RTVSPost2010PropOp51
 70
     0
102
RTVSPost2010Prop52
140
1.0
102
RTVSPost2010PropOp52
 70
     0
102
RTVSPost2010Prop53
 90
        2
102
RTVSPost2010PropOp53
 70
     1
102
RTVSPost2010Prop54
  1
strokes_ogs.tif
102
RTVSPost2010PropOp54
 70
     1
102
RTVSPost2010Prop55
280
     0
102
RTVSPost2010PropOp55
 70
     1
102
RTVSPost2010Prop56
140
1.0
102
RTVSPost2010PropOp56
 70
     1
102
RTVSPost2010Prop57
140
1.0
102
RTVSPost2010PropOp57
 70
     1
102
RTVSPropertyOp0
 70
     1
102
RTVSPropertyOp1
 70
     1
102
RTVSPropertyOp2
 70
     1
102
RTVSPropertyOp3
 70
     1
102
RTVSPropertyOp4
 70
     1
102
RTVSPropertyOp5
 70
     1
102
RTVSPropertyOp6
 70
     1
102
RTVSPropertyOp7
 70
     1
102
RTVSPropertyOp8
 70
     1
102
RTVSPropertyOp9
 70
     1
102
RTVSPropertyOp10
 70
     1
102
RTVSPropertyOp11
 70
     1
102
RTVSPropertyOp12
 70
     1
102
RTVSPropertyOp13
 70
     1
102
RTVSPropertyOp14
 70
     1
102
RTVSPropertyOp15
 70
     1
102
RTVSPropertyOp16
 70
     1
102
RTVSPropertyOp17
 70
     1
102
RTVSPropertyOp18
 70
     1
102
RTVSPropertyOp19
 70
     1
102
RTVSPropertyOp20
 70
     1
102
RTVSPropertyOp21
 70
     1
102
RTVSPropertyOp22
 70
     1
102
RTVSPropertyOp23
 70
     1
102
RTVSPropertyOp24
 70
     1
102
RTVSPropertyOp25
 70
     1
102
RTVSPropertyOp26
 70
     1
102
RTVSPropertyOp27
 70
     1
102
RTVSPropertyOp28
 70
     1
102
RTVSPropertyOp29
 70
     1
102
RTVSPropertyOp30
 70
     1
102
RTVSPropertyOp31
 70
     1
102
RTVSPropertyOp32
 70
     1
102
RTVSPropertyOp33
 70
     1
102
RTVSPropertyOp34
 70
     1
102
RTVSPropertyOp35
 70
     1
102
RTVSPropertyOp36
 70
     1
102
RTVSPropertyOp37
 70
     1
102
RTVSPropertyOp38
 70
     1
102
RTVSPropertyOp39
 70
     1
102
RTVSPropertyOp40
 70
     1
102
RTVSPropertyOp41
 70
     1
102
RTVSPropertyOp42
 70
     1
102
RTVSPropertyOp43
 70
     1
102
RTVSPropertyOp44
 70
     1
102
RTVSPropertyOp45
 70
     1
102
RTVSPropertyOp46
 70
     1
102
RTVSPropertyOp47
 70
     1
102
RTVSPropertyOp48
 70
     1
102
RTVSPropertyOp49
 70
     1
102
RTVSPropertyOp50
 70
     1
102
RTVSPropertyOp51
 70
     0
102
RTVSPropertyOp52
 70
     0
102
RTVSPropertyOp53
 70
     1
102
RTVSPropertyOp54
 70
     1
102
RTVSPropertyOp55
 70
     1
102
RTVSPropertyOp56
 70
     1
102
RTVSPropertyOp57
 70
     1
102
RTVSPropertyOp58
 70
     1
102
RTVSPropertyOp59
 70
     1
102
RTVSPropertyOp60
 70
     1
102
RTVSPropertyOp61
 70
     1
102
RTVSPropertyOp62
 70
     1
  0
XRECORD
  5
848
102
{ACAD_REACTORS
330
847
102
}
330
847
100
AcDbXrecord
280
     1
102
RTVSPost2010Prop28
280
     0
102
RTVSPost2010PropOp28
 70
     1
102
RTVSPost2010Prop29
280
     1
102
RTVSPost2010PropOp29
 70
     1
102
RTVSPost2010Prop30
280
     1
102
RTVSPost2010PropOp30
 70
     1
102
RTVSPost2010Prop31
280
     0
102
RTVSPost2010PropOp31
 70
     1
102
RTVSPost2010Prop32
280
     0
102
RTVSPost2010PropOp32
 70
     1
102
RTVSPost2010Prop33
280
     0
102
RTVSPost2010PropOp33
 70
     1
102
RTVSPost2010Prop34
280
     0
102
RTVSPost2010PropOp34
 70
     1
102
RTVSPost2010Prop35
280
     0
102
RTVSPost2010PropOp35
 70
     1
102
RTVSPost2010Prop36
280
     0
102
RTVSPost2010PropOp36
 70
     1
102
RTVSPost2010Prop37
 90
       50
102
RTVSPost2010PropOp37
 70
     1
102
RTVSPost2010Prop38
140
0.0
102
RTVSPost2010PropOp38
 70
     1
102
RTVSPost2010Prop39
140
1.0
102
RTVSPost2010PropOp39
 70
     1
102
RTVSPost2010Prop40
 90
        0
102
RTVSPost2010PropOp40
 70
     1
102
RTVSPost2010Prop41ColorIndex
 90
       18
102
RTVSPost2010Prop41ColorRGB
 90
        0
102
RTVSPost2010PropOp41
 70
     1
102
RTVSPost2010Prop42
 90
       50
102
RTVSPost2010PropOp42
 70
     1
102
RTVSPost2010Prop43
 90
        3
102
RTVSPost2010PropOp43
 70
     1
102
RTVSPost2010Prop44ColorIndex
 90
        5
102
RTVSPost2010Prop44ColorRGB
 90
      255
102
RTVSPost2010PropOp44
 70
     1
102
RTVSPost2010Prop45
280
     0
102
RTVSPost2010PropOp45
 70
     1
102
RTVSPost2010Prop46
 90
       50
102
RTVSPost2010PropOp46
 70
     1
102
RTVSPost2010Prop47
 90
       50
102
RTVSPost2010PropOp47
 70
     1
102
RTVSPost2010Prop48
 90
       50
102
RTVSPost2010PropOp48
 70
     1
102
RTVSPost2010Prop49
280
     0
102
RTVSPost2010PropOp49
 70
     1
102
RTVSPost2010Prop50
 90
       50
102
RTVSPost2010PropOp50
 70
     1
102
RTVSPost2010Prop51ColorIndex
 90
      256
102
RTVSPost2010Prop51ColorRGB
 90
-16777216
102
RTVSPost2010PropOp51
 70
     0
102
RTVSPost2010Prop52
140
1.0
102
RTVSPost2010PropOp52
 70
     0
102
RTVSPost2010Prop53
 90
        2
102
RTVSPost2010PropOp53
 70
     1
102
RTVSPost2010Prop54
  1
strokes_ogs.tif
102
RTVSPost2010PropOp54
 70
     1
102
RTVSPost2010Prop55
280
     0
102
RTVSPost2010PropOp55
 70
     1
102
RTVSPost2010Prop56
140
1.0
102
RTVSPost2010PropOp56
 70
     1
102
RTVSPost2010Prop57
140
1.0
102
RTVSPost2010PropOp57
 70
     1
102
RTVSPropertyOp0
 70
     1
102
RTVSPropertyOp1
 70
     1
102
RTVSPropertyOp2
 70
     1
102
RTVSPropertyOp3
 70
     1
102
RTVSPropertyOp4
 70
     1
102
RTVSPropertyOp5
 70
     1
102
RTVSPropertyOp6
 70
     1
102
RTVSPropertyOp7
 70
     1
102
RTVSPropertyOp8
 70
     1
102
RTVSPropertyOp9
 70
     1
102
RTVSPropertyOp10
 70
     1
102
RTVSPropertyOp11
 70
     1
102
RTVSPropertyOp12
 70
     1
102
RTVSPropertyOp13
 70
     1
102
RTVSPropertyOp14
 70
     1
102
RTVSPropertyOp15
 70
     1
102
RTVSPropertyOp16
 70
     1
102
RTVSPropertyOp17
 70
     1
102
RTVSPropertyOp18
 70
     1
102
RTVSPropertyOp19
 70
     1
102
RTVSPropertyOp20
 70
     1
102
RTVSPropertyOp21
 70
     1
102
RTVSPropertyOp22
 70
     1
102
RTVSPropertyOp23
 70
     1
102
RTVSPropertyOp24
 70
     1
102
RTVSPropertyOp25
 70
     1
102
RTVSPropertyOp26
 70
     1
102
RTVSPropertyOp27
 70
     1
102
RTVSPropertyOp28
 70
     1
102
RTVSPropertyOp29
 70
     1
102
RTVSPropertyOp30
 70
     1
102
RTVSPropertyOp31
 70
     1
102
RTVSPropertyOp32
 70
     1
102
RTVSPropertyOp33
 70
     1
102
RTVSPropertyOp34
 70
     1
102
RTVSPropertyOp35
 70
     1
102
RTVSPropertyOp36
 70
     1
102
RTVSPropertyOp37
 70
     1
102
RTVSPropertyOp38
 70
     1
102
RTVSPropertyOp39
 70
     1
102
RTVSPropertyOp40
 70
     1
102
RTVSPropertyOp41
 70
     1
102
RTVSPropertyOp42
 70
     1
102
RTVSPropertyOp43
 70
     1
102
RTVSPropertyOp44
 70
     1
102
RTVSPropertyOp45
 70
     1
102
RTVSPropertyOp46
 70
     1
102
RTVSPropertyOp47
 70
     1
102
RTVSPropertyOp48
 70
     1
102
RTVSPropertyOp49
 70
     1
102
RTVSPropertyOp50
 70
     1
102
RTVSPropertyOp51
 70
     0
102
RTVSPropertyOp52
 70
     0
102
RTVSPropertyOp53
 70
     1
102
RTVSPropertyOp54
 70
     1
102
RTVSPropertyOp55
 70
     1
102
RTVSPropertyOp56
 70
     1
102
RTVSPropertyOp57
 70
     1
102
RTVSPropertyOp58
 70
     1
102
RTVSPropertyOp59
 70
     1
102
RTVSPropertyOp60
 70
     1
102
RTVSPropertyOp61
 70
     1
102
RTVSPropertyOp62
 70
     1
  0
XRECORD
  5
84A
102
{ACAD_REACTORS
330
849
102
}
330
849
100
AcDbXrecord
280
     1
102
RTVSPost2010Prop28
280
     0
102
RTVSPost2010PropOp28
 70
     1
102
RTVSPost2010Prop29
280
     1
102
RTVSPost2010PropOp29
 70
     1
102
RTVSPost2010Prop30
280
     1
102
RTVSPost2010PropOp30
 70
     1
102
RTVSPost2010Prop31
280
     0
102
RTVSPost2010PropOp31
 70
     1
102
RTVSPost2010Prop32
280
     0
102
RTVSPost2010PropOp32
 70
     1
102
RTVSPost2010Prop33
280
     0
102
RTVSPost2010PropOp33
 70
     1
102
RTVSPost2010Prop34
280
     0
102
RTVSPost2010PropOp34
 70
     1
102
RTVSPost2010Prop35
280
     0
102
RTVSPost2010PropOp35
 70
     1
102
RTVSPost2010Prop36
280
     0
102
RTVSPost2010PropOp36
 70
     1
102
RTVSPost2010Prop37
 90
       50
102
RTVSPost2010PropOp37
 70
     1
102
RTVSPost2010Prop38
140
0.0
102
RTVSPost2010PropOp38
 70
     1
102
RTVSPost2010Prop39
140
1.0
102
RTVSPost2010PropOp39
 70
     1
102
RTVSPost2010Prop40
 90
        0
102
RTVSPost2010PropOp40
 70
     1
102
RTVSPost2010Prop41ColorIndex
 90
       18
102
RTVSPost2010Prop41ColorRGB
 90
        0
102
RTVSPost2010PropOp41
 70
     1
102
RTVSPost2010Prop42
 90
       50
102
RTVSPost2010PropOp42
 70
     1
102
RTVSPost2010Prop43
 90
        3
102
RTVSPost2010PropOp43
 70
     1
102
RTVSPost2010Prop44ColorIndex
 90
        5
102
RTVSPost2010Prop44ColorRGB
 90
      255
102
RTVSPost2010PropOp44
 70
     1
102
RTVSPost2010Prop45
280
     0
102
RTVSPost2010PropOp45
 70
     1
102
RTVSPost2010Prop46
 90
       50
102
RTVSPost2010PropOp46
 70
     1
102
RTVSPost2010Prop47
 90
       50
102
RTVSPost2010PropOp47
 70
     1
102
RTVSPost2010Prop48
 90
       50
102
RTVSPost2010PropOp48
 70
     1
102
RTVSPost2010Prop49
280
     0
102
RTVSPost2010PropOp49
 70
     1
102
RTVSPost2010Prop50
 90
       50
102
RTVSPost2010PropOp50
 70
     1
102
RTVSPost2010Prop51ColorIndex
 90
      256
102
RTVSPost2010Prop51ColorRGB
 90
-16777216
102
RTVSPost2010PropOp51
 70
     0
102
RTVSPost2010Prop52
140
1.0
102
RTVSPost2010PropOp52
 70
     0
102
RTVSPost2010Prop53
 90
        2
102
RTVSPost2010PropOp53
 70
     1
102
RTVSPost2010Prop54
  1
strokes_ogs.tif
102
RTVSPost2010PropOp54
 70
     1
102
RTVSPost2010Prop55
280
     0
102
RTVSPost2010PropOp55
 70
     1
102
RTVSPost2010Prop56
140
1.0
102
RTVSPost2010PropOp56
 70
     1
102
RTVSPost2010Prop57
140
1.0
102
RTVSPost2010PropOp57
 70
     1
102
RTVSPropertyOp0
 70
     1
102
RTVSPropertyOp1
 70
     1
102
RTVSPropertyOp2
 70
     1
102
RTVSPropertyOp3
 70
     1
102
RTVSPropertyOp4
 70
     1
102
RTVSPropertyOp5
 70
     1
102
RTVSPropertyOp6
 70
     1
102
RTVSPropertyOp7
 70
     1
102
RTVSPropertyOp8
 70
     1
102
RTVSPropertyOp9
 70
     1
102
RTVSPropertyOp10
 70
     1
102
RTVSPropertyOp11
 70
     1
102
RTVSPropertyOp12
 70
     1
102
RTVSPropertyOp13
 70
     1
102
RTVSPropertyOp14
 70
     1
102
RTVSPropertyOp15
 70
     1
102
RTVSPropertyOp16
 70
     1
102
RTVSPropertyOp17
 70
     1
102
RTVSPropertyOp18
 70
     1
102
RTVSPropertyOp19
 70
     1
102
RTVSPropertyOp20
 70
     1
102
RTVSPropertyOp21
 70
     1
102
RTVSPropertyOp22
 70
     1
102
RTVSPropertyOp23
 70
     1
102
RTVSPropertyOp24
 70
     1
102
RTVSPropertyOp25
 70
     1
102
RTVSPropertyOp26
 70
     1
102
RTVSPropertyOp27
 70
     1
102
RTVSPropertyOp28
 70
     1
102
RTVSPropertyOp29
 70
     1
102
RTVSPropertyOp30
 70
     1
102
RTVSPropertyOp31
 70
     1
102
RTVSPropertyOp32
 70
     1
102
RTVSPropertyOp33
 70
     1
102
RTVSPropertyOp34
 70
     1
102
RTVSPropertyOp35
 70
     1
102
RTVSPropertyOp36
 70
     1
102
RTVSPropertyOp37
 70
     1
102
RTVSPropertyOp38
 70
     1
102
RTVSPropertyOp39
 70
     1
102
RTVSPropertyOp40
 70
     1
102
RTVSPropertyOp41
 70
     1
102
RTVSPropertyOp42
 70
     1
102
RTVSPropertyOp43
 70
     1
102
RTVSPropertyOp44
 70
     1
102
RTVSPropertyOp45
 70
     1
102
RTVSPropertyOp46
 70
     1
102
RTVSPropertyOp47
 70
     1
102
RTVSPropertyOp48
 70
     1
102
RTVSPropertyOp49
 70
     1
102
RTVSPropertyOp50
 70
     1
102
RTVSPropertyOp51
 70
     0
102
RTVSPropertyOp52
 70
     0
102
RTVSPropertyOp53
 70
     1
102
RTVSPropertyOp54
 70
     1
102
RTVSPropertyOp55
 70
     1
102
RTVSPropertyOp56
 70
     1
102
RTVSPropertyOp57
 70
     1
102
RTVSPropertyOp58
 70
     1
102
RTVSPropertyOp59
 70
     1
102
RTVSPropertyOp60
 70
     1
102
RTVSPropertyOp61
 70
     1
102
RTVSPropertyOp62
 70
     1
  0
XRECORD
  5
840
102
{ACAD_REACTORS
330
83F
102
}
330
83F
100
AcDbXrecord
280
     1
102
RTVSPost2010Prop28
280
     0
102
RTVSPost2010PropOp28
 70
     1
102
RTVSPost2010Prop29
280
     1
102
RTVSPost2010PropOp29
 70
     1
102
RTVSPost2010Prop30
280
     1
102
RTVSPost2010PropOp30
 70
     1
102
RTVSPost2010Prop31
280
     0
102
RTVSPost2010PropOp31
 70
     1
102
RTVSPost2010Prop32
280
     0
102
RTVSPost2010PropOp32
 70
     1
102
RTVSPost2010Prop33
280
     0
102
RTVSPost2010PropOp33
 70
     1
102
RTVSPost2010Prop34
280
     0
102
RTVSPost2010PropOp34
 70
     1
102
RTVSPost2010Prop35
280
     0
102
RTVSPost2010PropOp35
 70
     1
102
RTVSPost2010Prop36
280
     0
102
RTVSPost2010PropOp36
 70
     1
102
RTVSPost2010Prop37
 90
       50
102
RTVSPost2010PropOp37
 70
     1
102
RTVSPost2010Prop38
140
0.0
102
RTVSPost2010PropOp38
 70
     1
102
RTVSPost2010Prop39
140
1.0
102
RTVSPost2010PropOp39
 70
     1
102
RTVSPost2010Prop40
 90
        0
102
RTVSPost2010PropOp40
 70
     1
102
RTVSPost2010Prop41ColorIndex
 90
       18
102
RTVSPost2010Prop41ColorRGB
 90
        0
102
RTVSPost2010PropOp41
 70
     1
102
RTVSPost2010Prop42
 90
       50
102
RTVSPost2010PropOp42
 70
     1
102
RTVSPost2010Prop43
 90
        3
102
RTVSPost2010PropOp43
 70
     1
102
RTVSPost2010Prop44ColorIndex
 90
        5
102
RTVSPost2010Prop44ColorRGB
 90
      255
102
RTVSPost2010PropOp44
 70
     1
102
RTVSPost2010Prop45
280
     0
102
RTVSPost2010PropOp45
 70
     1
102
RTVSPost2010Prop46
 90
       50
102
RTVSPost2010PropOp46
 70
     1
102
RTVSPost2010Prop47
 90
       50
102
RTVSPost2010PropOp47
 70
     1
102
RTVSPost2010Prop48
 90
       50
102
RTVSPost2010PropOp48
 70
     1
102
RTVSPost2010Prop49
280
     0
102
RTVSPost2010PropOp49
 70
     1
102
RTVSPost2010Prop50
 90
       50
102
RTVSPost2010PropOp50
 70
     1
102
RTVSPost2010Prop51ColorIndex
 90
      256
102
RTVSPost2010Prop51ColorRGB
 90
-16777216
102
RTVSPost2010PropOp51
 70
     0
102
RTVSPost2010Prop52
140
1.0
102
RTVSPost2010PropOp52
 70
     0
102
RTVSPost2010Prop53
 90
        2
102
RTVSPost2010PropOp53
 70
     1
102
RTVSPost2010Prop54
  1
strokes_ogs.tif
102
RTVSPost2010PropOp54
 70
     1
102
RTVSPost2010Prop55
280
     0
102
RTVSPost2010PropOp55
 70
     1
102
RTVSPost2010Prop56
140
1.0
102
RTVSPost2010PropOp56
 70
     1
102
RTVSPost2010Prop57
140
1.0
102
RTVSPost2010PropOp57
 70
     1
102
RTVSPropertyOp0
 70
     1
102
RTVSPropertyOp1
 70
     1
102
RTVSPropertyOp2
 70
     1
102
RTVSPropertyOp3
 70
     1
102
RTVSPropertyOp4
 70
     1
102
RTVSPropertyOp5
 70
     1
102
RTVSPropertyOp6
 70
     1
102
RTVSPropertyOp7
 70
     1
102
RTVSPropertyOp8
 70
     1
102
RTVSPropertyOp9
 70
     1
102
RTVSPropertyOp10
 70
     1
102
RTVSPropertyOp11
 70
     1
102
RTVSPropertyOp12
 70
     1
102
RTVSPropertyOp13
 70
     1
102
RTVSPropertyOp14
 70
     1
102
RTVSPropertyOp15
 70
     1
102
RTVSPropertyOp16
 70
     1
102
RTVSPropertyOp17
 70
     1
102
RTVSPropertyOp18
 70
     1
102
RTVSPropertyOp19
 70
     1
102
RTVSPropertyOp20
 70
     1
102
RTVSPropertyOp21
 70
     1
102
RTVSPropertyOp22
 70
     1
102
RTVSPropertyOp23
 70
     1
102
RTVSPropertyOp24
 70
     1
102
RTVSPropertyOp25
 70
     1
102
RTVSPropertyOp26
 70
     1
102
RTVSPropertyOp27
 70
     1
102
RTVSPropertyOp28
 70
     1
102
RTVSPropertyOp29
 70
     1
102
RTVSPropertyOp30
 70
     1
102
RTVSPropertyOp31
 70
     1
102
RTVSPropertyOp32
 70
     1
102
RTVSPropertyOp33
 70
     1
102
RTVSPropertyOp34
 70
     1
102
RTVSPropertyOp35
 70
     1
102
RTVSPropertyOp36
 70
     1
102
RTVSPropertyOp37
 70
     1
102
RTVSPropertyOp38
 70
     1
102
RTVSPropertyOp39
 70
     1
102
RTVSPropertyOp40
 70
     1
102
RTVSPropertyOp41
 70
     1
102
RTVSPropertyOp42
 70
     1
102
RTVSPropertyOp43
 70
     1
102
RTVSPropertyOp44
 70
     1
102
RTVSPropertyOp45
 70
     1
102
RTVSPropertyOp46
 70
     1
102
RTVSPropertyOp47
 70
     1
102
RTVSPropertyOp48
 70
     1
102
RTVSPropertyOp49
 70
     1
102
RTVSPropertyOp50
 70
     1
102
RTVSPropertyOp51
 70
     0
102
RTVSPropertyOp52
 70
     0
102
RTVSPropertyOp53
 70
     1
102
RTVSPropertyOp54
 70
     1
102
RTVSPropertyOp55
 70
     1
102
RTVSPropertyOp56
 70
     1
102
RTVSPropertyOp57
 70
     1
102
RTVSPropertyOp58
 70
     1
102
RTVSPropertyOp59
 70
     1
102
RTVSPropertyOp60
 70
     1
102
RTVSPropertyOp61
 70
     1
102
RTVSPropertyOp62
 70
     1
  0
XRECORD
  5
834
102
{ACAD_REACTORS
330
833
102
}
330
833
100
AcDbXrecord
280
     1
102
RTVSPost2010Prop28
280
     0
102
RTVSPost2010PropOp28
 70
     1
102
RTVSPost2010Prop29
280
     1
102
RTVSPost2010PropOp29
 70
     1
102
RTVSPost2010Prop30
280
     1
102
RTVSPost2010PropOp30
 70
     1
102
RTVSPost2010Prop31
280
     0
102
RTVSPost2010PropOp31
 70
     1
102
RTVSPost2010Prop32
280
     0
102
RTVSPost2010PropOp32
 70
     1
102
RTVSPost2010Prop33
280
     0
102
RTVSPost2010PropOp33
 70
     1
102
RTVSPost2010Prop34
280
     0
102
RTVSPost2010PropOp34
 70
     1
102
RTVSPost2010Prop35
280
     0
102
RTVSPost2010PropOp35
 70
     1
102
RTVSPost2010Prop36
280
     0
102
RTVSPost2010PropOp36
 70
     1
102
RTVSPost2010Prop37
 90
       50
102
RTVSPost2010PropOp37
 70
     1
102
RTVSPost2010Prop38
140
0.0
102
RTVSPost2010PropOp38
 70
     1
102
RTVSPost2010Prop39
140
1.0
102
RTVSPost2010PropOp39
 70
     1
102
RTVSPost2010Prop40
 90
        0
102
RTVSPost2010PropOp40
 70
     1
102
RTVSPost2010Prop41ColorIndex
 90
       18
102
RTVSPost2010Prop41ColorRGB
 90
        0
102
RTVSPost2010PropOp41
 70
     1
102
RTVSPost2010Prop42
 90
       50
102
RTVSPost2010PropOp42
 70
     1
102
RTVSPost2010Prop43
 90
        3
102
RTVSPost2010PropOp43
 70
     1
102
RTVSPost2010Prop44ColorIndex
 90
        5
102
RTVSPost2010Prop44ColorRGB
 90
      255
102
RTVSPost2010PropOp44
 70
     1
102
RTVSPost2010Prop45
280
     0
102
RTVSPost2010PropOp45
 70
     1
102
RTVSPost2010Prop46
 90
       50
102
RTVSPost2010PropOp46
 70
     1
102
RTVSPost2010Prop47
 90
       50
102
RTVSPost2010PropOp47
 70
     1
102
RTVSPost2010Prop48
 90
       50
102
RTVSPost2010PropOp48
 70
     1
102
RTVSPost2010Prop49
280
     0
102
RTVSPost2010PropOp49
 70
     1
102
RTVSPost2010Prop50
 90
       50
102
RTVSPost2010PropOp50
 70
     1
102
RTVSPost2010Prop51ColorIndex
 90
      256
102
RTVSPost2010Prop51ColorRGB
 90
-16777216
102
RTVSPost2010PropOp51
 70
     0
102
RTVSPost2010Prop52
140
1.0
102
RTVSPost2010PropOp52
 70
     0
102
RTVSPost2010Prop53
 90
        2
102
RTVSPost2010PropOp53
 70
     1
102
RTVSPost2010Prop54
  1
strokes_ogs.tif
102
RTVSPost2010PropOp54
 70
     1
102
RTVSPost2010Prop55
280
     0
102
RTVSPost2010PropOp55
 70
     1
102
RTVSPost2010Prop56
140
1.0
102
RTVSPost2010PropOp56
 70
     1
102
RTVSPost2010Prop57
140
1.0
102
RTVSPost2010PropOp57
 70
     1
102
RTVSPropertyOp0
 70
     1
102
RTVSPropertyOp1
 70
     1
102
RTVSPropertyOp2
 70
     1
102
RTVSPropertyOp3
 70
     1
102
RTVSPropertyOp4
 70
     1
102
RTVSPropertyOp5
 70
     1
102
RTVSPropertyOp6
 70
     1
102
RTVSPropertyOp7
 70
     1
102
RTVSPropertyOp8
 70
     1
102
RTVSPropertyOp9
 70
     1
102
RTVSPropertyOp10
 70
     1
102
RTVSPropertyOp11
 70
     1
102
RTVSPropertyOp12
 70
     1
102
RTVSPropertyOp13
 70
     1
102
RTVSPropertyOp14
 70
     1
102
RTVSPropertyOp15
 70
     1
102
RTVSPropertyOp16
 70
     1
102
RTVSPropertyOp17
 70
     1
102
RTVSPropertyOp18
 70
     1
102
RTVSPropertyOp19
 70
     1
102
RTVSPropertyOp20
 70
     1
102
RTVSPropertyOp21
 70
     1
102
RTVSPropertyOp22
 70
     1
102
RTVSPropertyOp23
 70
     1
102
RTVSPropertyOp24
 70
     1
102
RTVSPropertyOp25
 70
     1
102
RTVSPropertyOp26
 70
     1
102
RTVSPropertyOp27
 70
     1
102
RTVSPropertyOp28
 70
     1
102
RTVSPropertyOp29
 70
     1
102
RTVSPropertyOp30
 70
     1
102
RTVSPropertyOp31
 70
     1
102
RTVSPropertyOp32
 70
     1
102
RTVSPropertyOp33
 70
     1
102
RTVSPropertyOp34
 70
     1
102
RTVSPropertyOp35
 70
     1
102
RTVSPropertyOp36
 70
     1
102
RTVSPropertyOp37
 70
     1
102
RTVSPropertyOp38
 70
     1
102
RTVSPropertyOp39
 70
     1
102
RTVSPropertyOp40
 70
     1
102
RTVSPropertyOp41
 70
     1
102
RTVSPropertyOp42
 70
     1
102
RTVSPropertyOp43
 70
     1
102
RTVSPropertyOp44
 70
     1
102
RTVSPropertyOp45
 70
     1
102
RTVSPropertyOp46
 70
     1
102
RTVSPropertyOp47
 70
     1
102
RTVSPropertyOp48
 70
     1
102
RTVSPropertyOp49
 70
     1
102
RTVSPropertyOp50
 70
     1
102
RTVSPropertyOp51
 70
     0
102
RTVSPropertyOp52
 70
     0
102
RTVSPropertyOp53
 70
     1
102
RTVSPropertyOp54
 70
     1
102
RTVSPropertyOp55
 70
     1
102
RTVSPropertyOp56
 70
     1
102
RTVSPropertyOp57
 70
     1
102
RTVSPropertyOp58
 70
     1
102
RTVSPropertyOp59
 70
     1
102
RTVSPropertyOp60
 70
     1
102
RTVSPropertyOp61
 70
     1
102
RTVSPropertyOp62
 70
     1
  0
XRECORD
  5
84C
102
{ACAD_REACTORS
330
84B
102
}
330
84B
100
AcDbXrecord
280
     1
102
RTVSPost2010Prop28
280
     0
102
RTVSPost2010PropOp28
 70
     1
102
RTVSPost2010Prop29
280
     1
102
RTVSPost2010PropOp29
 70
     1
102
RTVSPost2010Prop30
280
     1
102
RTVSPost2010PropOp30
 70
     1
102
RTVSPost2010Prop31
280
     0
102
RTVSPost2010PropOp31
 70
     1
102
RTVSPost2010Prop32
280
     0
102
RTVSPost2010PropOp32
 70
     1
102
RTVSPost2010Prop33
280
     0
102
RTVSPost2010PropOp33
 70
     1
102
RTVSPost2010Prop34
280
     0
102
RTVSPost2010PropOp34
 70
     1
102
RTVSPost2010Prop35
280
     0
102
RTVSPost2010PropOp35
 70
     1
102
RTVSPost2010Prop36
280
     0
102
RTVSPost2010PropOp36
 70
     1
102
RTVSPost2010Prop37
 90
       50
102
RTVSPost2010PropOp37
 70
     1
102
RTVSPost2010Prop38
140
0.0
102
RTVSPost2010PropOp38
 70
     1
102
RTVSPost2010Prop39
140
1.0
102
RTVSPost2010PropOp39
 70
     1
102
RTVSPost2010Prop40
 90
        0
102
RTVSPost2010PropOp40
 70
     1
102
RTVSPost2010Prop41ColorIndex
 90
       18
102
RTVSPost2010Prop41ColorRGB
 90
        0
102
RTVSPost2010PropOp41
 70
     1
102
RTVSPost2010Prop42
 90
       50
102
RTVSPost2010PropOp42
 70
     1
102
RTVSPost2010Prop43
 90
        3
102
RTVSPost2010PropOp43
 70
     1
102
RTVSPost2010Prop44ColorIndex
 90
        5
102
RTVSPost2010Prop44ColorRGB
 90
      255
102
RTVSPost2010PropOp44
 70
     1
102
RTVSPost2010Prop45
280
     0
102
RTVSPost2010PropOp45
 70
     1
102
RTVSPost2010Prop46
 90
       50
102
RTVSPost2010PropOp46
 70
     1
102
RTVSPost2010Prop47
 90
       50
102
RTVSPost2010PropOp47
 70
     1
102
RTVSPost2010Prop48
 90
       50
102
RTVSPost2010PropOp48
 70
     1
102
RTVSPost2010Prop49
280
     0
102
RTVSPost2010PropOp49
 70
     1
102
RTVSPost2010Prop50
 90
       50
102
RTVSPost2010PropOp50
 70
     1
102
RTVSPost2010Prop51ColorIndex
 90
      256
102
RTVSPost2010Prop51ColorRGB
 90
-16777216
102
RTVSPost2010PropOp51
 70
     0
102
RTVSPost2010Prop52
140
1.0
102
RTVSPost2010PropOp52
 70
     0
102
RTVSPost2010Prop53
 90
        2
102
RTVSPost2010PropOp53
 70
     1
102
RTVSPost2010Prop54
  1
strokes_ogs.tif
102
RTVSPost2010PropOp54
 70
     1
102
RTVSPost2010Prop55
280
     0
102
RTVSPost2010PropOp55
 70
     1
102
RTVSPost2010Prop56
140
1.0
102
RTVSPost2010PropOp56
 70
     1
102
RTVSPost2010Prop57
140
1.0
102
RTVSPost2010PropOp57
 70
     1
102
RTVSPropertyOp0
 70
     1
102
RTVSPropertyOp1
 70
     1
102
RTVSPropertyOp2
 70
     1
102
RTVSPropertyOp3
 70
     1
102
RTVSPropertyOp4
 70
     1
102
RTVSPropertyOp5
 70
     1
102
RTVSPropertyOp6
 70
     1
102
RTVSPropertyOp7
 70
     1
102
RTVSPropertyOp8
 70
     1
102
RTVSPropertyOp9
 70
     1
102
RTVSPropertyOp10
 70
     1
102
RTVSPropertyOp11
 70
     1
102
RTVSPropertyOp12
 70
     1
102
RTVSPropertyOp13
 70
     1
102
RTVSPropertyOp14
 70
     1
102
RTVSPropertyOp15
 70
     1
102
RTVSPropertyOp16
 70
     1
102
RTVSPropertyOp17
 70
     1
102
RTVSPropertyOp18
 70
     1
102
RTVSPropertyOp19
 70
     1
102
RTVSPropertyOp20
 70
     1
102
RTVSPropertyOp21
 70
     1
102
RTVSPropertyOp22
 70
     1
102
RTVSPropertyOp23
 70
     1
102
RTVSPropertyOp24
 70
     1
102
RTVSPropertyOp25
 70
     1
102
RTVSPropertyOp26
 70
     1
102
RTVSPropertyOp27
 70
     1
102
RTVSPropertyOp28
 70
     1
102
RTVSPropertyOp29
 70
     1
102
RTVSPropertyOp30
 70
     1
102
RTVSPropertyOp31
 70
     1
102
RTVSPropertyOp32
 70
     1
102
RTVSPropertyOp33
 70
     1
102
RTVSPropertyOp34
 70
     1
102
RTVSPropertyOp35
 70
     1
102
RTVSPropertyOp36
 70
     1
102
RTVSPropertyOp37
 70
     1
102
RTVSPropertyOp38
 70
     1
102
RTVSPropertyOp39
 70
     1
102
RTVSPropertyOp40
 70
     1
102
RTVSPropertyOp41
 70
     1
102
RTVSPropertyOp42
 70
     1
102
RTVSPropertyOp43
 70
     1
102
RTVSPropertyOp44
 70
     1
102
RTVSPropertyOp45
 70
     1
102
RTVSPropertyOp46
 70
     1
102
RTVSPropertyOp47
 70
     1
102
RTVSPropertyOp48
 70
     1
102
RTVSPropertyOp49
 70
     1
102
RTVSPropertyOp50
 70
     1
102
RTVSPropertyOp51
 70
     0
102
RTVSPropertyOp52
 70
     0
102
RTVSPropertyOp53
 70
     1
102
RTVSPropertyOp54
 70
     1
102
RTVSPropertyOp55
 70
     1
102
RTVSPropertyOp56
 70
     1
102
RTVSPropertyOp57
 70
     1
102
RTVSPropertyOp58
 70
     1
102
RTVSPropertyOp59
 70
     1
102
RTVSPropertyOp60
 70
     1
102
RTVSPropertyOp61
 70
     1
102
RTVSPropertyOp62
 70
     1
  0
ENDSEC
  0
EOF
