  0
SECTION
  2
HEADER
  9
$ACADVER
  1
AC1018
  9
$ACADMAINTVER
 70
   104
  9
$DWGCODEPAGE
  3
ANSI_932
  9
$LASTSAVEDBY
  1
0803015
  9
$INSBASE
 10
0.0
 20
0.0
 30
0.0
  9
$EXTMIN
 10
-0.83919498
 20
-0.61032362
 30
-0.00000002
  9
$EXTMAX
 10
13750.83932304
 20
10000.61041676
 30
0.0
  9
$LIMMIN
 10
0.0
 20
0.0
  9
$LIMMAX
 10
420.0
 20
330.0
  9
$ORTHOMODE
 70
     1
  9
$REGENMODE
 70
     1
  9
$FILLMODE
 70
     1
  9
$QTEXTMODE
 70
     0
  9
$MIRRTEXT
 70
     0
  9
$LTSCALE
 40
1.0
  9
$ATTMODE
 70
     1
  9
$TEXTSIZE
 40
0.2
  9
$TRACEWID
 40
0.05
  9
$TEXTSTYLE
  7
STANDARD
  9
$CLAYER
  8
0
  9
$CELTYPE
  6
BYLAYER
  9
$CECOLOR
 62
   256
  9
$CELTSCALE
 40
1.0
  9
$DISPSILH
 70
     1
  9
$DIMSCALE
 40
1.0
  9
$DIMASZ
 40
0.18
  9
$DIMEXO
 40
0.0625
  9
$DIMDLI
 40
0.38
  9
$DIMRND
 40
0.0
  9
$DIMDLE
 40
0.0
  9
$DIMEXE
 40
0.18
  9
$DIMTP
 40
0.0
  9
$DIMTM
 40
0.0
  9
$DIMTXT
 40
0.18
  9
$DIMCEN
 40
0.09
  9
$DIMTSZ
 40
0.0
  9
$DIMTOL
 70
     0
  9
$DIMLIM
 70
     0
  9
$DIMTIH
 70
     1
  9
$DIMTOH
 70
     1
  9
$DIMSE1
 70
     0
  9
$DIMSE2
 70
     0
  9
$DIMTAD
 70
     0
  9
$DIMZIN
 70
     0
  9
$DIMBLK
  1

  9
$DIMASO
 70
     1
  9
$DIMSHO
 70
     0
  9
$DIMPOST
  1

  9
$DIMAPOST
  1

  9
$DIMALT
 70
     0
  9
$DIMALTD
 70
     2
  9
$DIMALTF
 40
25.4
  9
$DIMLFAC
 40
1.0
  9
$DIMTOFL
 70
     0
  9
$DIMTVP
 40
0.0
  9
$DIMTIX
 70
     0
  9
$DIMSOXD
 70
     0
  9
$DIMSAH
 70
     0
  9
$DIMBLK1
  1

  9
$DIMBLK2
  1

  9
$DIMSTYLE
  2
STANDARD
  9
$DIMCLRD
 70
     0
  9
$DIMCLRE
 70
     0
  9
$DIMCLRT
 70
     0
  9
$DIMTFAC
 40
1.0
  9
$DIMGAP
 40
0.09
  9
$DIMJUST
 70
     0
  9
$DIMSD1
 70
     0
  9
$DIMSD2
 70
     0
  9
$DIMTOLJ
 70
     1
  9
$DIMTZIN
 70
     0
  9
$DIMALTZ
 70
     0
  9
$DIMALTTZ
 70
     0
  9
$DIMUPT
 70
     0
  9
$DIMDEC
 70
     4
  9
$DIMTDEC
 70
     4
  9
$DIMALTU
 70
     2
  9
$DIMALTTD
 70
     2
  9
$DIMTXSTY
  7
STANDARD
  9
$DIMAUNIT
 70
     0
  9
$DIMADEC
 70
     0
  9
$DIMALTRND
 40
0.0
  9
$DIMAZIN
 70
     0
  9
$DIMDSEP
 70
    46
  9
$DIMATFIT
 70
     3
  9
$DIMFRAC
 70
     0
  9
$DIMLDRBLK
  1

  9
$DIMLUNIT
 70
     2
  9
$DIMLWD
 70
    -2
  9
$DIMLWE
 70
    -2
  9
$DIMTMOVE
 70
     2
  9
$LUNITS
 70
     2
  9
$LUPREC
 70
     4
  9
$SKETCHINC
 40
0.1
  9
$FILLETRAD
 40
1.0
  9
$AUNITS
 70
     0
  9
$AUPREC
 70
     0
  9
$MENU
  1
acad
  9
$ELEVATION
 40
0.0
  9
$PELEVATION
 40
0.0
  9
$THICKNESS
 40
0.0
  9
$LIMCHECK
 70
     0
  9
$CHAMFERA
 40
0.0
  9
$CHAMFERB
 40
0.0
  9
$CHAMFERC
 40
0.0
  9
$CHAMFERD
 40
0.0
  9
$SKPOLY
 70
     0
  9
$TDCREATE
 40
2452970.385810186
  9
$TDUCREATE
 40
2452970.010810185
  9
$TDUPDATE
 40
2459629.487511574
  9
$TDUUPDATE
 40
2459629.112511574
  9
$TDINDWG
 40
0.0305437500
  9
$TDUSRTIMER
 40
0.0305437500
  9
$USRTIMER
 70
     1
  9
$ANGBASE
 50
0.0
  9
$ANGDIR
 70
     0
  9
$PDMODE
 70
     0
  9
$PDSIZE
 40
0.0
  9
$PLINEWID
 40
0.0
  9
$SPLFRAME
 70
     0
  9
$SPLINETYPE
 70
     6
  9
$SPLINESEGS
 70
     8
  9
$HANDSEED
  5
F97
  9
$SURFTAB1
 70
     6
  9
$SURFTAB2
 70
     6
  9
$SURFTYPE
 70
     6
  9
$SURFU
 70
     6
  9
$SURFV
 70
     6
  9
$UCSBASE
  2

  9
$UCSNAME
  2

  9
$UCSORG
 10
0.0
 20
0.0
 30
0.0
  9
$UCSXDIR
 10
1.0
 20
0.0
 30
0.0
  9
$UCSYDIR
 10
0.0
 20
1.0
 30
0.0
  9
$UCSORTHOREF
  2

  9
$UCSORTHOVIEW
 70
     0
  9
$UCSORGTOP
 10
0.0
 20
0.0
 30
0.0
  9
$UCSORGBOTTOM
 10
0.0
 20
0.0
 30
0.0
  9
$UCSORGLEFT
 10
0.0
 20
0.0
 30
0.0
  9
$UCSORGRIGHT
 10
0.0
 20
0.0
 30
0.0
  9
$UCSORGFRONT
 10
0.0
 20
0.0
 30
0.0
  9
$UCSORGBACK
 10
0.0
 20
0.0
 30
0.0
  9
$PUCSBASE
  2

  9
$PUCSNAME
  2

  9
$PUCSORG
 10
0.0
 20
0.0
 30
0.0
  9
$PUCSXDIR
 10
1.0
 20
0.0
 30
0.0
  9
$PUCSYDIR
 10
0.0
 20
1.0
 30
0.0
  9
$PUCSORTHOREF
  2

  9
$PUCSORTHOVIEW
 70
     0
  9
$PUCSORGTOP
 10
0.0
 20
0.0
 30
0.0
  9
$PUCSORGBOTTOM
 10
0.0
 20
0.0
 30
0.0
  9
$PUCSORGLEFT
 10
0.0
 20
0.0
 30
0.0
  9
$PUCSORGRIGHT
 10
0.0
 20
0.0
 30
0.0
  9
$PUCSORGFRONT
 10
0.0
 20
0.0
 30
0.0
  9
$PUCSORGBACK
 10
0.0
 20
0.0
 30
0.0
  9
$USERI1
 70
     0
  9
$USERI2
 70
     0
  9
$USERI3
 70
     0
  9
$USERI4
 70
     0
  9
$USERI5
 70
     0
  9
$USERR1
 40
0.0
  9
$USERR2
 40
0.0
  9
$USERR3
 40
0.0
  9
$USERR4
 40
0.0
  9
$USERR5
 40
0.0
  9
$WORLDVIEW
 70
     1
  9
$SHADEDGE
 70
     3
  9
$SHADEDIF
 70
    70
  9
$TILEMODE
 70
     1
  9
$MAXACTVP
 70
    16
  9
$PINSBASE
 10
0.0
 20
0.0
 30
0.0
  9
$PLIMCHECK
 70
     0
  9
$PEXTMIN
 10
1.00000000E+20
 20
1.00000000E+20
 30
1.00000000E+20
  9
$PEXTMAX
 10
-1.00000000E+20
 20
-1.00000000E+20
 30
-1.00000000E+20
  9
$PLIMMIN
 10
0.0
 20
0.0
  9
$PLIMMAX
 10
12.0
 20
9.0
  9
$UNITMODE
 70
     0
  9
$VISRETAIN
 70
     0
  9
$PLINEGEN
 70
     0
  9
$PSLTSCALE
 70
     0
  9
$TREEDEPTH
 70
  3020
  9
$CMLSTYLE
  2
STANDARD
  9
$CMLJUST
 70
     0
  9
$CMLSCALE
 40
1.0
  9
$PROXYGRAPHICS
 70
     1
  9
$MEASUREMENT
 70
     1
  9
$CELWEIGHT
370
    -1
  9
$ENDCAPS
280
     0
  9
$JOINSTYLE
280
     0
  9
$LWDISPLAY
290
     0
  9
$INSUNITS
 70
     0
  9
$HYPERLINKBASE
  1

  9
$STYLESHEET
  1

  9
$XEDIT
290
     1
  9
$CEPSNTYPE
380
     0
  9
$PSTYLEMODE
290
     1
  9
$FINGERPRINTGUID
  2
{CAAB3654-21F1-BD49-8A1E-EB116D500C4B}
  9
$VERSIONGUID
  2
{35E83D58-298A-764B-876F-16379EE68B32}
  9
$EXTNAMES
290
     1
  9
$PSVPSCALE
 40
0.0
  9
$OLESTARTUP
290
     0
  9
$SORTENTS
280
   127
  9
$INDEXCTL
280
     0
  9
$HIDETEXT
280
     0
  9
$XCLIPFRAME
290
     0
  9
$HALOGAP
280
     0
  9
$OBSCOLOR
 70
   257
  9
$OBSLTYPE
280
     0
  9
$INTERSECTIONDISPLAY
280
     0
  9
$INTERSECTIONCOLOR
 70
   257
  9
$DIMASSOC
280
     1
  9
$PROJECTNAME
  1

  0
ENDSEC
  0
SECTION
  2
CLASSES
  0
CLASS
  1
DICTIONARYVAR
  2
AcDbDictionaryVar
  3
ObjectDBX Classes
 90
        0
 91
        7
280
     0
281
     0
  0
CLASS
  1
ACDBDICTIONARYWDFLT
  2
AcDbDictionaryWithDefault
  3
ObjectDBX Classes
 90
        0
 91
        1
280
     1
281
     0
  0
CLASS
  1
MATERIAL
  2
AcDbMaterial
  3
ObjectDBX Classes
 90
     1153
 91
        3
280
     0
281
     0
  0
CLASS
  1
VISUALSTYLE
  2
AcDbVisualStyle
  3
ObjectDBX Classes
 90
     4095
 91
       24
280
     0
281
     0
  0
CLASS
  1
TABLESTYLE
  2
AcDbTableStyle
  3
ObjectDBX Classes
 90
     4095
 91
        1
280
     0
281
     0
  0
CLASS
  1
SCALE
  2
AcDbScale
  3
ObjectDBX Classes
 90
     1153
 91
       17
280
     0
281
     0
  0
CLASS
  1
MLEADERSTYLE
  2
AcDbMLeaderStyle
  3
ACDB_MLEADERSTYLE_CLASS
 90
     4095
 91
        1
280
     0
281
     0
  0
CLASS
  1
ACDBSECTIONVIEWSTYLE
  2
AcDbSectionViewStyle
  3
ObjectDBX Classes
 90
     1025
 91
        2
280
     0
281
     0
  0
CLASS
  1
ACDBDETAILVIEWSTYLE
  2
AcDbDetailViewStyle
  3
ObjectDBX Classes
 90
     1025
 91
        2
280
     0
281
     0
  0
CLASS
  1
RAPIDRTRENDERSETTINGS
  2
AcDbRapidRTRenderSettings
  3
ObjectDBX Classes
 90
     1024
 91
        1
280
     0
281
     0
  0
CLASS
  1
CELLSTYLEMAP
  2
AcDbCellStyleMap
  3
ObjectDBX Classes
 90
     1152
 91
        2
280
     0
281
     0
  0
CLASS
  1
MENTALRAYRENDERSETTINGS
  2
AcDbMentalRayRenderSettings
  3
SCENEOE
 90
     1024
 91
        1
280
     0
281
     0
  0
CLASS
  1
SOLID_BACKGROUND
  2
AcDbSolidBackground
  3
SCENEOE
 90
     4095
 91
        0
280
     0
281
     0
  0
CLASS
  1
NPOCOLLECTION
  2
AcDbImpNonPersistentObjectsCollection
  3
ObjectDBX Classes
 90
     1153
 91
        0
280
     0
281
     0
  0
CLASS
  1
SORTENTSTABLE
  2
AcDbSortentsTable
  3
ObjectDBX Classes
 90
        0
 91
        0
280
     0
281
     0
  0
ENDSEC
  0
SECTION
  2
TABLES
  0
TABLE
  2
VPORT
  5
16
102
{ACAD_XDICTIONARY
360
812
102
}
330
0
100
AcDbSymbolTable
 70
     1
  0
VPORT
  5
45
330
16
100
AcDbSymbolTableRecord
100
AcDbViewportTableRecord
  2
*ACTIVE
 70
     0
 10
0.0
 20
0.0
 11
1.0
 21
1.0
 12
6875.00006403
 22
5000.00004657
 13
0.0
 23
0.0
 14
1.0
 24
1.0
 15
10.0
 25
10.0
 16
0.0
 26
0.0
 36
1.0
 17
0.0
 27
0.0
 37
0.0
 40
10116.8417894
 41
2.57722008
 42
50.0
 43
0.0
 44
0.0
 50
0.0
 51
0.0
 71
     0
 72
   100
 73
     1
 74
     0
 75
     0
 76
     0
 77
     0
 78
     0
281
     0
 65
     1
110
0.0
120
0.0
130
0.0
111
1.0
121
0.0
131
0.0
112
0.0
122
1.0
132
0.0
 79
     0
146
0.0
1001
ACAD_NAV_VCDISPLAY
1070
     1
  0
ENDTAB
  0
TABLE
  2
LTYPE
  5
11
330
0
100
AcDbSymbolTable
 70
     3
  0
LTYPE
  5
12
330
11
100
AcDbSymbolTableRecord
100
AcDbLinetypeTableRecord
  2
BYBLOCK
 70
     0
  3

 72
    65
 73
     0
 40
0.0
  0
LTYPE
  5
13
330
11
100
AcDbSymbolTableRecord
100
AcDbLinetypeTableRecord
  2
BYLAYER
 70
     0
  3

 72
    65
 73
     0
 40
0.0
  0
LTYPE
  5
7
330
11
100
AcDbSymbolTableRecord
100
AcDbLinetypeTableRecord
  2
CONTINUOUS
 70
     0
  3
Solid line
 72
    65
 73
     0
 40
0.0
  0
LTYPE
  5
101
330
11
100
AcDbSymbolTableRecord
100
AcDbLinetypeTableRecord
  2
YDIVIDE_1
 70
     0
  3
2点鎖線尺度1-- - - -- - - ---
 72
    65
 73
     6
 40
15.0
 49
10.0
 74
     0
 49
-1.0
 74
     0
 49
1.0
 74
     0
 49
-1.0
 74
     0
 49
1.0
 74
     0
 49
-1.0
 74
     0
  0
LTYPE
  5
102
330
11
100
AcDbSymbolTableRecord
100
AcDbLinetypeTableRecord
  2
PHANTOM
 70
     0
  3
_____ _ _ _____ _ _ _____ _ _ _____ _ _ ____  
 72
    65
 73
     6
 40
15.5
 49
8.0
 74
     0
 49
-1.5
 74
     0
 49
1.5
 74
     0
 49
-1.5
 74
     0
 49
1.5
 74
     0
 49
-1.5
 74
     0
  0
ENDTAB
  0
TABLE
  2
LAYER
  5
E
102
{ACAD_XDICTIONARY
360
116
102
}
330
0
100
AcDbSymbolTable
 70
    11
  0
LAYER
  5
6
102
{ACAD_XDICTIONARY
360
B2
102
}
330
E
100
AcDbSymbolTableRecord
100
AcDbLayerTableRecord
  2
0
 70
     0
 62
     7
  6
CONTINUOUS
370
    -3
390
48
  0
LAYER
  5
24
102
{ACAD_XDICTIONARY
360
B4
102
}
330
E
100
AcDbSymbolTableRecord
100
AcDbLayerTableRecord
  2
YKK_F1
 70
     0
 62
     7
  6
CONTINUOUS
370
    -3
390
48
  0
LAYER
  5
103
330
E
100
AcDbSymbolTableRecord
100
AcDbLayerTableRecord
  2
YKK_A1
 70
     0
 62
     4
  6
CONTINUOUS
370
    30
390
48
1001
AcAecLayerStandard
1000

1000
姿図
  0
LAYER
  5
104
102
{ACAD_XDICTIONARY
360
105
102
}
330
E
100
AcDbSymbolTableRecord
100
AcDbLayerTableRecord
  2
YKK_B1
 70
     0
 62
     4
  6
CONTINUOUS
370
    -3
390
48
  0
LAYER
  5
106
102
{ACAD_XDICTIONARY
360
107
102
}
330
E
100
AcDbSymbolTableRecord
100
AcDbLayerTableRecord
  2
YKK_C1
 70
     0
 62
     4
  6
CONTINUOUS
370
    -3
390
48
  0
LAYER
  5
108
102
{ACAD_XDICTIONARY
360
109
102
}
330
E
100
AcDbSymbolTableRecord
100
AcDbLayerTableRecord
  2
YKK_N1
 70
     0
 62
     2
  6
CONTINUOUS
370
    -3
390
48
  0
LAYER
  5
10A
102
{ACAD_XDICTIONARY
360
10B
102
}
330
E
100
AcDbSymbolTableRecord
100
AcDbLayerTableRecord
  2
YKK_Z1
 70
     0
 62
     7
  6
CONTINUOUS
370
    -3
390
48
  0
LAYER
  5
10C
102
{ACAD_XDICTIONARY
360
10D
102
}
330
E
100
AcDbSymbolTableRecord
100
AcDbLayerTableRecord
  2
YKK_B2
 70
     0
 62
     5
  6
CONTINUOUS
370
    -3
390
48
  0
LAYER
  5
10E
102
{ACAD_XDICTIONARY
360
10F
102
}
330
E
100
AcDbSymbolTableRecord
100
AcDbLayerTableRecord
  2
YKK_C2
 70
     0
 62
     5
  6
CONTINUOUS
370
    -3
390
48
  0
LAYER
  5
110
330
E
100
AcDbSymbolTableRecord
100
AcDbLayerTableRecord
  2
YKK_B1E
 70
     2
 62
     7
  6
CONTINUOUS
370
    30
390
48
1001
AcAecLayerStandard
1000

1000
姿図
1001
AcCmTransparency
1071
        0
  0
LAYER
  5
111
330
E
100
AcDbSymbolTableRecord
100
AcDbLayerTableRecord
  2
YKK_C1E
 70
     2
 62
     7
  6
CONTINUOUS
370
    30
390
48
1001
AcAecLayerStandard
1000

1000
姿図
1001
AcCmTransparency
1071
        0
  0
ENDTAB
  0
TABLE
  2
STYLE
  5
F
330
0
100
AcDbSymbolTable
 70
     3
  0
STYLE
  5
10
330
F
100
AcDbSymbolTableRecord
100
AcDbTextStyleTableRecord
  2
STANDARD
 70
     0
 40
0.0
 41
1.0
 50
0.0
 71
     0
 42
0.2
  3
txt
  4

  0
STYLE
  5
3C
330
F
100
AcDbSymbolTableRecord
100
AcDbTextStyleTableRecord
  2
EXTFONT
 70
     0
 40
60.0
 41
1.0
 50
0.0
 71
     0
 42
60.0
  3
txt.shx
  4
EXTFONT
  0
STYLE
  5
112
330
F
100
AcDbSymbolTableRecord
100
AcDbTextStyleTableRecord
  2
MX_NOTE_STANDARD
 70
     0
 40
0.0
 41
1.0
 50
0.0
 71
     0
 42
3.0
  3
txt.shx
  4
extfont.shx
  0
ENDTAB
  0
TABLE
  2
VIEW
  5
14
330
0
100
AcDbSymbolTable
 70
     0
  0
ENDTAB
  0
TABLE
  2
UCS
  5
15
330
0
100
AcDbSymbolTable
 70
     0
  0
ENDTAB
  0
TABLE
  2
APPID
  5
18
330
0
100
AcDbSymbolTable
 70
     8
  0
APPID
  5
19
330
18
100
AcDbSymbolTableRecord
100
AcDbRegAppTableRecord
  2
ACAD
 70
     0
  0
APPID
  5
9E
330
18
100
AcDbSymbolTableRecord
100
AcDbRegAppTableRecord
  2
ACAD_NAV_VCDISPLAY
 70
     0
  0
APPID
  5
9F
330
18
100
AcDbSymbolTableRecord
100
AcDbRegAppTableRecord
  2
YKK_AP_LOCKLAYER
 70
     0
  0
APPID
  5
113
330
18
100
AcDbSymbolTableRecord
100
AcDbRegAppTableRecord
  2
AcAecLayerStandard
 70
     0
  0
APPID
  5
114
330
18
100
AcDbSymbolTableRecord
100
AcDbRegAppTableRecord
  2
YOBJCUT10427141548
 70
     0
  0
APPID
  5
115
330
18
100
AcDbSymbolTableRecord
100
AcDbRegAppTableRecord
  2
AcCmTransparency
 70
     0
  0
APPID
  5
6CE
330
18
100
AcDbSymbolTableRecord
100
AcDbRegAppTableRecord
  2
ACAD_EXEMPT_FROM_CAD_STANDARDS
 70
     0
  0
APPID
  5
848
330
18
100
AcDbSymbolTableRecord
100
AcDbRegAppTableRecord
  2
ACAD_MLEADERVER
 70
     0
  0
ENDTAB
  0
TABLE
  2
DIMSTYLE
  5
1A
330
0
100
AcDbSymbolTable
 70
     1
100
AcDbDimStyleTable
 71
     1
340
20
  0
DIMSTYLE
105
20
330
1A
100
AcDbSymbolTableRecord
100
AcDbDimStyleTableRecord
  2
STANDARD
 70
     0
279
     2
340
10
  0
ENDTAB
  0
TABLE
  2
BLOCK_RECORD
  5
1
330
0
100
AcDbSymbolTable
 70
     0
  0
BLOCK_RECORD
  5
2
102
{ACAD_XDICTIONARY
360
3
102
}
330
1
100
AcDbSymbolTableRecord
100
AcDbBlockTableRecord
  2
*MODEL_SPACE
340
98
  0
BLOCK_RECORD
  5
9
102
{ACAD_XDICTIONARY
360
A
102
}
330
1
100
AcDbSymbolTableRecord
100
AcDbBlockTableRecord
  2
*PAPER_SPACE
340
99
  0
ENDTAB
  0
ENDSEC
  0
SECTION
  2
BLOCKS
  0
BLOCK
  5
5
330
2
100
AcDbEntity
  8
0
100
AcDbBlockBegin
  2
*MODEL_SPACE
 70
     0
 10
0.0
 20
0.0
 30
0.0
  3
*MODEL_SPACE
  1

  0
ENDBLK
  5
8
330
2
100
AcDbEntity
  8
0
100
AcDbBlockEnd
  0
BLOCK
  5
C
330
9
100
AcDbEntity
 67
     1
  8
0
100
AcDbBlockBegin
  2
*PAPER_SPACE
 70
     0
 10
0.0
 20
0.0
 30
0.0
  3
*PAPER_SPACE
  1

  0
ENDBLK
  5
D
330
9
100
AcDbEntity
 67
     1
  8
0
100
AcDbBlockEnd
  0
ENDSEC
  0
SECTION
  2
ENTITIES
  0
LINE
  5
2C
330
2
100
AcDbEntity
  8
YKK_F1
 62
     7
100
AcDbLine
 10
0.0
 20
9300.0
 30
0.0
 11
13500.0
 21
9300.0
 31
0.0
  0
LINE
  5
2D
330
2
100
AcDbEntity
  8
YKK_F1
 62
     7
100
AcDbLine
 10
0.0
 20
9525.0
 30
0.0
 11
13500.0
 21
9525.0
 31
0.0
  0
LINE
  5
32
330
2
100
AcDbEntity
  8
YKK_F1
 62
     7
100
AcDbLine
 10
0.0
 20
9750.0
 30
0.0
 11
13500.0
 21
9750.0
 31
0.0
  0
LINE
  5
33
330
2
100
AcDbEntity
  8
YKK_F1
 62
     7
100
AcDbLine
 10
0.0
 20
0.0
 30
0.0
 11
13750.0
 21
0.0
 31
0.0
  0
LINE
  5
34
330
2
100
AcDbEntity
  8
YKK_F1
 62
     7
100
AcDbLine
 10
0.0
 20
10000.0
 30
0.0
 11
13750.0
 21
10000.0
 31
0.0
  0
LINE
  5
3A
330
2
100
AcDbEntity
  8
YKK_F1
 62
     7
100
AcDbLine
 10
0.0
 20
0.0
 30
0.0
 11
0.0
 21
10000.0
 31
0.0
  0
TEXT
  5
3B
330
2
100
AcDbEntity
  8
0
100
AcDbText
 10
50.0
 20
9368.75
 30
0.0
 40
87.5
  1
新設窓W=780 H=1,870
  7
EXTFONT
100
AcDbText
  0
TEXT
  5
3D
330
2
100
AcDbEntity
  8
0
100
AcDbText
 10
50.0
 20
9593.75
 30
0.0
 40
87.5
  1
居室仕様 【既設窓】：開き窓：樹脂窓 例：プラマード 【新設窓】：トリプルガラス樹脂窓 開き窓テラス(単窓)
  7
EXTFONT
100
AcDbText
  0
TEXT
  5
3E
330
2
100
AcDbEntity
  8
0
100
AcDbText
 10
250.0
 20
9812.5
 30
0.0
 40
125.0
  1
ＭＡＤＲＸ０３　かんたんマドリモ　断熱窓　戸建用
  7
EXTFONT
100
AcDbText
  0
LINE
  5
3F
330
2
100
AcDbEntity
  8
YKK_F1
 62
     7
100
AcDbLine
 10
13500.0
 20
0.0
 30
0.0
 11
13500.0
 21
9750.0
 31
0.0
  0
LINE
  5
40
330
2
100
AcDbEntity
  8
YKK_F1
 62
     7
100
AcDbLine
 10
13750.0
 20
0.0
 30
0.0
 11
13750.0
 21
10000.0
 31
0.0
  0
LINE
  5
B7E
330
2
100
AcDbEntity
  8
YKK_C2
100
AcDbLine
 10
7698.9963042
 20
4924.60040947
 30
0.0
 11
7703.39607848
 21
4929.00016033
 31
0.0
  0
LINE
  5
B7F
330
2
100
AcDbEntity
  8
YKK_C2
100
AcDbLine
 10
7699.05291037
 20
4919.00017615
 30
0.0
 11
7705.9963074
 21
4925.94353622
 31
0.0
  0
LINE
  5
B80
330
2
100
AcDbEntity
  8
YKK_C2
100
AcDbLine
 10
7704.70976462
 20
4919.00016109
 30
0.0
 11
7705.99629235
 21
4920.28668197
 31
0.0
  0
LINE
  5
B81
330
2
100
AcDbEntity
  8
YKK_Z1
100
AcDbLine
 10
7786.4710211
 20
4948.00002638
 30
0.0
 11
7768.99630702
 21
4965.47474046
 31
0.0
  0
LINE
  5
B82
330
2
100
AcDbEntity
  8
YKK_Z1
100
AcDbLine
 10
7804.43153319
 20
4948.00002653
 30
0.0
 11
7784.9315338
 21
4967.50002593
 31
0.0
  0
LINE
  5
B83
330
2
100
AcDbEntity
  8
YKK_Z1
100
AcDbLine
 10
7822.39204528
 20
4948.00002668
 30
0.0
 11
7802.89204588
 21
4967.50002608
 31
0.0
  0
LINE
  5
B84
330
2
100
AcDbEntity
  8
YKK_Z1
100
AcDbLine
 10
7840.35255737
 20
4948.00002684
 30
0.0
 11
7820.85255797
 21
4967.50002623
 31
0.0
  0
LINE
  5
B85
330
2
100
AcDbEntity
  8
YKK_Z1
100
AcDbLine
 10
7858.31306946
 20
4948.00002699
 30
0.0
 11
7838.81307006
 21
4967.50002639
 31
0.0
  0
LINE
  5
B86
330
2
100
AcDbEntity
  8
YKK_Z1
100
AcDbLine
 10
7870.99634777
 20
4953.27726092
 30
0.0
 11
7856.77358215
 21
4967.50002654
 31
0.0
  0
LINE
  5
B87
330
2
100
AcDbEntity
  8
YKK_C2
100
AcDbLine
 10
7698.99628892
 20
6943.40262187
 30
0.0
 11
7701.59361731
 21
6945.99996408
 31
0.0
  0
LINE
  5
B88
330
2
100
AcDbEntity
  8
YKK_C2
100
AcDbLine
 10
7698.99628892
 20
6937.74575256
 30
0.0
 11
7705.99629226
 21
6944.74579316
 31
0.0
  0
LINE
  5
B89
330
2
100
AcDbEntity
  8
YKK_C2
100
AcDbLine
 10
7702.90735798
 20
6935.99997313
 30
0.0
 11
7705.99630732
 21
6939.08893891
 31
0.0
  0
LINE
  5
B8A
330
2
100
AcDbEntity
  8
YKK_C2
100
AcDbLine
 10
7692.79253607
 20
4899.20378737
 30
0.0
 11
7693.58875293
 21
4899.99999999
 31
0.0
  0
LINE
  5
B8B
330
2
100
AcDbEntity
  8
YKK_C2
100
AcDbLine
 10
7694.20674963
 20
4897.78957381
 30
0.0
 11
7696.41718758
 21
4899.99999999
 31
0.0
  0
LINE
  5
B8C
330
2
100
AcDbEntity
  8
YKK_C2
100
AcDbLine
 10
7695.6209632
 20
4896.37536025
 30
0.0
 11
7698.99632345
 21
4899.75070254
 31
0.0
  0
LINE
  5
B8D
330
2
100
AcDbEntity
  8
YKK_C2
100
AcDbLine
 10
7697.03517676
 20
4894.96114669
 30
0.0
 11
7698.99632345
 21
4896.92228294
 31
0.0
  0
LINE
  5
B8E
330
2
100
AcDbEntity
  8
YKK_C2
100
AcDbLine
 10
7698.44939032
 20
4893.54693312
 30
0.0
 11
7698.99632345
 21
4894.09386334
 31
0.0
  0
LINE
  5
B8F
330
2
100
AcDbEntity
  8
YKK_C2
100
AcDbLine
 10
7693.69424454
 20
6942.99999999
 30
0.0
 11
7698.99629684
 21
6948.30202406
 31
0.0
  0
LINE
  5
B90
330
2
100
AcDbEntity
  8
YKK_C2
100
AcDbLine
 10
7696.5226792
 20
6942.99999999
 30
0.0
 11
7698.99629684
 21
6945.47360446
 31
0.0
  0
LINE
  5
B91
330
2
100
AcDbEntity
  8
YKK_C2
100
AcDbLine
 10
7683.58968342
 20
6933.83654112
 30
0.0
 11
7683.99626874
 21
6934.24312644
 31
0.0
  0
LINE
  5
B92
330
2
100
AcDbEntity
  8
YKK_C2
100
AcDbLine
 10
7682.07033291
 20
6929.48876349
 30
0.0
 11
7683.99626392
 21
6931.4146945
 31
0.0
  0
LINE
  5
B93
330
2
100
AcDbEntity
  8
YKK_C2
100
AcDbLine
 10
7680.55098241
 20
6925.14098586
 30
0.0
 11
7683.9962591
 21
6928.58626255
 31
0.0
  0
LINE
  5
B94
330
2
100
AcDbEntity
  8
YKK_C2
100
AcDbLine
 10
7680.026186
 20
6921.78776233
 30
0.0
 11
7683.99625428
 21
6925.75783061
 31
0.0
  0
LINE
  5
B95
330
2
100
AcDbEntity
  8
YKK_C2
100
AcDbLine
 10
7683.03887721
 20
6921.97202641
 30
0.0
 11
7683.99624946
 21
6922.92939866
 31
0.0
  0
LINE
  5
B96
330
2
100
AcDbEntity
  8
YKK_C2
100
AcDbLine
 10
7809.99625111
 20
4991.39999983
 30
0.0
 11
7829.59625111
 21
5010.99999983
 31
0.0
  0
LINE
  5
B97
330
2
100
AcDbEntity
  8
YKK_C2
100
AcDbLine
 10
7832.44689141
 20
4991.39999983
 30
0.0
 11
7852.04689141
 21
5010.99999983
 31
0.0
  0
LINE
  5
B98
330
2
100
AcDbEntity
  8
YKK_C2
100
AcDbLine
 10
7854.89753171
 20
4991.39999983
 30
0.0
 11
7861.19753171
 21
4997.69999983
 31
0.0
  0
LINE
  5
B99
330
2
100
AcDbEntity
  8
YKK_C2
100
AcDbLine
 10
7854.89753171
 20
6846.59999999
 30
0.0
 11
7861.19753171
 21
6840.29999999
 31
0.0
  0
LINE
  5
B9A
330
2
100
AcDbEntity
  8
YKK_C2
100
AcDbLine
 10
7832.44689141
 20
6846.59999999
 30
0.0
 11
7852.04689141
 21
6826.99999999
 31
0.0
  0
LINE
  5
B9B
330
2
100
AcDbEntity
  8
YKK_C2
100
AcDbLine
 10
7809.99625111
 20
6846.59999999
 30
0.0
 11
7829.59625111
 21
6826.99999999
 31
0.0
  0
LINE
  5
B9C
330
2
100
AcDbEntity
  8
YKK_Z1
100
AcDbLine
 10
7870.99633107
 20
6922.94978605
 30
0.0
 11
7871.04654501
 21
6922.99999999
 31
0.0
  0
LINE
  5
B9D
330
2
100
AcDbEntity
  8
YKK_C2
100
AcDbLine
 10
7870.99633107
 20
6904.98927381
 30
0.0
 11
7881.99633107
 21
6915.98927381
 31
0.0
  0
LINE
  5
B9E
330
2
100
AcDbEntity
  8
YKK_C2
100
AcDbLine
 10
7870.99633107
 20
6882.5386335
 30
0.0
 11
7881.99633107
 21
6893.5386335
 31
0.0
  0
LINE
  5
B9F
330
2
100
AcDbEntity
  8
YKK_C2
100
AcDbLine
 10
7870.99633107
 20
6860.0879932
 30
0.0
 11
7881.99633107
 21
6871.0879932
 31
0.0
  0
LINE
  5
BA0
330
2
100
AcDbEntity
  8
YKK_C2
100
AcDbLine
 10
7866.35897816
 20
6832.99999999
 30
0.0
 11
7881.99633107
 21
6848.6373529
 31
0.0
  0
LINE
  5
BA1
330
2
100
AcDbEntity
  8
YKK_C2
100
AcDbLine
 10
7870.84910622
 20
5004.99999983
 30
0.0
 11
7881.99633107
 21
4993.85277498
 31
0.0
  0
LINE
  5
BA2
330
2
100
AcDbEntity
  8
YKK_C2
100
AcDbLine
 10
7870.99633107
 20
4982.40213467
 30
0.0
 11
7881.99633107
 21
4971.40213467
 31
0.0
  0
LINE
  5
BA3
330
2
100
AcDbEntity
  8
YKK_C2
100
AcDbLine
 10
7870.99633107
 20
4959.95149437
 30
0.0
 11
7881.99633107
 21
4948.95149437
 31
0.0
  0
LINE
  5
BA4
330
2
100
AcDbEntity
  8
YKK_C2
100
AcDbLine
 10
7870.99633107
 20
4937.50085407
 30
0.0
 11
7881.99633107
 21
4926.50085407
 31
0.0
  0
LINE
  5
BA5
330
2
100
AcDbEntity
  8
YKK_Z1
100
AcDbLine
 10
7870.99633107
 20
4915.05021377
 30
0.0
 11
7871.04654501
 21
4914.99999983
 31
0.0
  0
ARC
  5
BA6
330
2
100
AcDbEntity
  8
YKK_C2
  6
Continuous
 48
0.5
370
    30
100
AcDbCircle
 10
7878.99633058
 20
5001.99999935
 30
0.0
 40
3.000000490192445
100
AcDbArc
 50
0.00000936
 51
89.99999064
  0
LINE
  5
BA7
330
2
100
AcDbEntity
  8
YKK_C2
  6
Continuous
 48
0.5
370
    30
100
AcDbLine
 10
7856.99633107
 20
5004.99999984
 30
0.0
 11
7878.99633107
 21
5004.99999984
 31
0.0
  0
LINE
  5
BA8
330
2
100
AcDbEntity
  8
YKK_C2
  6
Continuous
 48
0.5
370
    30
100
AcDbLine
 10
7856.99633107
 20
4997.99999984
 30
0.0
 11
7856.99633107
 21
5004.99999984
 31
0.0
  0
LINE
  5
BA9
330
2
100
AcDbEntity
  8
YKK_C2
  6
Continuous
 48
0.5
370
    30
100
AcDbLine
 10
7870.99633107
 20
4997.99999984
 30
0.0
 11
7856.99633107
 21
4997.99999984
 31
0.0
  0
LINE
  5
BAA
330
2
100
AcDbEntity
  8
YKK_C2
  6
Continuous
 48
0.5
370
    30
100
AcDbLine
 10
7870.99633107
 20
4914.99999984
 30
0.0
 11
7870.99633107
 21
4997.99999984
 31
0.0
  0
LINE
  5
BAB
330
2
100
AcDbEntity
  8
YKK_C2
  6
Continuous
 48
0.5
370
    30
100
AcDbLine
 10
7881.99633107
 20
4914.99999984
 30
0.0
 11
7870.99633107
 21
4914.99999984
 31
0.0
  0
LINE
  5
BAC
330
2
100
AcDbEntity
  8
YKK_C2
  6
Continuous
 48
0.5
370
    30
100
AcDbLine
 10
7881.99633107
 20
5001.99999984
 30
0.0
 11
7881.99633107
 21
4914.99999984
 31
0.0
  0
ARC
  5
BAD
330
2
100
AcDbEntity
  8
YKK_C2
  6
Continuous
 48
0.5
370
    30
100
AcDbCircle
 10
7878.99633058
 20
6836.00000047
 30
0.0
 40
3.000000490192445
100
AcDbArc
 50
270.00000936
 51
359.99999064
  0
LINE
  5
BAE
330
2
100
AcDbEntity
  8
YKK_C2
  6
Continuous
 48
0.5
370
    30
100
AcDbLine
 10
7856.99633107
 20
6832.99999998
 30
0.0
 11
7878.99633107
 21
6832.99999998
 31
0.0
  0
LINE
  5
BAF
330
2
100
AcDbEntity
  8
YKK_C2
  6
Continuous
 48
0.5
370
    30
100
AcDbLine
 10
7856.99633107
 20
6839.99999998
 30
0.0
 11
7856.99633107
 21
6832.99999998
 31
0.0
  0
LINE
  5
BB0
330
2
100
AcDbEntity
  8
YKK_C2
  6
Continuous
 48
0.5
370
    30
100
AcDbLine
 10
7870.99633107
 20
6839.99999998
 30
0.0
 11
7856.99633107
 21
6839.99999998
 31
0.0
  0
LINE
  5
BB1
330
2
100
AcDbEntity
  8
YKK_C2
  6
Continuous
 48
0.5
370
    30
100
AcDbLine
 10
7870.99633107
 20
6922.99999998
 30
0.0
 11
7870.99633107
 21
6839.99999998
 31
0.0
  0
LINE
  5
BB2
330
2
100
AcDbEntity
  8
YKK_C2
  6
Continuous
 48
0.5
370
    30
100
AcDbLine
 10
7881.99633107
 20
6922.99999998
 30
0.0
 11
7870.99633107
 21
6922.99999998
 31
0.0
  0
LINE
  5
BB3
330
2
100
AcDbEntity
  8
YKK_C2
  6
Continuous
 48
0.5
370
    30
100
AcDbLine
 10
7881.99633107
 20
6835.99999998
 30
0.0
 11
7881.99633107
 21
6922.99999998
 31
0.0
  0
LINE
  5
BB4
330
2
100
AcDbEntity
  8
YKK_C2
  6
Continuous
 48
0.5
370
    30
100
AcDbLine
 10
7866.99625911
 20
6832.59999999
 30
0.0
 11
7866.99625911
 21
6826.99999999
 31
0.0
  0
LINE
  5
BB5
330
2
100
AcDbEntity
  8
YKK_C2
  6
Continuous
 48
0.5
370
    30
100
AcDbLine
 10
7851.99625111
 20
6832.59999999
 30
0.0
 11
7866.99625911
 21
6832.59999999
 31
0.0
  0
LINE
  5
BB6
330
2
100
AcDbEntity
  8
YKK_C2
  6
Continuous
 48
0.5
370
    30
100
AcDbLine
 10
7851.99625111
 20
6840.29999999
 30
0.0
 11
7851.99625111
 21
6832.59999999
 31
0.0
  0
LINE
  5
BB7
330
2
100
AcDbEntity
  8
YKK_C2
  6
Continuous
 48
0.5
370
    30
100
AcDbLine
 10
7866.99625911
 20
6840.29999999
 30
0.0
 11
7851.99625111
 21
6840.29999999
 31
0.0
  0
LINE
  5
BB8
330
2
100
AcDbEntity
  8
YKK_C2
  6
Continuous
 48
0.5
370
    30
100
AcDbLine
 10
7866.99625911
 20
6846.59999999
 30
0.0
 11
7866.99625911
 21
6840.29999999
 31
0.0
  0
LINE
  5
BB9
330
2
100
AcDbEntity
  8
YKK_C2
  6
Continuous
 48
0.5
370
    30
100
AcDbLine
 10
7809.99625111
 20
6846.59999999
 30
0.0
 11
7866.99625911
 21
6846.59999999
 31
0.0
  0
LINE
  5
BBA
330
2
100
AcDbEntity
  8
YKK_C2
  6
Continuous
 48
0.5
370
    30
100
AcDbLine
 10
7809.99625111
 20
6826.99999999
 30
0.0
 11
7809.99625111
 21
6846.59999999
 31
0.0
  0
LINE
  5
BBB
330
2
100
AcDbEntity
  8
YKK_C2
  6
Continuous
 48
0.5
370
    30
100
AcDbLine
 10
7866.99625911
 20
6826.99999999
 30
0.0
 11
7809.99625111
 21
6826.99999999
 31
0.0
  0
LINE
  5
BBC
330
2
100
AcDbEntity
  8
YKK_C2
  6
Continuous
 48
0.5
370
    30
100
AcDbLine
 10
7866.99625911
 20
5005.39999983
 30
0.0
 11
7866.99625911
 21
5010.99999983
 31
0.0
  0
LINE
  5
BBD
330
2
100
AcDbEntity
  8
YKK_C2
  6
Continuous
 48
0.5
370
    30
100
AcDbLine
 10
7851.99625111
 20
5005.39999983
 30
0.0
 11
7866.99625911
 21
5005.39999983
 31
0.0
  0
LINE
  5
BBE
330
2
100
AcDbEntity
  8
YKK_C2
  6
Continuous
 48
0.5
370
    30
100
AcDbLine
 10
7851.99625111
 20
4997.69999983
 30
0.0
 11
7851.99625111
 21
5005.39999983
 31
0.0
  0
LINE
  5
BBF
330
2
100
AcDbEntity
  8
YKK_C2
  6
Continuous
 48
0.5
370
    30
100
AcDbLine
 10
7866.99625911
 20
4997.69999983
 30
0.0
 11
7851.99625111
 21
4997.69999983
 31
0.0
  0
LINE
  5
BC0
330
2
100
AcDbEntity
  8
YKK_C2
  6
Continuous
 48
0.5
370
    30
100
AcDbLine
 10
7866.99625911
 20
4991.39999983
 30
0.0
 11
7866.99625911
 21
4997.69999983
 31
0.0
  0
LINE
  5
BC1
330
2
100
AcDbEntity
  8
YKK_C2
  6
Continuous
 48
0.5
370
    30
100
AcDbLine
 10
7809.99625111
 20
4991.39999983
 30
0.0
 11
7866.99625911
 21
4991.39999983
 31
0.0
  0
LINE
  5
BC2
330
2
100
AcDbEntity
  8
YKK_C2
  6
Continuous
 48
0.5
370
    30
100
AcDbLine
 10
7809.99625111
 20
5010.99999983
 30
0.0
 11
7809.99625111
 21
4991.39999983
 31
0.0
  0
LINE
  5
BC3
330
2
100
AcDbEntity
  8
YKK_C2
  6
Continuous
 48
0.5
370
    30
100
AcDbLine
 10
7866.99625874
 20
5010.99999983
 30
0.0
 11
7809.99625111
 21
5010.99999983
 31
0.0
  0
LINE
  5
BC4
330
2
100
AcDbEntity
  8
YKK_Z1
  6
Continuous
 48
1.5
370
    13
100
AcDbLine
 10
7824.99625128
 20
4967.50002666
 30
0.0
 11
7824.99625128
 21
4989.39999983
 31
0.0
  0
LINE
  5
BC5
330
2
100
AcDbEntity
  8
YKK_Z1
  6
Continuous
 48
1.5
370
    13
100
AcDbLine
 10
7870.99625874
 20
4967.50002666
 30
0.0
 11
7824.99625128
 21
4967.50002666
 31
0.0
  0
LINE
  5
BC6
330
2
100
AcDbEntity
  8
YKK_Z1
  6
Continuous
 48
1.5
370
    13
100
AcDbLine
 10
7870.99625874
 20
4989.39999983
 30
0.0
 11
7870.99625874
 21
4967.50002666
 31
0.0
  0
LINE
  5
BC7
330
2
100
AcDbEntity
  8
YKK_Z1
  6
Continuous
 48
1.5
370
    13
100
AcDbLine
 10
7824.99625128
 20
4989.39999983
 30
0.0
 11
7870.99625874
 21
4989.39999983
 31
0.0
  0
LINE
  5
BC8
330
2
100
AcDbEntity
  8
YKK_Z1
  6
Continuous
 48
1.5
370
    13
100
AcDbLine
 10
7824.99625112
 20
6848.59999999
 30
0.0
 11
7824.99625112
 21
6905.00006306
 31
0.0
  0
LINE
  5
BC9
330
2
100
AcDbEntity
  8
YKK_Z1
  6
Continuous
 48
1.5
370
    13
100
AcDbLine
 10
7870.99625874
 20
6848.59999999
 30
0.0
 11
7824.99625112
 21
6848.59999999
 31
0.0
  0
LINE
  5
BCA
330
2
100
AcDbEntity
  8
YKK_Z1
  6
Continuous
 48
1.5
370
    13
100
AcDbLine
 10
7870.99625874
 20
6905.00006306
 30
0.0
 11
7870.99625874
 21
6848.59999999
 31
0.0
  0
LINE
  5
BCB
330
2
100
AcDbEntity
  8
YKK_Z1
  6
Continuous
 48
1.5
370
    13
100
AcDbLine
 10
7824.99625112
 20
6905.00006306
 30
0.0
 11
7870.99625874
 21
6905.00006306
 31
0.0
  0
LINE
  5
BCC
330
2
100
AcDbEntity
  8
YKK_C2
  6
Continuous
 48
1.5
370
    13
100
AcDbLine
 10
7691.99629684
 20
6942.99999999
 30
0.0
 11
7698.99629684
 21
6942.99999999
 31
0.0
  0
LINE
  5
BCD
330
2
100
AcDbEntity
  8
YKK_C2
  6
Continuous
 48
1.5
370
    13
100
AcDbLine
 10
7698.99629684
 20
6949.99999999
 30
0.0
 11
7691.99629684
 21
6942.99999999
 31
0.0
  0
LINE
  5
BCE
330
2
100
AcDbEntity
  8
YKK_C2
  6
Continuous
 48
1.5
370
    13
100
AcDbLine
 10
7698.99629684
 20
6942.99999999
 30
0.0
 11
7698.99629684
 21
6949.99999999
 31
0.0
  0
LINE
  5
BCF
330
2
100
AcDbEntity
  8
YKK_C2
  6
Continuous
 48
1.5
370
    13
100
AcDbLine
 10
7698.99632345
 20
4892.99999999
 30
0.0
 11
7698.99632345
 21
4899.99999999
 31
0.0
  0
LINE
  5
BD0
330
2
100
AcDbEntity
  8
YKK_C2
  6
Continuous
 48
1.5
370
    13
100
AcDbLine
 10
7691.99632345
 20
4899.99999999
 30
0.0
 11
7698.99632345
 21
4892.99999999
 31
0.0
  0
LINE
  5
BD1
330
2
100
AcDbEntity
  8
YKK_C2
  6
Continuous
 48
1.5
370
    13
100
AcDbLine
 10
7698.99632345
 20
4899.99999999
 30
0.0
 11
7691.99632345
 21
4899.99999999
 31
0.0
  0
LINE
  5
BD2
330
2
100
AcDbEntity
  8
YKK_Z1
  6
Continuous
 48
1.5
370
    13
100
AcDbLine
 10
7824.99625112
 20
6870.99999999
 30
0.0
 11
7824.99625112
 21
6880.99999999
 31
0.0
  0
LINE
  5
BD3
330
2
100
AcDbEntity
  8
YKK_Z1
  6
Continuous
 48
1.5
370
    13
100
AcDbLine
 10
7768.99636813
 20
6870.99999999
 30
0.0
 11
7824.99625112
 21
6870.99999999
 31
0.0
  0
LINE
  5
BD4
330
2
100
AcDbEntity
  8
YKK_Z1
  6
Continuous
 48
1.5
370
    13
100
AcDbLine
 10
7768.99636813
 20
6880.99999999
 30
0.0
 11
7768.99636813
 21
6870.99999999
 31
0.0
  0
LINE
  5
BD5
330
2
100
AcDbEntity
  8
YKK_Z1
  6
Continuous
 48
1.5
370
    13
100
AcDbLine
 10
7824.99625112
 20
6880.99999999
 30
0.0
 11
7768.99636813
 21
6880.99999999
 31
0.0
  0
LINE
  5
BD6
330
2
100
AcDbEntity
  8
YKK_Z1
  6
Continuous
 48
1.5
370
    13
100
AcDbLine
 10
7768.99634633
 20
4967.50002666
 30
0.0
 11
7768.99634633
 21
4983.99999995
 31
0.0
  0
LINE
  5
BD7
330
2
100
AcDbEntity
  8
YKK_Z1
  6
Continuous
 48
1.5
370
    13
100
AcDbLine
 10
7824.99625109
 20
4967.50002666
 30
0.0
 11
7768.99634633
 21
4967.50002666
 31
0.0
  0
LINE
  5
BD8
330
2
100
AcDbEntity
  8
YKK_Z1
  6
Continuous
 48
1.5
370
    13
100
AcDbLine
 10
7824.99625109
 20
4983.99999995
 30
0.0
 11
7824.99625109
 21
4967.50002666
 31
0.0
  0
LINE
  5
BD9
330
2
100
AcDbEntity
  8
YKK_Z1
  6
Continuous
 48
1.5
370
    13
100
AcDbLine
 10
7768.99634633
 20
4983.99999995
 30
0.0
 11
7824.99625109
 21
4983.99999995
 31
0.0
  0
LINE
  5
BDA
330
2
100
AcDbEntity
  8
YKK_Z1
  6
Continuous
 48
1.5
370
    13
100
AcDbLine
 10
7768.99636813
 20
6880.99999999
 30
0.0
 11
7768.99636813
 21
6905.00006306
 31
0.0
  0
LINE
  5
BDB
330
2
100
AcDbEntity
  8
YKK_Z1
  6
Continuous
 48
1.5
370
    13
100
AcDbLine
 10
7824.99625112
 20
6880.99999999
 30
0.0
 11
7768.99636813
 21
6880.99999999
 31
0.0
  0
LINE
  5
BDC
330
2
100
AcDbEntity
  8
YKK_Z1
  6
Continuous
 48
1.5
370
    13
100
AcDbLine
 10
7824.99625112
 20
6905.00006306
 30
0.0
 11
7824.99625112
 21
6880.99999999
 31
0.0
  0
LINE
  5
BDD
330
2
100
AcDbEntity
  8
YKK_Z1
  6
Continuous
 48
1.5
370
    13
100
AcDbLine
 10
7768.99636813
 20
6905.00006306
 30
0.0
 11
7824.99625112
 21
6905.00006306
 31
0.0
  0
LINE
  5
BDE
330
2
100
AcDbEntity
  8
YKK_Z1
  6
Continuous
 48
1.5
370
    13
100
AcDbLine
 10
7809.99625112
 20
6855.99999999
 30
0.0
 11
7809.99625112
 21
6870.99999999
 31
0.0
  0
LINE
  5
BDF
330
2
100
AcDbEntity
  8
YKK_Z1
  6
Continuous
 48
1.5
370
    13
100
AcDbLine
 10
7824.99625112
 20
6855.99999999
 30
0.0
 11
7809.99625112
 21
6855.99999999
 31
0.0
  0
LINE
  5
BE0
330
2
100
AcDbEntity
  8
YKK_Z1
  6
Continuous
 48
1.5
370
    13
100
AcDbLine
 10
7824.99625112
 20
6870.99999999
 30
0.0
 11
7824.99625112
 21
6855.99999999
 31
0.0
  0
LINE
  5
BE1
330
2
100
AcDbEntity
  8
YKK_Z1
  6
Continuous
 48
1.5
370
    13
100
AcDbLine
 10
7809.99625112
 20
6870.99999999
 30
0.0
 11
7824.99625112
 21
6870.99999999
 31
0.0
  0
LINE
  5
BE2
330
2
100
AcDbEntity
  8
YKK_Z1
  6
Continuous
 48
1.5
370
    13
100
AcDbLine
 10
7783.99633107
 20
6921.0001068
 30
0.0
 11
7783.99633107
 21
6917.0001068
 31
0.0
  0
LINE
  5
BE3
330
2
100
AcDbEntity
  8
YKK_Z1
  6
Continuous
 48
1.5
370
    13
100
AcDbLine
 10
7858.99633107
 20
6921.0001068
 30
0.0
 11
7783.99633107
 21
6921.0001068
 31
0.0
  0
LINE
  5
BE4
330
2
100
AcDbEntity
  8
YKK_Z1
  6
Continuous
 48
1.5
370
    13
100
AcDbLine
 10
7858.99633107
 20
6917.0001068
 30
0.0
 11
7858.99633107
 21
6921.0001068
 31
0.0
  0
LINE
  5
BE5
330
2
100
AcDbEntity
  8
YKK_Z1
  6
Continuous
 48
1.5
370
    13
100
AcDbLine
 10
7783.99633107
 20
6917.0001068
 30
0.0
 11
7858.99633107
 21
6917.0001068
 31
0.0
  0
LINE
  5
BE6
330
2
100
AcDbEntity
  8
YKK_Z1
  6
Continuous
 48
1.5
370
    13
100
AcDbLine
 10
7783.99633107
 20
4948.00002666
 30
0.0
 11
7783.99633107
 21
4944.00002666
 31
0.0
  0
LINE
  5
BE7
330
2
100
AcDbEntity
  8
YKK_Z1
  6
Continuous
 48
1.5
370
    13
100
AcDbLine
 10
7858.99633107
 20
4948.00002666
 30
0.0
 11
7783.99633107
 21
4948.00002666
 31
0.0
  0
LINE
  5
BE8
330
2
100
AcDbEntity
  8
YKK_Z1
  6
Continuous
 48
1.5
370
    13
100
AcDbLine
 10
7858.99633107
 20
4944.00002666
 30
0.0
 11
7858.99633107
 21
4948.00002666
 31
0.0
  0
LINE
  5
BE9
330
2
100
AcDbEntity
  8
YKK_Z1
  6
Continuous
 48
1.5
370
    13
100
AcDbLine
 10
7783.99633107
 20
4944.00002666
 30
0.0
 11
7858.99633107
 21
4944.00002666
 31
0.0
  0
LINE
  5
BEA
330
2
100
AcDbEntity
  8
YKK_Z1
  6
Continuous
 48
1.5
370
    13
100
AcDbLine
 10
7728.99631554
 20
6970.53302946
 30
0.0
 11
7728.99631554
 21
6963.26652419
 31
0.0
  0
LINE
  5
BEB
330
2
100
AcDbEntity
  8
YKK_Z1
  6
Continuous
 48
1.5
370
    13
100
AcDbLine
 10
7728.99631554
 20
6963.26652419
 30
0.0
 11
7728.99631554
 21
6956.00001891
 31
0.0
  0
LINE
  5
BEC
330
2
100
AcDbEntity
  8
YKK_C2
  6
Continuous
 48
1.5
370
    13
100
AcDbLine
 10
7698.99628892
 20
6945.24995717
 30
0.0
 11
7698.99628892
 21
6945.99995717
 31
0.0
  0
LINE
  5
BED
330
2
100
AcDbEntity
  8
YKK_C2
  6
Continuous
 48
1.5
370
    13
100
AcDbLine
 10
7698.99628892
 20
6936.74997513
 30
0.0
 11
7698.99628892
 21
6945.24995717
 31
0.0
  0
LINE
  5
BEE
330
2
100
AcDbEntity
  8
YKK_C2
  6
Continuous
 48
1.5
370
    13
100
AcDbLine
 10
7698.99631554
 20
6935.99997313
 30
0.0
 11
7698.99628892
 21
6936.74997513
 31
0.0
  0
LINE
  5
BEF
330
2
100
AcDbEntity
  8
YKK_C2
  6
Continuous
 48
1.5
370
    13
100
AcDbLine
 10
7698.99628892
 20
6936.74997513
 30
0.0
 11
7698.99631554
 21
6935.99997313
 31
0.0
  0
LINE
  5
BF0
330
2
100
AcDbEntity
  8
YKK_C2
  6
Continuous
 48
1.5
370
    13
100
AcDbLine
 10
7698.99628892
 20
6945.24995717
 30
0.0
 11
7698.99628892
 21
6936.74997513
 31
0.0
  0
LINE
  5
BF1
330
2
100
AcDbEntity
  8
YKK_C2
  6
Continuous
 48
1.5
370
    13
100
AcDbLine
 10
7698.99628892
 20
6945.99995717
 30
0.0
 11
7698.99628892
 21
6945.24995717
 31
0.0
  0
LINE
  5
BF2
330
2
100
AcDbEntity
  8
YKK_Z1
  6
Continuous
 48
1.5
370
    13
100
AcDbLine
 10
7706.99628892
 20
6945.99997846
 30
0.0
 11
7698.99628892
 21
6945.99995717
 31
0.0
  0
LINE
  5
BF3
330
2
100
AcDbEntity
  8
YKK_C2
  6
Continuous
 48
1.5
370
    13
100
AcDbLine
 10
7705.99631554
 20
6935.99997313
 30
0.0
 11
7705.99628892
 21
6945.9999758
 31
0.0
  0
LINE
  5
BF4
330
2
100
AcDbEntity
  8
YKK_Z1
  6
Continuous
 48
1.5
370
    13
100
AcDbLine
 10
7698.99631554
 20
6935.99997313
 30
0.0
 11
7706.99631287
 21
6935.99997313
 31
0.0
  0
LINE
  5
BF5
330
2
100
AcDbEntity
  8
YKK_Z1
  6
Continuous
 48
1.5
370
    13
100
AcDbLine
 10
7706.99628892
 20
6945.99997846
 30
0.0
 11
7710.99628892
 21
6945.9999891
 31
0.0
  0
LINE
  5
BF6
330
2
100
AcDbEntity
  8
YKK_C2
  6
Continuous
 48
1.5
370
    13
100
AcDbLine
 10
7705.99631554
 20
6935.99997313
 30
0.0
 11
7705.99628892
 21
6945.9999758
 31
0.0
  0
LINE
  5
BF7
330
2
100
AcDbEntity
  8
YKK_Z1
  6
Continuous
 48
1.5
370
    13
100
AcDbLine
 10
7710.99631554
 20
6935.99997313
 30
0.0
 11
7706.99631287
 21
6935.99997313
 31
0.0
  0
LINE
  5
BF8
330
2
100
AcDbEntity
  8
YKK_Z1
  6
Continuous
 48
1.5
370
    13
100
AcDbLine
 10
7710.99628892
 20
6945.9999891
 30
0.0
 11
7710.99631554
 21
6935.99997313
 31
0.0
  0
LINE
  5
BF9
330
2
100
AcDbEntity
  8
YKK_Z1
  6
Continuous
 48
1.5
370
    13
100
AcDbLine
 10
7870.99634777
 20
4967.50002666
 30
0.0
 11
7769.99635277
 21
4967.50002666
 31
0.0
  0
LINE
  5
BFA
330
2
100
AcDbEntity
  8
YKK_Z1
  6
Continuous
 48
1.5
370
    13
100
AcDbLine
 10
7870.99633661
 20
4967.50002666
 30
0.0
 11
7768.99633607
 21
4967.50002666
 31
0.0
  0
LINE
  5
BFB
330
2
100
AcDbEntity
  8
YKK_Z1
  6
Continuous
 48
1.5
370
    13
100
AcDbLine
 10
7753.99633107
 20
6926.0001068
 30
0.0
 11
7753.99633107
 21
6921.0001068
 31
0.0
  0
LINE
  5
BFC
330
2
100
AcDbEntity
  8
YKK_Z1
  6
Continuous
 48
1.5
370
    13
100
AcDbLine
 10
7858.99633107
 20
6926.0001068
 30
0.0
 11
7753.99633107
 21
6926.0001068
 31
0.0
  0
LINE
  5
BFD
330
2
100
AcDbEntity
  8
YKK_Z1
  6
Continuous
 48
1.5
370
    13
100
AcDbLine
 10
7858.99633107
 20
6921.0001068
 30
0.0
 11
7858.99633107
 21
6926.0001068
 31
0.0
  0
LINE
  5
BFE
330
2
100
AcDbEntity
  8
YKK_Z1
  6
Continuous
 48
1.5
370
    13
100
AcDbLine
 10
7753.99633107
 20
6921.0001068
 30
0.0
 11
7858.99633107
 21
6921.0001068
 31
0.0
  0
LINE
  5
BFF
330
2
100
AcDbEntity
  8
YKK_Z1
  6
Continuous
 48
1.5
370
    13
100
AcDbLine
 10
7728.99631554
 20
4848.45696024
 30
0.0
 11
7728.99631554
 21
4909.00011455
 31
0.0
  0
LINE
  5
C00
330
2
100
AcDbEntity
  8
YKK_C2
  6
Continuous
 48
1.5
370
    13
100
AcDbLine
 10
7698.99628892
 20
4919.6839997
 30
0.0
 11
7698.99628892
 21
4919.0001763
 31
0.0
  0
LINE
  5
C01
330
2
100
AcDbEntity
  8
YKK_C2
  6
Continuous
 48
1.5
370
    13
100
AcDbLine
 10
7698.99631554
 20
4928.25015833
 30
0.0
 11
7698.99628892
 21
4919.6839997
 31
0.0
  0
LINE
  5
C02
330
2
100
AcDbEntity
  8
YKK_C2
  6
Continuous
 48
1.5
370
    13
100
AcDbLine
 10
7698.99631554
 20
4929.00016033
 30
0.0
 11
7698.99631554
 21
4928.25015833
 31
0.0
  0
LINE
  5
C03
330
2
100
AcDbEntity
  8
YKK_C2
  6
Continuous
 48
1.5
370
    13
100
AcDbLine
 10
7698.99631554
 20
4928.25015833
 30
0.0
 11
7698.99631554
 21
4929.00016033
 31
0.0
  0
LINE
  5
C04
330
2
100
AcDbEntity
  8
YKK_C2
  6
Continuous
 48
1.5
370
    13
100
AcDbLine
 10
7698.99628892
 20
4919.6839997
 30
0.0
 11
7698.99631554
 21
4928.25015833
 31
0.0
  0
LINE
  5
C05
330
2
100
AcDbEntity
  8
YKK_C2
  6
Continuous
 48
1.5
370
    13
100
AcDbLine
 10
7698.99628892
 20
4919.0001763
 30
0.0
 11
7698.99628892
 21
4919.6839997
 31
0.0
  0
LINE
  5
C06
330
2
100
AcDbEntity
  8
YKK_C2
  6
Continuous
 48
1.5
370
    13
100
AcDbLine
 10
7706.99628892
 20
4919.00015501
 30
0.0
 11
7698.99628892
 21
4919.0001763
 31
0.0
  0
LINE
  5
C07
330
2
100
AcDbEntity
  8
YKK_C2
  6
Continuous
 48
1.5
370
    13
100
AcDbLine
 10
7705.99631554
 20
4929.00016033
 30
0.0
 11
7705.99628892
 21
4919.00015767
 31
0.0
  0
LINE
  5
C08
330
2
100
AcDbEntity
  8
YKK_C2
  6
Continuous
 48
1.5
370
    13
100
AcDbLine
 10
7698.99631554
 20
4929.00016033
 30
0.0
 11
7706.99631287
 21
4929.00016033
 31
0.0
  0
LINE
  5
C09
330
2
100
AcDbEntity
  8
YKK_Z1
  6
Continuous
 48
1.5
370
    13
100
AcDbLine
 10
7706.99628892
 20
4919.00015501
 30
0.0
 11
7710.99628892
 21
4919.00014436
 31
0.0
  0
LINE
  5
C0A
330
2
100
AcDbEntity
  8
YKK_C2
  6
Continuous
 48
1.5
370
    13
100
AcDbLine
 10
7705.99631554
 20
4929.00016033
 30
0.0
 11
7705.99628892
 21
4919.00015767
 31
0.0
  0
LINE
  5
C0B
330
2
100
AcDbEntity
  8
YKK_Z1
  6
Continuous
 48
1.5
370
    13
100
AcDbLine
 10
7710.99631554
 20
4929.00016033
 30
0.0
 11
7706.99631287
 21
4929.00016033
 31
0.0
  0
LINE
  5
C0C
330
2
100
AcDbEntity
  8
YKK_Z1
  6
Continuous
 48
1.5
370
    13
100
AcDbLine
 10
7710.99628892
 20
4919.00014436
 30
0.0
 11
7710.99631554
 21
4929.00016033
 31
0.0
  0
LINE
  5
C0D
330
2
100
AcDbEntity
  8
YKK_Z1
  6
Continuous
 48
1.5
370
    13
100
AcDbLine
 10
7753.99633107
 20
4941.50003353
 30
0.0
 11
7753.99633107
 21
4899.00003353
 31
0.0
  0
LINE
  5
C0E
330
2
100
AcDbEntity
  8
YKK_Z1
  6
Continuous
 48
1.5
370
    13
100
AcDbLine
 10
7753.99631554
 20
4848.45696024
 30
0.0
 11
7753.99631554
 21
4899.00003353
 31
0.0
  0
LINE
  5
C0F
330
2
100
AcDbEntity
  8
YKK_Z1
  6
Continuous
 48
1.5
370
    13
100
AcDbLine
 10
7766.49633107
 20
4944.00002666
 30
0.0
 11
7753.99633107
 21
4944.00002666
 31
0.0
  0
LINE
  5
C10
330
2
100
AcDbEntity
  8
YKK_Z1
  6
Continuous
 48
1.5
370
    13
100
AcDbLine
 10
7753.99633107
 20
4848.45696024
 30
0.0
 11
7753.99633107
 21
4944.00002666
 31
0.0
1001
YOBJCUT10427141548
1000
DET2
  0
LINE
  5
C11
330
2
100
AcDbEntity
  8
YKK_Z1
  6
Continuous
 48
1.5
370
    13
100
AcDbLine
 10
7753.99633107
 20
6928.50009993
 30
0.0
 11
7753.99633107
 21
6971.00009993
 31
0.0
  0
LINE
  5
C12
330
2
100
AcDbEntity
  8
YKK_Z1
  6
Continuous
 48
1.5
370
    13
100
AcDbLine
 10
7753.99631554
 20
7044.81059722
 30
0.0
 11
7753.99631554
 21
6971.00009993
 31
0.0
  0
LINE
  5
C13
330
2
100
AcDbEntity
  8
YKK_Z1
  6
Continuous
 48
1.5
370
    13
100
AcDbLine
 10
7766.49633107
 20
6926.0001068
 30
0.0
 11
7753.99633107
 21
6926.0001068
 31
0.0
  0
LINE
  5
C14
330
2
100
AcDbEntity
  8
YKK_Z1
  6
Continuous
 48
1.5
370
    13
100
AcDbLine
 10
7753.99631554
 20
4909.00011455
 30
0.0
 11
7728.99631554
 21
4909.00011455
 31
0.0
  0
LINE
  5
C15
330
2
100
AcDbEntity
  8
YKK_Z1
  6
Continuous
 48
1.5
370
    13
100
AcDbLine
 10
7753.99633107
 20
4916.50002666
 30
0.0
 11
7753.99633107
 21
4879.78461004
 31
0.0
  0
LINE
  5
C16
330
2
100
AcDbEntity
  8
YKK_Z1
  6
Continuous
 48
1.5
370
    13
100
AcDbLine
 10
7698.99631554
 20
4919.00020291
 30
0.0
 11
7698.99631554
 21
4848.45696024
 31
0.0
  0
LINE
  5
C17
330
2
100
AcDbEntity
  8
YKK_Z1
  6
Continuous
 48
1.5
370
    13
100
AcDbLine
 10
7858.99633107
 20
6926.0001068
 30
0.0
 11
7753.99633107
 21
6921.0001068
 31
0.0
  0
LINE
  5
C18
330
2
100
AcDbEntity
  8
YKK_Z1
  6
Continuous
 48
1.5
370
    13
100
AcDbLine
 10
7768.99633607
 20
4967.50002666
 30
0.0
 11
7870.99633661
 21
4967.50002666
 31
0.0
  0
LINE
  5
C19
330
2
100
AcDbEntity
  8
YKK_Z1
  6
Continuous
 48
1.5
370
    13
100
AcDbLine
 10
7753.99631554
 20
6956.00001891
 30
0.0
 11
7728.99631554
 21
6956.00001891
 31
0.0
  0
LINE
  5
C1A
330
2
100
AcDbEntity
  8
YKK_Z1
  6
Continuous
 48
1.5
370
    13
100
AcDbLine
 10
7728.99631554
 20
6956.00001891
 30
0.0
 11
7728.99631554
 21
7044.81059722
 31
0.0
  0
LINE
  5
C1B
330
2
100
AcDbEntity
  8
YKK_Z1
  6
Continuous
 48
1.5
370
    13
100
AcDbLine
 10
7698.99631554
 20
6945.99993055
 30
0.0
 11
7698.99631554
 21
7044.81059722
 31
0.0
  0
LINE
  5
C1C
330
2
100
AcDbEntity
  8
YKK_Z1
  6
Continuous
 48
1.5
370
    13
100
AcDbLine
 10
7858.99633107
 20
4948.00002666
 30
0.0
 11
7783.99633107
 21
4944.00002666
 31
0.0
  0
LINE
  5
C1D
330
2
100
AcDbEntity
  8
YKK_Z1
  6
Continuous
 48
1.5
370
    13
100
AcDbLine
 10
7858.99633107
 20
6921.0001068
 30
0.0
 11
7783.99633107
 21
6917.0001068
 31
0.0
  0
LINE
  5
C1E
330
2
100
AcDbEntity
  8
YKK_Z1
  6
Continuous
 48
1.5
370
    13
100
AcDbLine
 10
7870.99634777
 20
4953.00002666
 30
0.0
 11
7870.99634777
 21
4967.50002666
 31
0.0
  0
LINE
  5
C1F
330
2
100
AcDbEntity
  8
YKK_Z1
  6
Continuous
 48
1.5
370
    13
100
AcDbLine
 10
7858.99633107
 20
7044.81059722
 30
0.0
 11
7858.99633107
 21
6917.0001068
 31
0.0
  0
LINE
  5
C20
330
2
100
AcDbEntity
  8
YKK_Z1
  6
Continuous
 48
1.5
370
    13
100
AcDbLine
 10
7870.99633107
 20
7044.81059722
 30
0.0
 11
7870.99633107
 21
6917.0001068
 31
0.0
  0
LINE
  5
C21
330
2
100
AcDbEntity
  8
YKK_Z1
  6
Continuous
 48
1.5
370
    13
100
AcDbLine
 10
7858.99633107
 20
6917.0001068
 30
0.0
 11
7870.99633107
 21
6917.0001068
 31
0.0
  0
LINE
  5
C22
330
2
100
AcDbEntity
  8
YKK_Z1
  6
Continuous
 48
1.5
370
    13
100
AcDbLine
 10
7858.99633107
 20
6926.0001182
 30
0.0
 11
7858.99633107
 21
6971.0001182
 31
0.0
  0
LINE
  5
C23
330
2
100
AcDbEntity
  8
YKK_Z1
  6
Continuous
 48
1.5
370
    13
100
AcDbLine
 10
7858.99633107
 20
6971.0001182
 30
0.0
 11
7753.99633107
 21
6971.0001182
 31
0.0
  0
LINE
  5
C24
330
2
100
AcDbEntity
  8
YKK_Z1
  6
Continuous
 48
1.5
370
    13
100
AcDbLine
 10
7753.99633107
 20
6971.0001182
 30
0.0
 11
7753.99633107
 21
6926.0001182
 31
0.0
  0
LINE
  5
C25
330
2
100
AcDbEntity
  8
YKK_Z1
  6
Continuous
 48
1.5
370
    13
100
AcDbLine
 10
7753.99633107
 20
6926.0001182
 30
0.0
 11
7858.99633107
 21
6926.0001182
 31
0.0
  0
LINE
  5
C26
330
2
100
AcDbEntity
  8
YKK_Z1
  6
Continuous
 48
1.5
370
    13
100
AcDbLine
 10
7753.99633107
 20
6926.0001182
 30
0.0
 11
7858.99633107
 21
6971.0001182
 31
0.0
  0
LINE
  5
C27
330
2
100
AcDbEntity
  8
YKK_Z1
  6
Continuous
 48
1.5
370
    13
100
AcDbLine
 10
7870.99634777
 20
6917.00006306
 30
0.0
 11
7768.99636813
 21
6917.00006306
 31
0.0
  0
LINE
  5
C28
330
2
100
AcDbEntity
  8
YKK_Z1
  6
Continuous
 48
1.5
370
    13
100
AcDbLine
 10
7870.99634777
 20
6905.00006306
 30
0.0
 11
7768.99636813
 21
6905.00006306
 31
0.0
  0
LINE
  5
C29
330
2
100
AcDbEntity
  8
YKK_Z1
  6
Continuous
 48
1.5
370
    13
100
AcDbLine
 10
7768.99636813
 20
6917.00006306
 30
0.0
 11
7768.99636813
 21
6905.00006306
 31
0.0
  0
LINE
  5
C2A
330
2
100
AcDbEntity
  8
YKK_Z1
  6
Continuous
 48
1.5
370
    13
100
AcDbLine
 10
7870.99634777
 20
6917.0001068
 30
0.0
 11
7870.99634777
 21
6905.00006306
 31
0.0
  0
LINE
  5
C2B
330
2
100
AcDbEntity
  8
YKK_Z1
  6
Continuous
 48
1.5
370
    13
100
AcDbLine
 10
7858.99525337
 20
4848.45696024
 30
0.0
 11
7858.99525337
 21
4953.00002666
 31
0.0
  0
LINE
  5
C2C
330
2
100
AcDbEntity
  8
YKK_Z1
  6
Continuous
 48
1.5
370
    13
100
AcDbLine
 10
7870.99525337
 20
4848.45696024
 30
0.0
 11
7870.99525337
 21
4953.00002666
 31
0.0
  0
LINE
  5
C2D
330
2
100
AcDbEntity
  8
YKK_Z1
  6
Continuous
 48
1.5
370
    13
100
AcDbLine
 10
7858.99525337
 20
4953.00002666
 30
0.0
 11
7870.99525337
 21
4953.00002666
 31
0.0
  0
LINE
  5
C2E
330
2
100
AcDbEntity
  8
YKK_Z1
  6
Continuous
 48
1.5
370
    13
100
AcDbLine
 10
7858.99525337
 20
4899.00001526
 30
0.0
 11
7858.99525337
 21
4944.00001526
 31
0.0
  0
LINE
  5
C2F
330
2
100
AcDbEntity
  8
YKK_Z1
  6
Continuous
 48
1.5
370
    13
100
AcDbLine
 10
7858.99525337
 20
4944.00001526
 30
0.0
 11
7753.99525337
 21
4944.00001526
 31
0.0
  0
LINE
  5
C30
330
2
100
AcDbEntity
  8
YKK_Z1
  6
Continuous
 48
1.5
370
    13
100
AcDbLine
 10
7753.99525337
 20
4944.00001526
 30
0.0
 11
7753.99525337
 21
4899.00001526
 31
0.0
  0
LINE
  5
C31
330
2
100
AcDbEntity
  8
YKK_Z1
  6
Continuous
 48
1.5
370
    13
100
AcDbLine
 10
7753.99525337
 20
4899.00001526
 30
0.0
 11
7858.99525337
 21
4899.00001526
 31
0.0
  0
LINE
  5
C32
330
2
100
AcDbEntity
  8
YKK_Z1
  6
Continuous
 48
1.5
370
    13
100
AcDbLine
 10
7753.99525337
 20
4899.00001526
 30
0.0
 11
7858.99525337
 21
4944.00001526
 31
0.0
  0
LINE
  5
C33
330
2
100
AcDbEntity
  8
YKK_Z1
  6
Continuous
 48
1.5
370
    13
100
AcDbLine
 10
7809.99625112
 20
6855.99999999
 30
0.0
 11
7824.99625112
 21
6870.99999999
 31
0.0
  0
LINE
  5
C34
330
2
100
AcDbEntity
  8
YKK_Z1
  6
Continuous
 48
1.5
370
    13
100
AcDbLine
 10
7768.99636813
 20
6880.99999999
 30
0.0
 11
7824.99625112
 21
6905.00006306
 31
0.0
  0
LINE
  5
C35
330
2
100
AcDbEntity
  8
YKK_Z1
  6
Continuous
 48
1.5
370
    13
100
AcDbLine
 10
7824.99625109
 20
4983.99999995
 30
0.0
 11
7768.99633607
 21
4967.50002666
 31
0.0
  0
LINE
  5
C36
330
2
100
AcDbEntity
  8
YKK_Z1
  6
Continuous
 48
1.5
370
    13
100
AcDbLine
 10
7768.99636813
 20
6870.99999999
 30
0.0
 11
7824.99625112
 21
6880.99999999
 31
0.0
  0
LINE
  5
C37
330
2
100
AcDbEntity
  8
YKK_C2
  6
Continuous
 48
1.5
370
    13
100
AcDbLine
 10
7866.99625874
 20
6826.99999999
 30
0.0
 11
7866.99625874
 21
5010.99999983
 31
0.0
  0
LINE
  5
C38
330
2
100
AcDbEntity
  8
YKK_C2
  6
Continuous
 48
1.5
370
    13
100
AcDbLine
 10
7881.99633107
 20
6922.99999999
 30
0.0
 11
7884.99633107
 21
6922.99999999
 31
0.0
  0
LINE
  5
C39
330
2
100
AcDbEntity
  8
YKK_C2
  6
Continuous
 48
1.5
370
    13
100
AcDbLine
 10
7884.99633107
 20
6922.99999999
 30
0.0
 11
7884.99633107
 21
4914.99999983
 31
0.0
  0
LINE
  5
C3A
330
2
100
AcDbEntity
  8
YKK_C2
  6
Continuous
 48
1.5
370
    13
100
AcDbLine
 10
7881.99633107
 20
4914.99999983
 30
0.0
 11
7884.99633107
 21
4914.99999983
 31
0.0
  0
LINE
  5
C3B
330
2
100
AcDbEntity
  8
YKK_Z1
  6
Continuous
 48
1.5
370
    13
100
AcDbLine
 10
7870.99625874
 20
6905.00006306
 30
0.0
 11
7824.99625112
 21
6848.59999999
 31
0.0
  0
LINE
  5
C3C
330
2
100
AcDbEntity
  8
YKK_Z1
  6
Continuous
 48
1.5
370
    13
100
AcDbLine
 10
7870.99625874
 20
4989.39999983
 30
0.0
 11
7824.99625109
 21
4967.50002666
 31
0.0
  0
LINE
  5
C3D
330
2
100
AcDbEntity
  8
YKK_C2
  6
Continuous
370
    13
100
AcDbLine
 10
7678.99624715
 20
6920.7840625
 30
0.0
 11
7683.99627003
 21
6935.00003051
 31
0.0
  0
LINE
  5
C3E
330
2
100
AcDbEntity
  8
YKK_B2
100
AcDbLine
 10
4825.0003404
 20
2982.08484775
 30
0.0
 11
4821.91137463
 21
2978.99589841
 31
0.0
  0
LINE
  5
C3F
330
2
100
AcDbEntity
  8
YKK_B2
100
AcDbLine
 10
4823.25453436
 20
2985.99589019
 30
0.0
 11
4816.25452038
 21
2978.99591347
 31
0.0
  0
LINE
  5
C40
330
2
100
AcDbEntity
  8
YKK_B2
100
AcDbLine
 10
4817.59766506
 20
2985.99589019
 30
0.0
 11
4815.00034946
 21
2983.39858842
 31
0.0
  0
LINE
  5
C41
330
2
100
AcDbEntity
  8
YKK_B2
100
AcDbLine
 10
5784.99971339
 20
2983.11086823
 30
0.0
 11
5780.88477291
 21
2978.99590585
 31
0.0
  0
LINE
  5
C42
330
2
100
AcDbEntity
  8
YKK_B2
100
AcDbLine
 10
5782.2278808
 20
2985.99589019
 30
0.0
 11
5775.22791866
 21
2978.9958908
 31
0.0
  0
LINE
  5
C43
330
2
100
AcDbEntity
  8
YKK_B2
100
AcDbLine
 10
5776.5710416
 20
2985.99589019
 30
0.0
 11
5774.99972168
 21
2984.4245619
 31
0.0
  0
LINE
  5
C44
330
2
100
AcDbEntity
  8
YKK_B2
100
AcDbLine
 10
5791.81044609
 20
2986.18547518
 30
0.0
 11
5791.62086008
 21
2985.99589019
 31
0.0
  0
LINE
  5
C45
330
2
100
AcDbEntity
  8
YKK_B2
100
AcDbLine
 10
5790.39623252
 20
2987.59968875
 30
0.0
 11
5788.79242543
 21
2985.99589019
 31
0.0
  0
LINE
  5
C46
330
2
100
AcDbEntity
  8
YKK_B2
100
AcDbLine
 10
5788.98201896
 20
2989.01390231
 30
0.0
 11
5785.96399078
 21
2985.99589019
 31
0.0
  0
LINE
  5
C47
330
2
100
AcDbEntity
  8
YKK_B2
100
AcDbLine
 10
5787.5678054
 20
2990.42811587
 30
0.0
 11
5785.00003108
 21
2987.86035522
 31
0.0
  0
LINE
  5
C48
330
2
100
AcDbEntity
  8
YKK_B2
100
AcDbLine
 10
5786.15359184
 20
2991.84232943
 30
0.0
 11
5785.00003108
 21
2990.68877482
 31
0.0
  0
LINE
  5
C49
330
2
100
AcDbEntity
  8
YKK_B2
100
AcDbLine
 10
4815.00003097
 20
2988.03316801
 30
0.0
 11
4812.9627423
 21
2985.99589019
 31
0.0
  0
LINE
  5
C4A
330
2
100
AcDbEntity
  8
YKK_B2
100
AcDbLine
 10
4815.00003097
 20
2990.86158761
 30
0.0
 11
4810.13430765
 21
2985.99589019
 31
0.0
  0
LINE
  5
C4B
330
2
100
AcDbEntity
  8
YKK_B2
100
AcDbLine
 10
4833.56146008
 20
3000.93531771
 30
0.0
 11
4833.65962515
 21
3001.03348278
 31
0.0
  0
LINE
  5
C4C
330
2
100
AcDbEntity
  8
YKK_B2
100
AcDbLine
 10
4834.76958491
 20
2996.48658829
 30
0.0
 11
4840.50838143
 21
3002.22538481
 31
0.0
  0
LINE
  5
C4D
330
2
100
AcDbEntity
  8
YKK_B2
100
AcDbLine
 10
4839.9333013
 20
2995.99345042
 30
0.0
 11
4847.35713771
 21
3003.41728683
 31
0.0
  0
LINE
  5
C4E
330
2
100
AcDbEntity
  8
YKK_B2
100
AcDbLine
 10
4845.59086477
 20
2995.99415964
 30
0.0
 11
4854.20589398
 21
3004.60918886
 31
0.0
  0
LINE
  5
C4F
330
2
100
AcDbEntity
  8
YKK_B2
100
AcDbLine
 10
4851.24842824
 20
2995.99486887
 30
0.0
 11
4860.94083622
 21
3005.68727685
 31
0.0
  0
LINE
  5
C50
330
2
100
AcDbEntity
  8
YKK_B2
100
AcDbLine
 10
4856.90599171
 20
2995.99557809
 30
0.0
 11
4861.54316055
 21
3000.63274693
 31
0.0
  0
LINE
  5
C51
330
2
100
AcDbEntity
  8
YKK_B2
100
AcDbLine
 10
5738.84242365
 20
3003.86908866
 30
0.0
 11
5740.50328381
 21
3005.52994882
 31
0.0
  0
LINE
  5
C52
330
2
100
AcDbEntity
  8
YKK_B2
100
AcDbLine
 10
5738.19855848
 20
2997.56836924
 30
0.0
 11
5745.32160133
 21
3004.69141209
 31
0.0
  0
LINE
  5
C53
330
2
100
AcDbEntity
  8
YKK_B2
100
AcDbLine
 10
5742.28300942
 20
2995.99596593
 30
0.0
 11
5750.13991884
 21
3003.85287535
 31
0.0
  0
LINE
  5
C54
330
2
100
AcDbEntity
  8
YKK_B2
100
AcDbLine
 10
5747.93986367
 20
2995.99596593
 30
0.0
 11
5754.95823636
 21
3003.01433862
 31
0.0
  0
LINE
  5
C55
330
2
100
AcDbEntity
  8
YKK_B2
100
AcDbLine
 10
5753.59671792
 20
2995.99596593
 30
0.0
 11
5759.77655388
 21
3002.17580189
 31
0.0
  0
LINE
  5
C56
330
2
100
AcDbEntity
  8
YKK_B2
100
AcDbLine
 10
5759.25357217
 20
2995.99596593
 30
0.0
 11
5764.5948714
 21
3001.33726516
 31
0.0
  0
LINE
  5
C57
330
2
100
AcDbEntity
  8
YKK_B2
100
AcDbLine
 10
5764.48583269
 20
2995.57137221
 30
0.0
 11
5765.21412166
 21
2996.29966117
 31
0.0
  0
LINE
  5
C58
330
2
100
AcDbEntity
  8
YKK_B2
100
AcDbLine
 10
4924.38028715
 20
2874.99596594
 30
0.0
 11
4935.00003103
 21
2864.37622206
 31
0.0
  0
LINE
  5
C59
330
2
100
AcDbEntity
  8
YKK_B2
100
AcDbLine
 10
4915.40003103
 20
2861.52558175
 30
0.0
 11
4935.00003103
 21
2841.92558175
 31
0.0
  0
LINE
  5
C5A
330
2
100
AcDbEntity
  8
YKK_B2
100
AcDbLine
 10
4915.40003103
 20
2839.07494145
 30
0.0
 11
4921.70003103
 21
2832.77494145
 31
0.0
  0
LINE
  5
C5B
330
2
100
AcDbEntity
  8
YKK_B2
100
AcDbLine
 10
4929.40003103
 20
2825.07494145
 30
0.0
 11
4935.00003103
 21
2819.47494145
 31
0.0
  0
LINE
  5
C5C
330
2
100
AcDbEntity
  8
YKK_B2
100
AcDbLine
 10
5684.60003102
 20
2830.09468534
 30
0.0
 11
5678.30003102
 21
2823.79468534
 31
0.0
  0
LINE
  5
C5D
330
2
100
AcDbEntity
  8
YKK_B2
100
AcDbLine
 10
5684.60003102
 20
2852.54532564
 30
0.0
 11
5665.00003102
 21
2832.94532564
 31
0.0
  0
LINE
  5
C5E
330
2
100
AcDbEntity
  8
YKK_B2
100
AcDbLine
 10
5684.60003102
 20
2874.99596594
 30
0.0
 11
5665.00003102
 21
2855.39596594
 31
0.0
  0
LINE
  5
C5F
330
2
100
AcDbEntity
  8
YKK_B2
100
AcDbLine
 10
5671.00003102
 20
2813.47038419
 30
0.0
 11
5678.00003102
 21
2820.47038419
 31
0.0
  0
LINE
  5
C60
330
2
100
AcDbEntity
  8
YKK_B2
100
AcDbLine
 10
5679.98028715
 20
2800.00000001
 30
0.0
 11
5693.98028715
 21
2814.00000001
 31
0.0
  0
LINE
  5
C61
330
2
100
AcDbEntity
  8
YKK_B2
100
AcDbLine
 10
5702.43092745
 20
2800.00000001
 30
0.0
 11
5716.43092745
 21
2814.00000001
 31
0.0
  0
LINE
  5
C62
330
2
100
AcDbEntity
  8
YKK_B2
100
AcDbLine
 10
5724.88156775
 20
2800.00000001
 30
0.0
 11
5738.88156775
 21
2814.00000001
 31
0.0
  0
LINE
  5
C63
330
2
100
AcDbEntity
  8
YKK_B2
100
AcDbLine
 10
5747.33220805
 20
2800.00000001
 30
0.0
 11
5761.00003102
 21
2813.66782298
 31
0.0
  0
LINE
  5
C64
330
2
100
AcDbEntity
  8
YKK_B2
100
AcDbLine
 10
4857.15798206
 20
2800.00000001
 30
0.0
 11
4843.15798206
 21
2814.00000001
 31
0.0
  0
LINE
  5
C65
330
2
100
AcDbEntity
  8
YKK_B2
100
AcDbLine
 10
4879.60862236
 20
2800.00000001
 30
0.0
 11
4865.60862236
 21
2814.00000001
 31
0.0
  0
LINE
  5
C66
330
2
100
AcDbEntity
  8
YKK_B2
100
AcDbLine
 10
4902.05926266
 20
2800.00000001
 30
0.0
 11
4888.05926266
 21
2814.00000001
 31
0.0
  0
LINE
  5
C67
330
2
100
AcDbEntity
  8
YKK_B2
100
AcDbLine
 10
4924.50990297
 20
2800.00000001
 30
0.0
 11
4910.50990297
 21
2814.00000001
 31
0.0
  0
LINE
  5
C68
330
2
100
AcDbEntity
  8
YKK_B2
100
AcDbLine
 10
4929.00003103
 20
2817.96051225
 30
0.0
 11
4922.00003103
 21
2824.96051225
 31
0.0
  0
ARC
  5
C69
330
2
100
AcDbEntity
  8
YKK_B2
  6
Continuous
 48
0.5
370
    30
100
AcDbCircle
 10
4926.00003055
 20
2803.00000049
 30
0.0
 40
3.000000490192445
100
AcDbArc
 50
270.00000936
 51
359.99999064
  0
LINE
  5
C6A
330
2
100
AcDbEntity
  8
YKK_B2
  6
Continuous
 48
0.5
370
    30
100
AcDbLine
 10
4929.00003104
 20
2828.0
 30
0.0
 11
4929.00003104
 21
2803.0
 31
0.0
  0
LINE
  5
C6B
330
2
100
AcDbEntity
  8
YKK_B2
  6
Continuous
 48
0.5
370
    30
100
AcDbLine
 10
4922.00003104
 20
2828.0
 30
0.0
 11
4929.00003104
 21
2828.0
 31
0.0
  0
LINE
  5
C6C
330
2
100
AcDbEntity
  8
YKK_B2
  6
Continuous
 48
0.5
370
    30
100
AcDbLine
 10
4922.00003104
 20
2814.0
 30
0.0
 11
4922.00003104
 21
2828.0
 31
0.0
  0
LINE
  5
C6D
330
2
100
AcDbEntity
  8
YKK_B2
  6
Continuous
 48
0.5
370
    30
100
AcDbLine
 10
4839.00003104
 20
2814.0
 30
0.0
 11
4922.00003104
 21
2814.0
 31
0.0
  0
LINE
  5
C6E
330
2
100
AcDbEntity
  8
YKK_B2
  6
Continuous
 48
0.5
370
    30
100
AcDbLine
 10
4839.00003104
 20
2803.0
 30
0.0
 11
4839.00003104
 21
2814.0
 31
0.0
  0
ARC
  5
C6F
330
2
100
AcDbEntity
  8
YKK_B2
  6
Continuous
 48
0.5
370
    30
100
AcDbCircle
 10
4842.00003153
 20
2803.00000049
 30
0.0
 40
3.000000490192445
100
AcDbArc
 50
180.00000936
 51
269.99999064
  0
LINE
  5
C70
330
2
100
AcDbEntity
  8
YKK_B2
  6
Continuous
 48
0.5
370
    30
100
AcDbLine
 10
4926.00003104
 20
2800.0
 30
0.0
 11
4842.00003104
 21
2800.0
 31
0.0
  0
ARC
  5
C71
330
2
100
AcDbEntity
  8
YKK_B2
  6
Continuous
 48
0.5
370
    30
100
AcDbCircle
 10
5674.00003151
 20
2803.00000049
 30
0.0
 40
3.000000490192445
100
AcDbArc
 50
180.00000936
 51
269.99999064
  0
LINE
  5
C72
330
2
100
AcDbEntity
  8
YKK_B2
  6
Continuous
 48
0.5
370
    30
100
AcDbLine
 10
5671.00003101
 20
2828.0
 30
0.0
 11
5671.00003101
 21
2803.0
 31
0.0
  0
LINE
  5
C73
330
2
100
AcDbEntity
  8
YKK_B2
  6
Continuous
 48
0.5
370
    30
100
AcDbLine
 10
5678.00003101
 20
2828.0
 30
0.0
 11
5671.00003101
 21
2828.0
 31
0.0
  0
LINE
  5
C74
330
2
100
AcDbEntity
  8
YKK_B2
  6
Continuous
 48
0.5
370
    30
100
AcDbLine
 10
5678.00003101
 20
2814.0
 30
0.0
 11
5678.00003101
 21
2828.0
 31
0.0
  0
LINE
  5
C75
330
2
100
AcDbEntity
  8
YKK_B2
  6
Continuous
 48
0.5
370
    30
100
AcDbLine
 10
5761.00003101
 20
2814.0
 30
0.0
 11
5678.00003101
 21
2814.0
 31
0.0
  0
LINE
  5
C76
330
2
100
AcDbEntity
  8
YKK_B2
  6
Continuous
 48
0.5
370
    30
100
AcDbLine
 10
5761.00003101
 20
2803.0
 30
0.0
 11
5761.00003101
 21
2814.0
 31
0.0
  0
ARC
  5
C77
330
2
100
AcDbEntity
  8
YKK_B2
  6
Continuous
 48
0.5
370
    30
100
AcDbCircle
 10
5758.00003052
 20
2803.00000049
 30
0.0
 40
3.000000490192445
100
AcDbArc
 50
270.00000936
 51
359.99999064
  0
LINE
  5
C78
330
2
100
AcDbEntity
  8
YKK_B2
  6
Continuous
 48
0.5
370
    30
100
AcDbLine
 10
5674.00003101
 20
2800.0
 30
0.0
 11
5758.00003101
 21
2800.0
 31
0.0
  0
LINE
  5
C79
330
2
100
AcDbEntity
  8
YKK_B2
  6
Continuous
 48
0.5
370
    30
100
AcDbLine
 10
5670.60003102
 20
2817.99595794
 30
0.0
 11
5665.00003102
 21
2817.99595794
 31
0.0
  0
LINE
  5
C7A
330
2
100
AcDbEntity
  8
YKK_B2
  6
Continuous
 48
0.5
370
    30
100
AcDbLine
 10
5670.60003102
 20
2832.99596594
 30
0.0
 11
5670.60003102
 21
2817.99595794
 31
0.0
  0
LINE
  5
C7B
330
2
100
AcDbEntity
  8
YKK_B2
  6
Continuous
 48
0.5
370
    30
100
AcDbLine
 10
5678.30003102
 20
2832.99596594
 30
0.0
 11
5670.60003102
 21
2832.99596594
 31
0.0
  0
LINE
  5
C7C
330
2
100
AcDbEntity
  8
YKK_B2
  6
Continuous
 48
0.5
370
    30
100
AcDbLine
 10
5678.30003102
 20
2817.99595794
 30
0.0
 11
5678.30003102
 21
2832.99596594
 31
0.0
  0
LINE
  5
C7D
330
2
100
AcDbEntity
  8
YKK_B2
  6
Continuous
 48
0.5
370
    30
100
AcDbLine
 10
5684.60003102
 20
2817.99595794
 30
0.0
 11
5678.30003102
 21
2817.99595794
 31
0.0
  0
LINE
  5
C7E
330
2
100
AcDbEntity
  8
YKK_B2
  6
Continuous
 48
0.5
370
    30
100
AcDbLine
 10
5684.60003102
 20
2874.99596594
 30
0.0
 11
5684.60003102
 21
2817.99595794
 31
0.0
  0
LINE
  5
C7F
330
2
100
AcDbEntity
  8
YKK_B2
  6
Continuous
 48
0.5
370
    30
100
AcDbLine
 10
5665.00003102
 20
2874.99596594
 30
0.0
 11
5684.60003102
 21
2874.99596594
 31
0.0
  0
LINE
  5
C80
330
2
100
AcDbEntity
  8
YKK_B2
  6
Continuous
 48
0.5
370
    30
100
AcDbLine
 10
5665.00003102
 20
2817.99595794
 30
0.0
 11
5665.00003102
 21
2874.99596594
 31
0.0
  0
LINE
  5
C81
330
2
100
AcDbEntity
  8
YKK_B2
  6
Continuous
 48
0.5
370
    30
100
AcDbLine
 10
4929.40003103
 20
2817.99595794
 30
0.0
 11
4935.00003103
 21
2817.99595794
 31
0.0
  0
LINE
  5
C82
330
2
100
AcDbEntity
  8
YKK_B2
  6
Continuous
 48
0.5
370
    30
100
AcDbLine
 10
4929.40003103
 20
2832.99596594
 30
0.0
 11
4929.40003103
 21
2817.99595794
 31
0.0
  0
LINE
  5
C83
330
2
100
AcDbEntity
  8
YKK_B2
  6
Continuous
 48
0.5
370
    30
100
AcDbLine
 10
4921.70003103
 20
2832.99596594
 30
0.0
 11
4929.40003103
 21
2832.99596594
 31
0.0
  0
LINE
  5
C84
330
2
100
AcDbEntity
  8
YKK_B2
  6
Continuous
 48
0.5
370
    30
100
AcDbLine
 10
4921.70003103
 20
2817.99595794
 30
0.0
 11
4921.70003103
 21
2832.99596594
 31
0.0
  0
LINE
  5
C85
330
2
100
AcDbEntity
  8
YKK_B2
  6
Continuous
 48
0.5
370
    30
100
AcDbLine
 10
4915.40003103
 20
2817.99595794
 30
0.0
 11
4921.70003103
 21
2817.99595794
 31
0.0
  0
LINE
  5
C86
330
2
100
AcDbEntity
  8
YKK_B2
  6
Continuous
 48
0.5
370
    30
100
AcDbLine
 10
4915.40003103
 20
2874.99596594
 30
0.0
 11
4915.40003103
 21
2817.99595794
 31
0.0
  0
LINE
  5
C87
330
2
100
AcDbEntity
  8
YKK_B2
  6
Continuous
 48
0.5
370
    30
100
AcDbLine
 10
4935.00003103
 20
2874.99596594
 30
0.0
 11
4915.40003103
 21
2874.99596594
 31
0.0
  0
LINE
  5
C88
330
2
100
AcDbEntity
  8
YKK_B2
  6
Continuous
 48
0.5
370
    30
100
AcDbLine
 10
4935.00003103
 20
2817.99595794
 30
0.0
 11
4935.00003103
 21
2874.99596594
 31
0.0
  0
LINE
  5
C89
330
2
100
AcDbEntity
  8
YKK_Z1
  6
Continuous
 48
1.5
370
    13
100
AcDbLine
 10
5743.99979434
 20
2813.99595831
 30
0.0
 11
5743.99979434
 21
2859.99589011
 31
0.0
  0
LINE
  5
C8A
330
2
100
AcDbEntity
  8
YKK_Z1
  6
Continuous
 48
1.5
370
    13
100
AcDbLine
 10
5684.60003102
 20
2813.99595831
 30
0.0
 11
5743.99979434
 21
2813.99595831
 31
0.0
  0
LINE
  5
C8B
330
2
100
AcDbEntity
  8
YKK_Z1
  6
Continuous
 48
1.5
370
    13
100
AcDbLine
 10
5684.60003102
 20
2859.99589011
 30
0.0
 11
5684.60003102
 21
2813.99595831
 31
0.0
  0
LINE
  5
C8C
330
2
100
AcDbEntity
  8
YKK_Z1
  6
Continuous
 48
1.5
370
    13
100
AcDbLine
 10
5743.99979434
 20
2859.99589011
 30
0.0
 11
5684.60003102
 21
2859.99589011
 31
0.0
  0
LINE
  5
C8D
330
2
100
AcDbEntity
  8
YKK_Z1
  6
Continuous
 48
1.5
370
    13
100
AcDbLine
 10
4915.40003103
 20
2859.99596592
 30
0.0
 11
4915.40003103
 21
2814.00000001
 31
0.0
  0
LINE
  5
C8E
330
2
100
AcDbEntity
  8
YKK_Z1
  6
Continuous
 48
1.5
370
    13
100
AcDbLine
 10
4856.00846403
 20
2859.99596592
 30
0.0
 11
4915.40003103
 21
2859.99596592
 31
0.0
  0
LINE
  5
C8F
330
2
100
AcDbEntity
  8
YKK_Z1
  6
Continuous
 48
1.5
370
    13
100
AcDbLine
 10
4856.00846403
 20
2813.99595831
 30
0.0
 11
4856.00846403
 21
2859.99596592
 31
0.0
  0
LINE
  5
C90
330
2
100
AcDbEntity
  8
YKK_Z1
  6
Continuous
 48
1.5
370
    13
100
AcDbLine
 10
4915.40003103
 20
2814.00000001
 30
0.0
 11
4856.00846403
 21
2813.99595831
 31
0.0
  0
LINE
  5
C91
330
2
100
AcDbEntity
  8
YKK_B2
  6
Continuous
 48
1.5
370
    13
100
AcDbLine
 10
5792.00003108
 20
2985.99589019
 30
0.0
 11
5785.00003108
 21
2985.99589019
 31
0.0
  0
LINE
  5
C92
330
2
100
AcDbEntity
  8
YKK_B2
  6
Continuous
 48
1.5
370
    13
100
AcDbLine
 10
5785.00003108
 20
2992.99589019
 30
0.0
 11
5792.00003108
 21
2985.99589019
 31
0.0
  0
LINE
  5
C93
330
2
100
AcDbEntity
  8
YKK_B2
  6
Continuous
 48
1.5
370
    13
100
AcDbLine
 10
5785.00003108
 20
2985.99589019
 30
0.0
 11
5785.00003108
 21
2992.99589019
 31
0.0
  0
LINE
  5
C94
330
2
100
AcDbEntity
  8
YKK_B2
  6
Continuous
 48
1.5
370
    13
100
AcDbLine
 10
4808.00003097
 20
2985.99589019
 30
0.0
 11
4815.00003097
 21
2985.99589019
 31
0.0
  0
LINE
  5
C95
330
2
100
AcDbEntity
  8
YKK_B2
  6
Continuous
 48
1.5
370
    13
100
AcDbLine
 10
4815.00003097
 20
2992.99589019
 30
0.0
 11
4808.00003097
 21
2985.99589019
 31
0.0
  0
LINE
  5
C96
330
2
100
AcDbEntity
  8
YKK_B2
  6
Continuous
 48
1.5
370
    13
100
AcDbLine
 10
4815.00003097
 20
2985.99589019
 30
0.0
 11
4815.00003097
 21
2992.99589019
 31
0.0
  0
LINE
  5
C97
330
2
100
AcDbEntity
  8
YKK_Z1
  6
Continuous
 48
1.5
370
    13
100
AcDbLine
 10
5690.00003105
 20
2859.99596592
 30
0.0
 11
5690.00003105
 21
2897.49596594
 31
0.0
  0
LINE
  5
C98
330
2
100
AcDbEntity
  8
YKK_Z1
  6
Continuous
 48
1.5
370
    13
100
AcDbLine
 10
5719.99990255
 20
2859.99596592
 30
0.0
 11
5690.00003105
 21
2859.99596592
 31
0.0
  0
LINE
  5
C99
330
2
100
AcDbEntity
  8
YKK_Z1
  6
Continuous
 48
1.5
370
    13
100
AcDbLine
 10
5719.99990255
 20
2897.49596594
 30
0.0
 11
5719.99990255
 21
2859.99596592
 31
0.0
  0
LINE
  5
C9A
330
2
100
AcDbEntity
  8
YKK_Z1
  6
Continuous
 48
1.5
370
    13
100
AcDbLine
 10
5690.00003105
 20
2897.49596594
 30
0.0
 11
5719.99990255
 21
2897.49596594
 31
0.0
  0
LINE
  5
C9B
330
2
100
AcDbEntity
  8
YKK_Z1
  6
Continuous
 48
1.5
370
    13
100
AcDbLine
 10
4910.000031
 20
2859.99596592
 30
0.0
 11
4910.000031
 21
2897.49596594
 31
0.0
  0
LINE
  5
C9C
330
2
100
AcDbEntity
  8
YKK_Z1
  6
Continuous
 48
1.5
370
    13
100
AcDbLine
 10
4880.0001595
 20
2859.99596592
 30
0.0
 11
4910.000031
 21
2859.99596592
 31
0.0
  0
LINE
  5
C9D
330
2
100
AcDbEntity
  8
YKK_Z1
  6
Continuous
 48
1.5
370
    13
100
AcDbLine
 10
4880.0001595
 20
2897.49596594
 30
0.0
 11
4880.0001595
 21
2859.99596592
 31
0.0
  0
LINE
  5
C9E
330
2
100
AcDbEntity
  8
YKK_Z1
  6
Continuous
 48
1.5
370
    13
100
AcDbLine
 10
4910.000031
 20
2897.49596594
 30
0.0
 11
4880.0001595
 21
2897.49596594
 31
0.0
  0
LINE
  5
C9F
330
2
100
AcDbEntity
  8
YKK_Z1
  6
Continuous
 48
1.5
370
    13
100
AcDbLine
 10
5743.99979434
 20
2859.99589011
 30
0.0
 11
5743.99979434
 21
2915.99585866
 31
0.0
  0
LINE
  5
CA0
330
2
100
AcDbEntity
  8
YKK_Z1
  6
Continuous
 48
1.5
370
    13
100
AcDbLine
 10
5719.99986856
 20
2859.99589011
 30
0.0
 11
5743.99979434
 21
2859.99589011
 31
0.0
  0
LINE
  5
CA1
330
2
100
AcDbEntity
  8
YKK_Z1
  6
Continuous
 48
1.5
370
    13
100
AcDbLine
 10
5719.99986856
 20
2915.99585866
 30
0.0
 11
5719.99986856
 21
2859.99589011
 31
0.0
  0
LINE
  5
CA2
330
2
100
AcDbEntity
  8
YKK_Z1
  6
Continuous
 48
1.5
370
    13
100
AcDbLine
 10
5743.99979434
 20
2915.99585866
 30
0.0
 11
5719.99986856
 21
2915.99585866
 31
0.0
  0
LINE
  5
CA3
330
2
100
AcDbEntity
  8
YKK_Z1
  6
Continuous
 48
1.5
370
    13
100
AcDbLine
 10
4856.00846403
 20
2859.99596592
 30
0.0
 11
4856.00846403
 21
2915.99585866
 31
0.0
  0
LINE
  5
CA4
330
2
100
AcDbEntity
  8
YKK_Z1
  6
Continuous
 48
1.5
370
    13
100
AcDbLine
 10
4880.0001595
 20
2859.99596592
 30
0.0
 11
4856.00846403
 21
2859.99596592
 31
0.0
  0
LINE
  5
CA5
330
2
100
AcDbEntity
  8
YKK_Z1
  6
Continuous
 48
1.5
370
    13
100
AcDbLine
 10
4880.0001595
 20
2915.99585866
 30
0.0
 11
4880.0001595
 21
2859.99596592
 31
0.0
  0
LINE
  5
CA6
330
2
100
AcDbEntity
  8
YKK_Z1
  6
Continuous
 48
1.5
370
    13
100
AcDbLine
 10
4856.00846403
 20
2915.99585866
 30
0.0
 11
4880.0001595
 21
2915.99585866
 31
0.0
  0
LINE
  5
CA7
330
2
100
AcDbEntity
  8
YKK_Z1
  6
Continuous
 48
1.5
370
    13
100
AcDbLine
 10
5759.99973175
 20
2825.9985341
 30
0.0
 11
5755.99973175
 21
2825.9985341
 31
0.0
  0
LINE
  5
CA8
330
2
100
AcDbEntity
  8
YKK_Z1
  6
Continuous
 48
1.5
370
    13
100
AcDbLine
 10
5759.99973175
 20
2900.9985341
 30
0.0
 11
5759.99973175
 21
2825.9985341
 31
0.0
  0
LINE
  5
CA9
330
2
100
AcDbEntity
  8
YKK_Z1
  6
Continuous
 48
1.5
370
    13
100
AcDbLine
 10
5755.99973175
 20
2900.9985341
 30
0.0
 11
5759.99973175
 21
2900.9985341
 31
0.0
  0
LINE
  5
CAA
330
2
100
AcDbEntity
  8
YKK_Z1
  6
Continuous
 48
1.5
370
    13
100
AcDbLine
 10
5755.99973175
 20
2825.9985341
 30
0.0
 11
5755.99973175
 21
2900.9985341
 31
0.0
  0
LINE
  5
CAB
330
2
100
AcDbEntity
  8
YKK_Z1
  6
Continuous
 48
1.5
370
    13
100
AcDbLine
 10
5770.49983808
 20
2930.99587466
 30
0.0
 11
5770.49983808
 21
2825.99587466
 31
0.0
  0
LINE
  5
CAC
330
2
100
AcDbEntity
  8
YKK_Z1
  6
Continuous
 48
1.5
370
    13
100
AcDbLine
 10
5759.99983808
 20
2930.99587466
 30
0.0
 11
5770.49983808
 21
2930.99587466
 31
0.0
  0
LINE
  5
CAD
330
2
100
AcDbEntity
  8
YKK_Z1
  6
Continuous
 48
1.5
370
    13
100
AcDbLine
 10
5759.99983808
 20
2825.99587466
 30
0.0
 11
5759.99983808
 21
2930.99587466
 31
0.0
  0
LINE
  5
CAE
330
2
100
AcDbEntity
  8
YKK_Z1
  6
Continuous
 48
1.5
370
    13
100
AcDbLine
 10
5770.49983808
 20
2825.99587466
 30
0.0
 11
5759.99983808
 21
2825.99587466
 31
0.0
  0
LINE
  5
CAF
330
2
100
AcDbEntity
  8
YKK_Z1
  6
Continuous
 48
1.5
370
    13
100
AcDbLine
 10
5831.56574278
 20
2955.99589019
 30
0.0
 11
5824.29923751
 21
2955.99589019
 31
0.0
  0
LINE
  5
CB0
330
2
100
AcDbEntity
  8
YKK_Z1
  6
Continuous
 48
1.5
370
    13
100
AcDbLine
 10
5824.29923751
 20
2955.99589019
 30
0.0
 11
5817.03273223
 21
2955.99589019
 31
0.0
  0
LINE
  5
CB1
330
2
100
AcDbEntity
  8
YKK_Z1
  6
Continuous
 48
1.5
370
    13
100
AcDbLine
 10
5836.0141655
 20
2955.99589019
 30
0.0
 11
5831.56574278
 21
2955.99589019
 31
0.0
  0
LINE
  5
CB2
330
2
100
AcDbEntity
  8
YKK_Z1
  6
Continuous
 48
1.5
370
    13
100
AcDbLine
 10
5817.03273223
 20
2955.99589019
 30
0.0
 11
5809.76622695
 21
2955.99589019
 31
0.0
  0
LINE
  5
CB3
330
2
100
AcDbEntity
  8
YKK_Z1
  6
Continuous
 48
1.5
370
    13
100
AcDbLine
 10
5809.76622695
 20
2955.99589019
 30
0.0
 11
5802.49972168
 21
2955.99589019
 31
0.0
  0
LINE
  5
CB4
330
2
100
AcDbEntity
  8
YKK_B2
  6
Continuous
 48
1.5
370
    13
100
AcDbLine
 10
5784.24970571
 20
2985.99589019
 30
0.0
 11
5784.99970571
 21
2985.9959168
 31
0.0
  0
LINE
  5
CB5
330
2
100
AcDbEntity
  8
YKK_B2
  6
Continuous
 48
1.5
370
    13
100
AcDbLine
 10
5775.74972367
 20
2985.99589019
 30
0.0
 11
5784.24970571
 21
2985.99589019
 31
0.0
  0
LINE
  5
CB6
330
2
100
AcDbEntity
  8
YKK_B2
  6
Continuous
 48
1.5
370
    13
100
AcDbLine
 10
5774.99972168
 20
2985.99589019
 30
0.0
 11
5775.74972367
 21
2985.99589019
 31
0.0
  0
LINE
  5
CB7
330
2
100
AcDbEntity
  8
YKK_B2
  6
Continuous
 48
1.5
370
    13
100
AcDbLine
 10
5775.74972367
 20
2985.99589019
 30
0.0
 11
5774.99972168
 21
2985.99589019
 31
0.0
  0
LINE
  5
CB8
330
2
100
AcDbEntity
  8
YKK_B2
  6
Continuous
 48
1.5
370
    13
100
AcDbLine
 10
5784.24970571
 20
2985.99589019
 30
0.0
 11
5775.74972367
 21
2985.99589019
 31
0.0
  0
LINE
  5
CB9
330
2
100
AcDbEntity
  8
YKK_B2
  6
Continuous
 48
1.5
370
    13
100
AcDbLine
 10
5784.99970571
 20
2985.9959168
 30
0.0
 11
5784.24970571
 21
2985.99589019
 31
0.0
  0
LINE
  5
CBA
330
2
100
AcDbEntity
  8
YKK_B2
  6
Continuous
 48
1.5
370
    13
100
AcDbLine
 10
5784.999727
 20
2977.9959168
 30
0.0
 11
5784.99970571
 21
2985.9959168
 31
0.0
  0
LINE
  5
CBB
330
2
100
AcDbEntity
  8
YKK_B2
  6
Continuous
 48
1.5
370
    13
100
AcDbLine
 10
5774.99972168
 20
2978.99589019
 30
0.0
 11
5784.99972434
 21
2978.9959168
 31
0.0
  0
LINE
  5
CBC
330
2
100
AcDbEntity
  8
YKK_B2
  6
Continuous
 48
1.5
370
    13
100
AcDbLine
 10
5774.99972168
 20
2985.99589019
 30
0.0
 11
5774.99972168
 21
2977.99589285
 31
0.0
  0
LINE
  5
CBD
330
2
100
AcDbEntity
  8
YKK_Z1
  6
Continuous
 48
1.5
370
    13
100
AcDbLine
 10
5784.999727
 20
2977.9959168
 30
0.0
 11
5784.99973765
 21
2973.9959168
 31
0.0
  0
LINE
  5
CBE
330
2
100
AcDbEntity
  8
YKK_B2
  6
Continuous
 48
1.5
370
    13
100
AcDbLine
 10
5774.99972168
 20
2978.99589019
 30
0.0
 11
5784.99972434
 21
2978.9959168
 31
0.0
  0
LINE
  5
CBF
330
2
100
AcDbEntity
  8
YKK_Z1
  6
Continuous
 48
1.5
370
    13
100
AcDbLine
 10
5774.99972168
 20
2973.99589019
 30
0.0
 11
5774.99972168
 21
2977.99589285
 31
0.0
  0
LINE
  5
CC0
330
2
100
AcDbEntity
  8
YKK_Z1
  6
Continuous
 48
1.5
370
    13
100
AcDbLine
 10
5784.99973765
 20
2973.9959168
 30
0.0
 11
5774.99972168
 21
2973.99589019
 31
0.0
  0
LINE
  5
CC1
330
2
100
AcDbEntity
  8
YKK_Z1
  6
Continuous
 48
1.5
370
    13
100
AcDbLine
 10
4840.00033033
 20
2825.9985341
 30
0.0
 11
4844.00033033
 21
2825.9985341
 31
0.0
  0
LINE
  5
CC2
330
2
100
AcDbEntity
  8
YKK_Z1
  6
Continuous
 48
1.5
370
    13
100
AcDbLine
 10
4840.00033033
 20
2900.9985341
 30
0.0
 11
4840.00033033
 21
2825.9985341
 31
0.0
  0
LINE
  5
CC3
330
2
100
AcDbEntity
  8
YKK_Z1
  6
Continuous
 48
1.5
370
    13
100
AcDbLine
 10
4844.00033033
 20
2900.9985341
 30
0.0
 11
4840.00033033
 21
2900.9985341
 31
0.0
  0
LINE
  5
CC4
330
2
100
AcDbEntity
  8
YKK_Z1
  6
Continuous
 48
1.5
370
    13
100
AcDbLine
 10
4844.00033033
 20
2825.9985341
 30
0.0
 11
4844.00033033
 21
2900.9985341
 31
0.0
  0
LINE
  5
CC5
330
2
100
AcDbEntity
  8
YKK_Z1
  6
Continuous
 48
1.5
370
    13
100
AcDbLine
 10
4829.500224
 20
2930.99587466
 30
0.0
 11
4829.500224
 21
2825.99587466
 31
0.0
  0
LINE
  5
CC6
330
2
100
AcDbEntity
  8
YKK_Z1
  6
Continuous
 48
1.5
370
    13
100
AcDbLine
 10
4840.000224
 20
2930.99587466
 30
0.0
 11
4829.500224
 21
2930.99587466
 31
0.0
  0
LINE
  5
CC7
330
2
100
AcDbEntity
  8
YKK_Z1
  6
Continuous
 48
1.5
370
    13
100
AcDbLine
 10
4840.000224
 20
2825.99587466
 30
0.0
 11
4840.000224
 21
2930.99587466
 31
0.0
  0
LINE
  5
CC8
330
2
100
AcDbEntity
  8
YKK_Z1
  6
Continuous
 48
1.5
370
    13
100
AcDbLine
 10
4829.500224
 20
2825.99587466
 30
0.0
 11
4840.000224
 21
2825.99587466
 31
0.0
  0
LINE
  5
CC9
330
2
100
AcDbEntity
  8
YKK_Z1
  6
Continuous
 48
1.5
370
    13
100
AcDbLine
 10
4768.4343193
 20
2955.99589019
 30
0.0
 11
4775.70082458
 21
2955.99589019
 31
0.0
  0
LINE
  5
CCA
330
2
100
AcDbEntity
  8
YKK_Z1
  6
Continuous
 48
1.5
370
    13
100
AcDbLine
 10
4763.99409287
 20
2955.99589019
 30
0.0
 11
4768.4343193
 21
2955.99589019
 31
0.0
  0
LINE
  5
CCB
330
2
100
AcDbEntity
  8
YKK_Z1
  6
Continuous
 48
1.5
370
    13
100
AcDbLine
 10
4775.70082458
 20
2955.99589019
 30
0.0
 11
4797.5003404
 21
2955.99589019
 31
0.0
  0
LINE
  5
CCC
330
2
100
AcDbEntity
  8
YKK_B2
  6
Continuous
 48
1.5
370
    13
100
AcDbLine
 10
4815.75035637
 20
2985.99589019
 30
0.0
 11
4815.00035637
 21
2985.9959168
 31
0.0
  0
LINE
  5
CCD
330
2
100
AcDbEntity
  8
YKK_B2
  6
Continuous
 48
1.5
370
    13
100
AcDbLine
 10
4824.25033841
 20
2985.99589019
 30
0.0
 11
4815.75035637
 21
2985.99589019
 31
0.0
  0
LINE
  5
CCE
330
2
100
AcDbEntity
  8
YKK_B2
  6
Continuous
 48
1.5
370
    13
100
AcDbLine
 10
4825.0003404
 20
2985.99589019
 30
0.0
 11
4824.25033841
 21
2985.99589019
 31
0.0
  0
LINE
  5
CCF
330
2
100
AcDbEntity
  8
YKK_B2
  6
Continuous
 48
1.5
370
    13
100
AcDbLine
 10
4824.25033841
 20
2985.99589019
 30
0.0
 11
4825.0003404
 21
2985.99589019
 31
0.0
  0
LINE
  5
CD0
330
2
100
AcDbEntity
  8
YKK_B2
  6
Continuous
 48
1.5
370
    13
100
AcDbLine
 10
4815.75035637
 20
2985.99589019
 30
0.0
 11
4824.25033841
 21
2985.99589019
 31
0.0
  0
LINE
  5
CD1
330
2
100
AcDbEntity
  8
YKK_B2
  6
Continuous
 48
1.5
370
    13
100
AcDbLine
 10
4815.00035637
 20
2985.9959168
 30
0.0
 11
4815.75035637
 21
2985.99589019
 31
0.0
  0
LINE
  5
CD2
330
2
100
AcDbEntity
  8
YKK_B2
  6
Continuous
 48
1.5
370
    13
100
AcDbLine
 10
4815.00033508
 20
2977.9959168
 30
0.0
 11
4815.00035637
 21
2985.9959168
 31
0.0
  0
LINE
  5
CD3
330
2
100
AcDbEntity
  8
YKK_B2
  6
Continuous
 48
1.5
370
    13
100
AcDbLine
 10
4825.0003404
 20
2978.99589019
 30
0.0
 11
4815.00033774
 21
2978.9959168
 31
0.0
  0
LINE
  5
CD4
330
2
100
AcDbEntity
  8
YKK_B2
  6
Continuous
 48
1.5
370
    13
100
AcDbLine
 10
4825.0003404
 20
2985.99589019
 30
0.0
 11
4825.0003404
 21
2977.99589285
 31
0.0
  0
LINE
  5
CD5
330
2
100
AcDbEntity
  8
YKK_Z1
  6
Continuous
 48
1.5
370
    13
100
AcDbLine
 10
4815.00033508
 20
2977.9959168
 30
0.0
 11
4815.00032444
 21
2973.9959168
 31
0.0
  0
LINE
  5
CD6
330
2
100
AcDbEntity
  8
YKK_B2
  6
Continuous
 48
1.5
370
    13
100
AcDbLine
 10
4825.0003404
 20
2978.99589019
 30
0.0
 11
4815.00033774
 21
2978.9959168
 31
0.0
  0
LINE
  5
CD7
330
2
100
AcDbEntity
  8
YKK_Z1
  6
Continuous
 48
1.5
370
    13
100
AcDbLine
 10
4825.0003404
 20
2973.99589019
 30
0.0
 11
4825.0003404
 21
2977.99589285
 31
0.0
  0
LINE
  5
CD8
330
2
100
AcDbEntity
  8
YKK_Z1
  6
Continuous
 48
1.5
370
    13
100
AcDbLine
 10
4815.00032444
 20
2973.9959168
 30
0.0
 11
4825.0003404
 21
2973.99589019
 31
0.0
  0
LINE
  5
CD9
330
2
100
AcDbEntity
  8
YKK_Z1
  6
Continuous
 48
1.5
370
    13
100
AcDbLine
 10
4763.98589658
 20
2930.99587466
 30
0.0
 11
4829.500224
 21
2930.99587466
 31
0.0
  0
LINE
  5
CDA
330
2
100
AcDbEntity
  8
YKK_Z1
  6
Continuous
 48
1.5
370
    13
100
AcDbLine
 10
4797.5003404
 20
2930.99589019
 30
0.0
 11
4797.5003404
 21
2955.99589019
 31
0.0
  0
LINE
  5
CDB
330
2
100
AcDbEntity
  8
YKK_Z1
  6
Continuous
 48
1.5
370
    13
100
AcDbLine
 10
4797.000224
 20
2930.99587466
 30
0.0
 11
4763.98589658
 21
2930.99587466
 31
0.0
  0
LINE
  5
CDC
330
2
100
AcDbEntity
  8
YKK_Z1
  6
Continuous
 48
1.5
370
    13
100
AcDbLine
 10
4815.00038299
 20
2985.99589019
 30
0.0
 11
4763.98589658
 21
2985.99589019
 31
0.0
  0
LINE
  5
CDD
330
2
100
AcDbEntity
  8
YKK_Z1
  6
Continuous
 48
1.5
370
    13
100
AcDbLine
 10
4829.500224
 20
2930.99587466
 30
0.0
 11
4840.000224
 21
2825.99587466
 31
0.0
  0
LINE
  5
CDE
330
2
100
AcDbEntity
  8
YKK_Z1
  6
Continuous
 48
1.5
370
    13
100
AcDbLine
 10
4840.00033033
 20
2900.9985341
 30
0.0
 11
4844.00033033
 21
2825.9985341
 31
0.0
  0
LINE
  5
CDF
330
2
100
AcDbEntity
  8
YKK_Z1
  6
Continuous
 48
1.5
370
    13
100
AcDbLine
 10
5836.0141655
 20
2930.99587466
 30
0.0
 11
5770.49983808
 21
2930.99587466
 31
0.0
  0
LINE
  5
CE0
330
2
100
AcDbEntity
  8
YKK_Z1
  6
Continuous
 48
1.5
370
    13
100
AcDbLine
 10
5802.49972168
 20
2930.99589019
 30
0.0
 11
5802.49972168
 21
2955.99589019
 31
0.0
  0
LINE
  5
CE1
330
2
100
AcDbEntity
  8
YKK_Z1
  6
Continuous
 48
1.5
370
    13
100
AcDbLine
 10
5802.99983808
 20
2930.99587466
 30
0.0
 11
5836.0141655
 21
2930.99587466
 31
0.0
  0
LINE
  5
CE2
330
2
100
AcDbEntity
  8
YKK_Z1
  6
Continuous
 48
1.5
370
    13
100
AcDbLine
 10
5784.9996791
 20
2985.99589019
 30
0.0
 11
5836.0141655
 21
2985.99589019
 31
0.0
  0
LINE
  5
CE3
330
2
100
AcDbEntity
  8
YKK_Z1
  6
Continuous
 48
1.5
370
    13
100
AcDbLine
 10
5770.49983808
 20
2930.99587466
 30
0.0
 11
5759.99983808
 21
2825.99587466
 31
0.0
  0
LINE
  5
CE4
330
2
100
AcDbEntity
  8
YKK_Z1
  6
Continuous
 48
1.5
370
    13
100
AcDbLine
 10
5759.99973175
 20
2900.9985341
 30
0.0
 11
5755.99973175
 21
2825.9985341
 31
0.0
  0
LINE
  5
CE5
330
2
100
AcDbEntity
  8
YKK_Z1
  6
Continuous
 48
1.5
370
    13
100
AcDbLine
 10
5836.0141655
 20
2826.00000001
 30
0.0
 11
5755.99998748
 21
2826.00000001
 31
0.0
  0
LINE
  5
CE6
330
2
100
AcDbEntity
  8
YKK_Z1
  6
Continuous
 48
1.5
370
    13
100
AcDbLine
 10
5836.0141655
 20
2814.00000001
 30
0.0
 11
5755.99998748
 21
2814.00000001
 31
0.0
  0
LINE
  5
CE7
330
2
100
AcDbEntity
  8
YKK_Z1
  6
Continuous
 48
1.5
370
    13
100
AcDbLine
 10
5755.99998748
 20
2826.00000001
 30
0.0
 11
5755.99998748
 21
2814.00000001
 31
0.0
  0
LINE
  5
CE8
330
2
100
AcDbEntity
  8
YKK_Z1
  6
Continuous
 48
1.5
370
    13
100
AcDbLine
 10
5755.99979434
 20
2814.00000001
 30
0.0
 11
5755.99979434
 21
2915.99585866
 31
0.0
  0
LINE
  5
CE9
330
2
100
AcDbEntity
  8
YKK_Z1
  6
Continuous
 48
1.5
370
    13
100
AcDbLine
 10
5743.99979434
 20
2814.00000001
 30
0.0
 11
5743.99979434
 21
2915.99585866
 31
0.0
  0
LINE
  5
CEA
330
2
100
AcDbEntity
  8
YKK_Z1
  6
Continuous
 48
1.5
370
    13
100
AcDbLine
 10
5755.99979434
 20
2915.99585866
 30
0.0
 11
5743.99979434
 21
2915.99585866
 31
0.0
  0
LINE
  5
CEB
330
2
100
AcDbEntity
  8
YKK_Z1
  6
Continuous
 48
1.5
370
    13
100
AcDbLine
 10
5743.99979434
 20
2814.00000001
 30
0.0
 11
5755.99979434
 21
2814.00000001
 31
0.0
  0
LINE
  5
CEC
330
2
100
AcDbEntity
  8
YKK_Z1
  6
Continuous
 48
1.5
370
    13
100
AcDbLine
 10
5836.0141655
 20
2930.9999728
 30
0.0
 11
5770.50393622
 21
2930.9999728
 31
0.0
  0
LINE
  5
CED
330
2
100
AcDbEntity
  8
YKK_Z1
  6
Continuous
 48
1.5
370
    13
100
AcDbLine
 10
5770.50393622
 20
2930.9999728
 30
0.0
 11
5770.50393622
 21
2825.9999728
 31
0.0
  0
LINE
  5
CEE
330
2
100
AcDbEntity
  8
YKK_Z1
  6
Continuous
 48
1.5
370
    13
100
AcDbLine
 10
5770.50393622
 20
2825.9999728
 30
0.0
 11
5836.0141655
 21
2825.9999728
 31
0.0
  0
LINE
  5
CEF
330
2
100
AcDbEntity
  8
YKK_Z1
  6
Continuous
 48
1.5
370
    13
100
AcDbLine
 10
5770.50393622
 20
2825.9999728
 30
0.0
 11
5836.0141655
 21
2891.51020208
 31
0.0
  0
LINE
  5
CF0
330
2
100
AcDbEntity
  8
YKK_Z1
  6
Continuous
 48
1.5
370
    13
100
AcDbLine
 10
5770.50393622
 20
2930.9999728
 30
0.0
 11
5836.0141655
 21
2865.48974352
 31
0.0
  0
LINE
  5
CF1
330
2
100
AcDbEntity
  8
YKK_Z1
  6
Continuous
 48
1.5
370
    13
100
AcDbLine
 10
4763.99409287
 20
2826.00000001
 30
0.0
 11
4844.00827089
 21
2826.00000001
 31
0.0
  0
LINE
  5
CF2
330
2
100
AcDbEntity
  8
YKK_Z1
  6
Continuous
 48
1.5
370
    13
100
AcDbLine
 10
4763.99409287
 20
2814.00000001
 30
0.0
 11
4844.00827089
 21
2814.00000001
 31
0.0
  0
LINE
  5
CF3
330
2
100
AcDbEntity
  8
YKK_Z1
  6
Continuous
 48
1.5
370
    13
100
AcDbLine
 10
4844.00827089
 20
2826.00000001
 30
0.0
 11
4844.00827089
 21
2814.00000001
 31
0.0
  0
LINE
  5
CF4
330
2
100
AcDbEntity
  8
YKK_Z1
  6
Continuous
 48
1.5
370
    13
100
AcDbLine
 10
4844.00846403
 20
2814.00000001
 30
0.0
 11
4844.00846403
 21
2915.99585866
 31
0.0
  0
LINE
  5
CF5
330
2
100
AcDbEntity
  8
YKK_Z1
  6
Continuous
 48
1.5
370
    13
100
AcDbLine
 10
4856.00846403
 20
2814.00000001
 30
0.0
 11
4856.00846403
 21
2915.99585866
 31
0.0
  0
LINE
  5
CF6
330
2
100
AcDbEntity
  8
YKK_Z1
  6
Continuous
 48
1.5
370
    13
100
AcDbLine
 10
4844.00846403
 20
2915.99585866
 30
0.0
 11
4856.00846403
 21
2915.99585866
 31
0.0
  0
LINE
  5
CF7
330
2
100
AcDbEntity
  8
YKK_Z1
  6
Continuous
 48
1.5
370
    13
100
AcDbLine
 10
4856.00846403
 20
2814.00000001
 30
0.0
 11
4844.00846403
 21
2814.00000001
 31
0.0
  0
LINE
  5
CF8
330
2
100
AcDbEntity
  8
YKK_Z1
  6
Continuous
 48
1.5
370
    13
100
AcDbLine
 10
4763.99409287
 20
2930.9999728
 30
0.0
 11
4829.50432215
 21
2930.9999728
 31
0.0
  0
LINE
  5
CF9
330
2
100
AcDbEntity
  8
YKK_Z1
  6
Continuous
 48
1.5
370
    13
100
AcDbLine
 10
4829.50432215
 20
2930.9999728
 30
0.0
 11
4829.50432215
 21
2825.9999728
 31
0.0
  0
LINE
  5
CFA
330
2
100
AcDbEntity
  8
YKK_Z1
  6
Continuous
 48
1.5
370
    13
100
AcDbLine
 10
4829.50432215
 20
2825.9999728
 30
0.0
 11
4763.99409287
 21
2825.9999728
 31
0.0
  0
LINE
  5
CFB
330
2
100
AcDbEntity
  8
YKK_Z1
  6
Continuous
 48
1.5
370
    13
100
AcDbLine
 10
4829.50432215
 20
2825.9999728
 30
0.0
 11
4763.99409287
 21
2891.51020208
 31
0.0
  0
LINE
  5
CFC
330
2
100
AcDbEntity
  8
YKK_Z1
  6
Continuous
 48
1.5
370
    13
100
AcDbLine
 10
4829.50432215
 20
2930.9999728
 30
0.0
 11
4763.99409287
 21
2865.48974352
 31
0.0
  0
LINE
  5
CFD
330
2
100
AcDbEntity
  8
YKK_Z1
  6
Continuous
 48
1.5
370
    13
100
AcDbLine
 10
4856.00846403
 20
2915.99585866
 30
0.0
 11
4880.0001595
 21
2859.99596592
 31
0.0
  0
LINE
  5
CFE
330
2
100
AcDbEntity
  8
YKK_Z1
  6
Continuous
 48
1.5
370
    13
100
AcDbLine
 10
5743.99979434
 20
2915.99585866
 30
0.0
 11
5719.99986856
 21
2859.99589011
 31
0.0
  0
LINE
  5
CFF
330
2
100
AcDbEntity
  8
YKK_Z1
  6
Continuous
 48
1.5
370
    13
100
AcDbLine
 10
4880.0001595
 20
2897.49596594
 30
0.0
 11
4910.000031
 21
2859.99596592
 31
0.0
  0
LINE
  5
D00
330
2
100
AcDbEntity
  8
YKK_Z1
  6
Continuous
 48
1.5
370
    13
100
AcDbLine
 10
5719.99990255
 20
2897.49596594
 30
0.0
 11
5690.00003105
 21
2859.99596592
 31
0.0
  0
LINE
  5
D01
330
2
100
AcDbEntity
  8
YKK_B2
  6
Continuous
 48
1.5
370
    13
100
AcDbLine
 10
4935.00003103
 20
2817.99595831
 30
0.0
 11
5665.00003102
 21
2817.99595831
 31
0.0
  0
LINE
  5
D02
330
2
100
AcDbEntity
  8
YKK_B2
  6
Continuous
 48
1.5
370
    13
100
AcDbLine
 10
4929.00003104
 20
2803.00000001
 30
0.0
 11
5671.00003102
 21
2803.00000001
 31
0.0
  0
LINE
  5
D03
330
2
100
AcDbEntity
  8
YKK_Z1
  6
Continuous
 48
1.5
370
    13
100
AcDbLine
 10
4856.00846403
 20
2859.99596592
 30
0.0
 11
4914.50003103
 21
2813.99595831
 31
0.0
  0
LINE
  5
D04
330
2
100
AcDbEntity
  8
YKK_Z1
  6
Continuous
 48
1.5
370
    13
100
AcDbLine
 10
5743.99979434
 20
2859.99589011
 30
0.0
 11
5684.60003102
 21
2813.99595831
 31
0.0
  0
LINE
  5
D05
330
2
100
AcDbEntity
  8
YKK_B2
  6
Continuous
370
    13
100
AcDbLine
 10
4862.29989364
 20
3005.99596594
 30
0.0
 11
4833.4584845
 21
3000.9984231
 31
0.0
  0
LINE
  5
D06
330
2
100
AcDbEntity
  8
YKK_B2
  6
Continuous
370
    13
100
AcDbLine
 10
5737.70003108
 20
3005.99596594
 30
0.0
 11
5766.54166258
 21
3000.9984631
 31
0.0
  0
LINE
  5
D07
330
2
100
AcDbEntity
  8
YKK_N1
  6
Continuous
100
AcDbLine
 10
6036.0141655
 20
2989.99596658
 30
0.0
 11
6036.0141655
 21
2874.99596658
 31
0.0
  0
TEXT
  5
D08
330
2
100
AcDbEntity
  8
YKK_N1
  6
Continuous
100
AcDbText
 10
6024.0141625
 20
3013.03125132
 30
0.0
 40
60.0
  1
115
 50
90.0
  7
MX_NOTE_STANDARD
100
AcDbText
  0
CIRCLE
  5
D09
330
2
100
AcDbEntity
  8
YKK_N1
  6
Continuous
100
AcDbCircle
 10
6036.0141655
 20
2989.99596658
 30
0.0
 40
5.0
  0
TEXT
  5
D0A
330
2
100
AcDbEntity
  8
YKK_N1
  6
Continuous
100
AcDbText
 10
6024.0141625
 20
2758.75949858
 30
0.0
 40
60.0
  1
15
 50
90.0
  7
MX_NOTE_STANDARD
100
AcDbText
  0
CIRCLE
  5
D0B
330
2
100
AcDbEntity
  8
YKK_N1
  6
Continuous
100
AcDbCircle
 10
6036.0141655
 20
2859.99596658
 30
0.0
 40
5.0
  0
CIRCLE
  5
D0C
330
2
100
AcDbEntity
  8
YKK_N1
  6
Continuous
100
AcDbCircle
 10
6036.0141655
 20
2874.99596658
 30
0.0
 40
5.0
  0
LINE
  5
D0D
330
2
100
AcDbEntity
  8
YKK_N1
  6
Continuous
100
AcDbLine
 10
6036.0141655
 20
2874.99596658
 30
0.0
 11
6036.0141655
 21
2859.99596658
 31
0.0
  0
LINE
  5
D0E
330
2
100
AcDbEntity
  8
YKK_N1
  6
Continuous
100
AcDbLine
 10
5911.0141655
 20
2859.99596658
 30
0.0
 11
6036.0141655
 21
2859.99596658
 31
0.0
  0
LINE
  5
D0F
330
2
100
AcDbEntity
  8
YKK_N1
  6
Continuous
100
AcDbLine
 10
5911.0141655
 20
2874.99596658
 30
0.0
 11
6036.0141655
 21
2874.99596658
 31
0.0
  0
LINE
  5
D10
330
2
100
AcDbEntity
  8
YKK_N1
  6
Continuous
100
AcDbLine
 10
5911.0141655
 20
2989.99596658
 30
0.0
 11
6036.0141655
 21
2989.99596658
 31
0.0
  0
LINE
  5
D11
330
2
100
AcDbEntity
  8
YKK_C1E
100
AcDbLine
 10
7753.99633077
 20
6956.00029977
 30
0.0
 11
7753.99633077
 21
6921.00039572
 31
0.0
  0
LINE
  5
D12
330
2
100
AcDbEntity
  8
YKK_C1E
100
AcDbLine
 10
7753.99633077
 20
6936.00025998
 30
0.0
 11
7683.99625579
 21
6936.00026257
 31
0.0
  0
LINE
  5
D13
330
2
100
AcDbEntity
  8
YKK_C1E
100
AcDbLine
 10
7683.99625579
 20
6936.00026257
 30
0.0
 11
7683.99623693
 21
6926.62494276
 31
0.0
  0
LINE
  5
D14
330
2
100
AcDbEntity
  8
YKK_C1E
100
AcDbLine
 10
7683.99623693
 20
6926.62494276
 30
0.0
 11
7713.99634577
 21
6924.00034941
 31
0.0
  0
LINE
  5
D15
330
2
100
AcDbEntity
  8
YKK_C1E
100
AcDbLine
 10
7783.99628477
 20
6921.00024757
 30
0.0
 11
7713.99632448
 21
6921.00059325
 31
0.0
  0
LINE
  5
D16
330
2
100
AcDbEntity
  8
YKK_C1E
100
AcDbLine
 10
7768.99630777
 20
6921.00032164
 30
0.0
 11
7768.99628477
 21
6883.99999269
 31
0.0
  0
LINE
  5
D17
330
2
100
AcDbEntity
  8
YKK_C1E
100
AcDbLine
 10
7768.99628477
 20
6883.99999269
 30
0.0
 11
7713.99606177
 21
6884.00038757
 31
0.0
  0
LINE
  5
D18
330
2
100
AcDbEntity
  8
YKK_C1E
100
AcDbLine
 10
7713.99606177
 20
6884.00038757
 30
0.0
 11
7713.99606369
 21
6936.00026146
 31
0.0
  0
LINE
  5
D19
330
2
100
AcDbEntity
  8
YKK_C1E
100
AcDbLine
 10
7753.99633077
 20
4909.00000023
 30
0.0
 11
7753.99633077
 21
4943.99990428
 31
0.0
  0
LINE
  5
D1A
330
2
100
AcDbEntity
  8
YKK_C1E
100
AcDbLine
 10
7753.99633077
 20
4929.00004001
 30
0.0
 11
7683.99625579
 21
4929.00003743
 31
0.0
  0
LINE
  5
D1B
330
2
100
AcDbEntity
  8
YKK_C1E
100
AcDbLine
 10
7683.99625579
 20
4929.00003743
 30
0.0
 11
7683.99623693
 21
4938.37535723
 31
0.0
  0
LINE
  5
D1C
330
2
100
AcDbEntity
  8
YKK_C1E
100
AcDbLine
 10
7683.99623693
 20
4938.37535723
 30
0.0
 11
7713.99634577
 21
4940.99995058
 31
0.0
  0
LINE
  5
D1D
330
2
100
AcDbEntity
  8
YKK_C1E
100
AcDbLine
 10
7783.99628477
 20
4944.00005243
 30
0.0
 11
7713.99606314
 21
4943.99970674
 31
0.0
  0
LINE
  5
D1E
330
2
100
AcDbEntity
  8
YKK_C1E
100
AcDbLine
 10
7768.99630777
 20
4943.99997835
 30
0.0
 11
7768.99628477
 21
4981.0003073
 31
0.0
  0
LINE
  5
D1F
330
2
100
AcDbEntity
  8
YKK_C1E
100
AcDbLine
 10
7768.99628477
 20
4981.0003073
 30
0.0
 11
7713.99606177
 21
4980.99991243
 31
0.0
  0
LINE
  5
D20
330
2
100
AcDbEntity
  8
YKK_C1E
100
AcDbLine
 10
7713.99606177
 20
4980.99991243
 30
0.0
 11
7713.99606369
 21
4929.00003853
 31
0.0
  0
LINE
  5
D21
330
2
100
AcDbEntity
  8
YKK_C1
100
AcDbLine
 10
7698.49625506
 20
4900.0
 30
0.0
 11
7664.19625506
 21
4900.0
 31
0.0
  0
LINE
  5
D22
330
2
100
AcDbEntity
  8
YKK_C1
100
AcDbLine
 10
7664.19625506
 20
4900.0
 30
0.0
 11
7664.19625508
 21
4965.0
 31
0.0
  0
LINE
  5
D23
330
2
100
AcDbEntity
  8
YKK_C1
100
AcDbLine
 10
7664.19625508
 20
4965.0
 30
0.0
 11
7676.49625506
 21
4965.0
 31
0.0
  0
LINE
  5
D24
330
2
100
AcDbEntity
  8
YKK_C1
100
AcDbLine
 10
7676.49625506
 20
4965.0
 30
0.0
 11
7676.49625506
 21
4948.5
 31
0.0
  0
LINE
  5
D25
330
2
100
AcDbEntity
  8
YKK_C1
100
AcDbLine
 10
7676.49625506
 20
4948.5
 30
0.0
 11
7664.19625507
 21
4948.5
 31
0.0
  0
LINE
  5
D26
330
2
100
AcDbEntity
  8
YKK_C1
100
AcDbLine
 10
7696.49715586
 20
4983.99999998
 30
0.0
 11
7679.69715586
 21
4983.99999998
 31
0.0
  0
LINE
  5
D27
330
2
100
AcDbEntity
  8
YKK_C1
100
AcDbLine
 10
7679.69715586
 20
4910.99999998
 30
0.0
 11
7679.69715586
 21
4983.99999998
 31
0.0
  0
LINE
  5
D28
330
2
100
AcDbEntity
  8
YKK_C1
100
AcDbLine
 10
7739.99625505
 20
5025.99999998
 30
0.0
 11
7809.99625505
 21
5025.99999998
 31
0.0
  0
LINE
  5
D29
330
2
100
AcDbEntity
  8
YKK_C1
100
AcDbLine
 10
7824.99625505
 20
4983.99999998
 30
0.0
 11
7694.99625505
 21
4983.99999998
 31
0.0
  0
LINE
  5
D2A
330
2
100
AcDbEntity
  8
YKK_C1
100
AcDbLine
 10
7694.99625505
 20
4983.99999998
 30
0.0
 11
7694.99625505
 21
4996.00000001
 31
0.0
  0
LINE
  5
D2B
330
2
100
AcDbEntity
  8
YKK_C1
100
AcDbLine
 10
7739.99625505
 20
5025.99999998
 30
0.0
 11
7739.99625505
 21
4983.99999998
 31
0.0
  0
LINE
  5
D2C
330
2
100
AcDbEntity
  8
YKK_C1
100
AcDbLine
 10
7694.99625505
 20
4996.00000001
 30
0.0
 11
7739.99625505
 21
4998.35835047
 31
0.0
  0
LINE
  5
D2D
330
2
100
AcDbEntity
  8
YKK_C1
100
AcDbLine
 10
7809.99625505
 20
5051.99999998
 30
0.0
 11
7809.99625505
 21
4983.99999998
 31
0.0
  0
LINE
  5
D2E
330
2
100
AcDbEntity
  8
YKK_C1
100
AcDbLine
 10
7739.99625505
 20
6812.00029999
 30
0.0
 11
7809.99625505
 21
6812.00029999
 31
0.0
  0
LINE
  5
D2F
330
2
100
AcDbEntity
  8
YKK_C1
100
AcDbLine
 10
7824.99625505
 20
6854.00029999
 30
0.0
 11
7694.99625505
 21
6854.00029999
 31
0.0
  0
LINE
  5
D30
330
2
100
AcDbEntity
  8
YKK_C1
100
AcDbLine
 10
7694.99625505
 20
6854.00029999
 30
0.0
 11
7694.99625505
 21
6842.00029997
 31
0.0
  0
LINE
  5
D31
330
2
100
AcDbEntity
  8
YKK_C1
100
AcDbLine
 10
7739.99625505
 20
6812.00029999
 30
0.0
 11
7739.99625505
 21
6854.00029999
 31
0.0
  0
LINE
  5
D32
330
2
100
AcDbEntity
  8
YKK_C1
100
AcDbLine
 10
7694.99625505
 20
6842.00029997
 30
0.0
 11
7739.99625505
 21
6839.6419495
 31
0.0
  0
LINE
  5
D33
330
2
100
AcDbEntity
  8
YKK_C1
100
AcDbLine
 10
7809.99625505
 20
6786.00029999
 30
0.0
 11
7809.99625505
 21
6854.00029999
 31
0.0
  0
LINE
  5
D34
330
2
100
AcDbEntity
  8
YKK_C1
100
AcDbLine
 10
7809.99625901
 20
6871.00029987
 30
0.0
 11
7809.99625901
 21
6854.00029987
 31
0.0
  0
LINE
  5
D35
330
2
100
AcDbEntity
  8
YKK_C1
100
AcDbLine
 10
7809.99625901
 20
6871.00029987
 30
0.0
 11
7753.49625901
 21
6871.00030025
 31
0.0
  0
LINE
  5
D36
330
2
100
AcDbEntity
  8
YKK_C1
100
AcDbLine
 10
7753.49625901
 20
6871.00030025
 30
0.0
 11
7714.99626007
 21
6857.10029987
 31
0.0
  0
LINE
  5
D37
330
2
100
AcDbEntity
  8
YKK_C1
100
AcDbLine
 10
7714.99626007
 20
6857.10029987
 30
0.0
 11
7694.99625901
 21
6857.10029987
 31
0.0
  0
LINE
  5
D38
330
2
100
AcDbEntity
  8
YKK_C1
100
AcDbLine
 10
7694.99625901
 20
6871.00029987
 30
0.0
 11
7694.99625901
 21
6854.00029999
 31
0.0
  0
LINE
  5
D39
330
2
100
AcDbEntity
  8
YKK_C1
100
AcDbLine
 10
7753.49625901
 20
6871.00029987
 30
0.0
 11
7753.49625901
 21
6854.00029999
 31
0.0
  0
LINE
  5
D3A
330
2
100
AcDbEntity
  8
YKK_C1
100
AcDbLine
 10
7771.29625901
 20
6854.00029999
 30
0.0
 11
7771.29625901
 21
6871.00029987
 31
0.0
  0
LINE
  5
D3B
330
2
100
AcDbEntity
  8
YKK_C1
100
AcDbLine
 10
7771.29625901
 20
6863.20029987
 30
0.0
 11
7753.49625901
 21
6863.20029987
 31
0.0
  0
LINE
  5
D3C
330
2
100
AcDbEntity
  8
YKK_C1
100
AcDbLine
 10
7698.49624714
 20
6943.00029998
 30
0.0
 11
7664.19624714
 21
6943.00029998
 31
0.0
  0
LINE
  5
D3D
330
2
100
AcDbEntity
  8
YKK_C1
100
AcDbLine
 10
7664.19624714
 20
6943.00029998
 30
0.0
 11
7664.19624715
 21
6878.00029999
 31
0.0
  0
LINE
  5
D3E
330
2
100
AcDbEntity
  8
YKK_C1
100
AcDbLine
 10
7664.19624715
 20
6878.00029999
 30
0.0
 11
7676.49624714
 21
6878.00029998
 31
0.0
  0
LINE
  5
D3F
330
2
100
AcDbEntity
  8
YKK_C1
100
AcDbLine
 10
7676.49624714
 20
6878.00029998
 30
0.0
 11
7676.49624714
 21
6894.50029998
 31
0.0
  0
LINE
  5
D40
330
2
100
AcDbEntity
  8
YKK_C1
100
AcDbLine
 10
7676.49624714
 20
6894.50029998
 30
0.0
 11
7664.19624714
 21
6894.50029998
 31
0.0
  0
LINE
  5
D41
330
2
100
AcDbEntity
  8
YKK_C1
100
AcDbLine
 10
7694.99625901
 20
6855.00030035
 30
0.0
 11
7677.99625505
 21
6855.00030035
 31
0.0
  0
LINE
  5
D42
330
2
100
AcDbEntity
  8
YKK_C1
100
AcDbLine
 10
7677.99625505
 20
6855.00030035
 30
0.0
 11
7677.99625505
 21
6921.00029941
 31
0.0
  0
TEXT
  5
D43
330
2
100
AcDbEntity
  8
YKK_N1
  6
Continuous
100
AcDbText
 10
7564.99647303
 20
6095.15887521
 30
0.0
 40
60.0
  1
115
  7
MX_NOTE_STANDARD
 11
7564.99647303
 21
6125.15887521
 31
0.0
100
AcDbText
 73
     2
  0
CIRCLE
  5
D44
330
2
100
AcDbEntity
  8
YKK_N1
  6
Continuous
100
AcDbCircle
 10
7809.99646103
 20
6083.05262521
 30
0.0
 40
5.0
  0
CIRCLE
  5
D45
330
2
100
AcDbEntity
  8
YKK_N1
  6
Continuous
100
AcDbCircle
 10
7694.99647303
 20
6083.15887521
 30
0.0
 40
5.0
  0
LINE
  5
D46
330
2
100
AcDbEntity
  8
YKK_N1
  6
Continuous
100
AcDbLine
 10
7694.99647303
 20
6083.05262521
 30
0.0
 11
7809.99646103
 21
6083.05262521
 31
0.0
  0
LINE
  5
D47
330
2
100
AcDbEntity
  8
YKK_N1
  6
Continuous
100
AcDbLine
 10
7809.99646103
 20
5958.05262521
 30
0.0
 11
7809.99646103
 21
6083.05262521
 31
0.0
  0
LINE
  5
D48
330
2
100
AcDbEntity
  8
YKK_N1
  6
Continuous
100
AcDbLine
 10
7694.99647303
 20
5958.05262521
 30
0.0
 11
7694.99647303
 21
6083.05262521
 31
0.0
  0
LINE
  5
D49
330
2
100
AcDbEntity
  8
YKK_C1
100
AcDbLine
 10
7795.99625124
 20
6795.99975382
 30
0.0
 11
7795.99625124
 21
6723.99975382
 31
0.0
  0
LINE
  5
D4A
330
2
100
AcDbEntity
  8
YKK_C1
100
AcDbLine
 10
7795.99625124
 20
6747.99975382
 30
0.0
 11
7725.99625124
 21
6747.99975382
 31
0.0
  0
LINE
  5
D4B
330
2
100
AcDbEntity
  8
YKK_C1
100
AcDbLine
 10
7725.99625124
 20
6723.99975357
 30
0.0
 11
7725.99625124
 21
6819.99975382
 31
0.0
  0
LINE
  5
D4C
330
2
100
AcDbEntity
  8
YKK_C1
100
AcDbLine
 10
7795.99625124
 20
6795.99975382
 30
0.0
 11
7725.99625124
 21
6795.99975382
 31
0.0
  0
LINE
  5
D4D
330
2
100
AcDbEntity
  8
YKK_C1
100
AcDbLine
 10
7725.99625118
 20
5114.00027365
 30
0.0
 11
7725.99625118
 21
5018.00027339
 31
0.0
  0
LINE
  5
D4E
330
2
100
AcDbEntity
  8
YKK_C1
100
AcDbLine
 10
7795.99625118
 20
5114.00027339
 30
0.0
 11
7795.99625118
 21
5042.00027339
 31
0.0
  0
LINE
  5
D4F
330
2
100
AcDbEntity
  8
YKK_C1
100
AcDbLine
 10
7795.99625118
 20
5042.00027339
 30
0.0
 11
7725.99625118
 21
5042.00027339
 31
0.0
  0
LINE
  5
D50
330
2
100
AcDbEntity
  8
YKK_C1
100
AcDbLine
 10
7725.99625118
 20
5090.00027339
 30
0.0
 11
7795.99625118
 21
5090.00027339
 31
0.0
  0
LINE
  5
D51
330
2
100
AcDbEntity
  8
YKK_C1
100
AcDbLine
 10
7740.9916933
 20
6736.9997531
 30
0.0
 11
7740.99169333
 21
5099.00054654
 31
0.0
  0
LINE
  5
D52
330
2
100
AcDbEntity
  8
YKK_C1
100
AcDbLine
 10
7781.99169331
 20
6736.99975356
 30
0.0
 11
7781.99169331
 21
5099.00054654
 31
0.0
  0
LINE
  5
D53
330
2
100
AcDbEntity
  8
YKK_C1
100
AcDbLine
 10
7761.49169332
 20
5099.00054654
 30
0.0
 11
7761.49169329
 21
6736.9997531
 31
0.0
  0
LINE
  5
D54
330
2
100
AcDbEntity
  8
YKK_C1
100
AcDbLine
 10
7664.20475703
 20
6868.00029999
 30
0.0
 11
7664.20475703
 21
4975.0
 31
0.0
  0
TEXT
  5
D55
330
2
100
AcDbEntity
  8
YKK_N1
  6
Continuous
100
AcDbText
 10
7680.04292095
 20
4576.45696024
 30
0.0
 40
60.0
  1
115
  7
MX_NOTE_STANDARD
 11
7680.04292095
 21
4606.45696024
 31
0.0
100
AcDbText
 73
     2
  0
TEXT
  5
D56
330
2
100
AcDbEntity
  8
YKK_N1
  6
Continuous
100
AcDbText
 10
7846.99714795
 20
4660.45696024
 30
0.0
 40
60.0
  1
15
  7
MX_NOTE_STANDARD
 11
7846.99714795
 21
4690.45696024
 31
0.0
100
AcDbText
 73
     2
  0
LINE
  5
D57
330
2
100
AcDbEntity
  8
YKK_N1
  6
Continuous
100
AcDbLine
 10
7679.69714795
 20
4648.45696024
 30
0.0
 11
7694.99714795
 21
4648.45696024
 31
0.0
  0
CIRCLE
  5
D58
330
2
100
AcDbEntity
  8
YKK_N1
  6
Continuous
100
AcDbCircle
 10
7679.69714795
 20
4648.35071024
 30
0.0
 40
5.0
  0
CIRCLE
  5
D59
330
2
100
AcDbEntity
  8
YKK_N1
  6
Continuous
100
AcDbCircle
 10
7679.69714795
 20
4648.45696024
 30
0.0
 40
0.10625
  0
LINE
  5
D5A
330
2
100
AcDbEntity
  8
YKK_N1
  6
Continuous
100
AcDbLine
 10
7809.99714795
 20
4648.45696024
 30
0.0
 11
7694.99714795
 21
4648.45696024
 31
0.0
  0
CIRCLE
  5
D5B
330
2
100
AcDbEntity
  8
YKK_N1
  6
Continuous
100
AcDbCircle
 10
7694.99714795
 20
4648.45696024
 30
0.0
 40
5.0
  0
LINE
  5
D5C
330
2
100
AcDbEntity
  8
YKK_N1
  6
Continuous
100
AcDbLine
 10
7824.99714795
 20
4648.45696024
 30
0.0
 11
7809.99714795
 21
4648.45696024
 31
0.0
  0
CIRCLE
  5
D5D
330
2
100
AcDbEntity
  8
YKK_N1
  6
Continuous
100
AcDbCircle
 10
7809.99714795
 20
4648.45696024
 30
0.0
 40
5.0
  0
CIRCLE
  5
D5E
330
2
100
AcDbEntity
  8
YKK_N1
  6
Continuous
100
AcDbCircle
 10
7824.99714795
 20
4648.45696024
 30
0.0
 40
5.0
  0
LINE
  5
D5F
330
2
100
AcDbEntity
  8
YKK_N1
  6
Continuous
100
AcDbLine
 10
7679.69714795
 20
4773.45696024
 30
0.0
 11
7679.69714795
 21
4648.45696024
 31
0.0
  0
LINE
  5
D60
330
2
100
AcDbEntity
  8
YKK_N1
  6
Continuous
100
AcDbLine
 10
7809.99714795
 20
4773.45696024
 30
0.0
 11
7809.99714795
 21
4648.45696024
 31
0.0
  0
LINE
  5
D61
330
2
100
AcDbEntity
  8
YKK_N1
  6
Continuous
100
AcDbLine
 10
7824.99714795
 20
4648.45696024
 30
0.0
 11
7824.99714795
 21
4773.45696024
 31
0.0
  0
LINE
  5
D62
330
2
100
AcDbEntity
  8
YKK_N1
  6
Continuous
100
AcDbLine
 10
7694.99714795
 20
4773.45696024
 30
0.0
 11
7694.99714795
 21
4648.45696024
 31
0.0
  0
TEXT
  5
D63
330
2
100
AcDbEntity
  8
YKK_N1
  6
Continuous
100
AcDbText
 10
7489.93900268
 20
4660.45696024
 30
0.0
 40
60.0
  1
15.3
  7
MX_NOTE_STANDARD
 11
7489.93900268
 21
4690.45696024
 31
0.0
100
AcDbText
 73
     2
  0
TEXT
  5
D64
330
2
100
AcDbEntity
  8
YKK_N1
  6
Continuous
100
AcDbText
 10
8272.99633107
 20
5671.16291492
 30
0.0
 40
60.0
  1
新設窓H=1870
 50
90.0
 41
1.122581
  7
MX_NOTE_STANDARD
 11
8242.99633107
 21
5671.16291492
 31
0.0
100
AcDbText
 73
     2
  0
TEXT
  5
D65
330
2
100
AcDbEntity
  8
YKK_N1
  6
Continuous
100
AcDbText
 10
8272.99633107
 20
6933.25084292
 30
0.0
 40
60.0
  1
17
 50
90.0
  7
MX_NOTE_STANDARD
 11
8242.99633107
 21
6933.25084292
 31
0.0
100
AcDbText
 73
     2
  0
LINE
  5
D66
330
2
100
AcDbEntity
  8
YKK_N1
  6
Continuous
100
AcDbLine
 10
8234.99633107
 20
6767.397759
 30
0.0
 11
8334.99633107
 21
6767.397759
 31
0.0
  0
LINE
  5
D67
330
2
100
AcDbEntity
  8
YKK_N1
  6
Continuous
100
AcDbLine
 10
8234.99633107
 20
6767.397759
 30
0.0
 11
8284.99633107
 21
6854.0003
 31
0.0
  0
CIRCLE
  5
D68
330
2
100
AcDbEntity
  8
YKK_N1
  6
Continuous
100
AcDbCircle
 10
8084.99633107
 20
6854.0003
 30
0.0
 40
5.0
  0
CIRCLE
  5
D69
330
2
100
AcDbEntity
  8
YKK_N1
  6
Continuous
100
AcDbCircle
 10
8084.99633107
 20
6824.0003
 30
0.0
 40
5.0
  0
LINE
  5
D6A
330
2
100
AcDbEntity
  8
YKK_N1
  6
Continuous
100
AcDbLine
 10
8084.99633107
 20
6824.0003
 30
0.0
 11
8084.99633107
 21
6854.0003
 31
0.0
  0
LINE
  5
D6B
330
2
100
AcDbEntity
  8
YKK_N1
  6
Continuous
100
AcDbLine
 10
8284.99633107
 20
6871.0003
 30
0.0
 11
8284.99633107
 21
6854.0003
 31
0.0
  0
CIRCLE
  5
D6C
330
2
100
AcDbEntity
  8
YKK_N1
  6
Continuous
100
AcDbCircle
 10
8284.99633107
 20
6871.0003
 30
0.0
 40
5.0
  0
LINE
  5
D6D
330
2
100
AcDbEntity
  8
YKK_N1
  6
Continuous
100
AcDbLine
 10
8334.99633107
 20
6767.397759
 30
0.0
 11
8284.99633107
 21
6854.0003
 31
0.0
  0
LINE
  5
D6E
330
2
100
AcDbEntity
  8
YKK_N1
  6
Continuous
100
AcDbLine
 10
8234.99633107
 20
5070.60324
 30
0.0
 11
8334.99633107
 21
5070.60324
 31
0.0
  0
LINE
  5
D6F
330
2
100
AcDbEntity
  8
YKK_N1
  6
Continuous
100
AcDbLine
 10
8234.99633107
 20
5070.60324
 30
0.0
 11
8284.99633107
 21
4984.0007
 31
0.0
  0
LINE
  5
D70
330
2
100
AcDbEntity
  8
YKK_N1
  6
Continuous
100
AcDbLine
 10
8084.99633107
 20
5024.0003
 30
0.0
 11
8084.99633107
 21
4984.0003
 31
0.0
  0
CIRCLE
  5
D71
330
2
100
AcDbEntity
  8
YKK_N1
  6
Continuous
100
AcDbCircle
 10
8084.99633107
 20
4984.000325
 30
0.0
 40
5.0
  0
CIRCLE
  5
D72
330
2
100
AcDbEntity
  8
YKK_N1
  6
Continuous
100
AcDbCircle
 10
8084.99633107
 20
5024.0003
 30
0.0
 40
5.0
  0
LINE
  5
D73
330
2
100
AcDbEntity
  8
YKK_N1
  6
Continuous
100
AcDbLine
 10
8334.99633107
 20
5070.60324
 30
0.0
 11
8284.99633107
 21
4984.0007
 31
0.0
  0
CIRCLE
  5
D74
330
2
100
AcDbEntity
  8
YKK_N1
  6
Continuous
100
AcDbCircle
 10
8484.99633107
 20
4981.0003
 30
0.0
 40
5.0
  0
LINE
  5
D75
330
2
100
AcDbEntity
  8
YKK_N1
  6
Continuous
100
AcDbLine
 10
8484.99633107
 20
4984.0003
 30
0.0
 11
8484.99633107
 21
4981.0003
 31
0.0
  0
LINE
  5
D76
330
2
100
AcDbEntity
  8
YKK_N1
  6
Continuous
100
AcDbLine
 10
8284.99633107
 20
6854.0003
 30
0.0
 11
8284.99633107
 21
4984.0003
 31
0.0
  0
LINE
  5
D77
330
2
100
AcDbEntity
  8
YKK_N1
  6
Continuous
100
AcDbLine
 10
7959.99633107
 20
4984.0003
 30
0.0
 11
8684.99633107
 21
4984.0003
 31
0.0
  0
LINE
  5
D78
330
2
100
AcDbEntity
  8
YKK_N1
  6
Continuous
100
AcDbLine
 10
7959.99633107
 20
4981.0003
 30
0.0
 11
8484.99633107
 21
4981.0003
 31
0.0
  0
LINE
  5
D79
330
2
100
AcDbEntity
  8
YKK_N1
  6
Continuous
100
AcDbLine
 10
7959.99633107
 20
5024.0003
 30
0.0
 11
8084.99633107
 21
5024.0003
 31
0.0
  0
TEXT
  5
D7A
330
2
100
AcDbEntity
  8
YKK_N1
  6
Continuous
100
AcDbText
 10
8072.99633107
 20
5033.840355
 30
0.0
 40
60.0
  1
40
 50
90.0
  7
MX_NOTE_STANDARD
 11
8042.99633107
 21
5033.840355
 31
0.0
100
AcDbText
 73
     2
  0
LINE
  5
D7B
330
2
100
AcDbEntity
  8
YKK_N1
  6
Continuous
100
AcDbLine
 10
7959.99633107
 20
6871.0003
 30
0.0
 11
8484.99633107
 21
6871.0003
 31
0.0
  0
LINE
  5
D7C
330
2
100
AcDbEntity
  8
YKK_N1
  6
Continuous
100
AcDbLine
 10
7959.99633107
 20
6854.0003
 30
0.0
 11
8284.99633107
 21
6854.0003
 31
0.0
  0
LINE
  5
D7D
330
2
100
AcDbEntity
  8
YKK_N1
  6
Continuous
100
AcDbLine
 10
7959.99633107
 20
6824.0003
 30
0.0
 11
8084.99633107
 21
6824.0003
 31
0.0
  0
TEXT
  5
D7E
330
2
100
AcDbEntity
  8
YKK_N1
  6
Continuous
100
AcDbText
 10
8072.99633107
 20
6715.978427
 30
0.0
 40
60.0
  1
30
 50
90.0
  7
MX_NOTE_STANDARD
 11
8042.99633107
 21
6715.978427
 31
0.0
100
AcDbText
 73
     2
  0
TEXT
  5
D7F
330
2
100
AcDbEntity
  8
YKK_N1
  6
Continuous
100
AcDbText
 10
8478.00449514
 20
4926.09353394
 30
0.0
 40
60.0
  1
3
 50
90.0
  7
MX_NOTE_STANDARD
 11
8448.00449514
 21
4926.09353394
 31
0.0
100
AcDbText
 73
     2
  0
LINE
  5
D80
330
2
100
AcDbEntity
  8
YKK_N1
  6
Continuous
100
AcDbLine
 10
8484.99633107
 20
6871.0003
 30
0.0
 11
8484.99633107
 21
4984.0003
 31
0.0
  0
LINE
  5
D81
330
2
100
AcDbEntity
  8
YKK_N1
  6
Continuous
100
AcDbLine
 10
8684.99633107
 20
6881.0003
 30
0.0
 11
8684.99633107
 21
4984.0003
 31
0.0
  0
LINE
  5
D82
330
2
100
AcDbEntity
  8
YKK_N1
  6
Continuous
100
AcDbLine
 10
7959.99633107
 20
6881.0003
 30
0.0
 11
8684.99633107
 21
6881.0003
 31
0.0
  0
LINE
  5
D83
330
2
100
AcDbEntity
  8
YKK_N1
100
AcDbLine
 10
8484.99633107
 20
6871.0003
 30
0.0
 11
8484.99633107
 21
6881.0003
 31
0.0
  0
LINE
  5
D84
330
2
100
AcDbEntity
  8
YKK_N1
  6
Continuous
100
AcDbLine
 10
7959.99633107
 20
6884.0003
 30
0.0
 11
8484.99633107
 21
6884.0003
 31
0.0
  0
LINE
  5
D85
330
2
100
AcDbEntity
  8
YKK_N1
100
AcDbLine
 10
8484.99633107
 20
6881.0003
 30
0.0
 11
8484.99633107
 21
6884.0003
 31
0.0
  0
LINE
  5
D86
330
2
100
AcDbEntity
  8
YKK_N1
  6
Continuous
100
AcDbLine
 10
8434.99633107
 20
6784.397759
 30
0.0
 11
8534.99633107
 21
6784.397759
 31
0.0
  0
LINE
  5
D87
330
2
100
AcDbEntity
  8
YKK_N1
  6
Continuous
100
AcDbLine
 10
8434.99633107
 20
6784.397759
 30
0.0
 11
8484.99633107
 21
6871.0003
 31
0.0
  0
LINE
  5
D88
330
2
100
AcDbEntity
  8
YKK_N1
  6
Continuous
100
AcDbLine
 10
8534.99633107
 20
6784.397759
 30
0.0
 11
8484.99633107
 21
6871.0003
 31
0.0
  0
LINE
  5
D89
330
2
100
AcDbEntity
  8
YKK_N1
  6
Continuous
100
AcDbLine
 10
8634.99633107
 20
6794.397759
 30
0.0
 11
8734.99633107
 21
6794.397759
 31
0.0
  0
LINE
  5
D8A
330
2
100
AcDbEntity
  8
YKK_N1
  6
Continuous
100
AcDbLine
 10
8634.99633107
 20
6794.397759
 30
0.0
 11
8684.99633107
 21
6881.0003
 31
0.0
  0
LINE
  5
D8B
330
2
100
AcDbEntity
  8
YKK_N1
  6
Continuous
100
AcDbLine
 10
8734.99633107
 20
6794.397759
 30
0.0
 11
8684.99633107
 21
6881.0003
 31
0.0
  0
CIRCLE
  5
D8C
330
2
100
AcDbEntity
  8
YKK_N1
  6
Continuous
100
AcDbCircle
 10
8484.99633107
 20
6881.0003
 30
0.0
 40
5.0
  0
CIRCLE
  5
D8D
330
2
100
AcDbEntity
  8
YKK_N1
  6
Continuous
100
AcDbCircle
 10
8484.99633107
 20
6884.0003
 30
0.0
 40
5.0
  0
LINE
  5
D8E
330
2
100
AcDbEntity
  8
YKK_N1
  6
Continuous
100
AcDbLine
 10
8434.99633107
 20
5070.60284
 30
0.0
 11
8534.99633107
 21
5070.60284
 31
0.0
  0
LINE
  5
D8F
330
2
100
AcDbEntity
  8
YKK_N1
  6
Continuous
100
AcDbLine
 10
8434.99633107
 20
5070.60284
 30
0.0
 11
8484.99633107
 21
4984.0003
 31
0.0
  0
LINE
  5
D90
330
2
100
AcDbEntity
  8
YKK_N1
  6
Continuous
100
AcDbLine
 10
8534.99633107
 20
5070.60284
 30
0.0
 11
8484.99633107
 21
4984.0003
 31
0.0
  0
LINE
  5
D91
330
2
100
AcDbEntity
  8
YKK_N1
  6
Continuous
100
AcDbLine
 10
8634.99633107
 20
5070.60284
 30
0.0
 11
8734.99633107
 21
5070.60284
 31
0.0
  0
LINE
  5
D92
330
2
100
AcDbEntity
  8
YKK_N1
  6
Continuous
100
AcDbLine
 10
8634.99633107
 20
5070.60284
 30
0.0
 11
8684.99633107
 21
4984.0003
 31
0.0
  0
LINE
  5
D93
330
2
100
AcDbEntity
  8
YKK_N1
  6
Continuous
100
AcDbLine
 10
8734.99633107
 20
5070.60284
 30
0.0
 11
8684.99633107
 21
4984.0003
 31
0.0
  0
TEXT
  5
D94
330
2
100
AcDbEntity
  8
YKK_N1
  6
Continuous
100
AcDbText
 10
8467.99633107
 20
5460.00171531
 30
0.0
 40
50.0
  1
ジョイント枠出来高JH=1887
 50
90.0
 41
1.122581
  7
MX_NOTE_STANDARD
 11
8442.99633107
 21
5460.00171531
 31
0.0
100
AcDbText
 73
     2
  0
TEXT
  5
D95
330
2
100
AcDbEntity
  8
YKK_N1
  6
Continuous
100
AcDbText
 10
8667.99633107
 20
5528.73763586
 30
0.0
 40
50.0
  1
既設窓枠開口高KH=1897
 50
90.0
 41
1.122581
  7
MX_NOTE_STANDARD
 11
8642.99633107
 21
5528.73763586
 31
0.0
100
AcDbText
 73
     2
  0
TEXT
  5
D96
330
2
100
AcDbEntity
  8
YKK_N1
  6
Continuous
100
AcDbText
 10
8603.63551778
 20
6770.55671431
 30
0.0
 40
60.0
  1
10
 50
90.0
  7
MX_NOTE_STANDARD
 11
8573.63551778
 21
6770.55671431
 31
0.0
100
AcDbText
 73
     2
  0
TEXT
  5
D97
330
2
100
AcDbEntity
  8
YKK_N1
  6
Continuous
100
AcDbText
 10
8478.03501802
 20
6933.66732517
 30
0.0
 40
60.0
  1
3
 50
90.0
  7
MX_NOTE_STANDARD
 11
8448.03501802
 21
6933.66732517
 31
0.0
100
AcDbText
 73
     2
  0
LINE
  5
D98
330
2
100
AcDbEntity
  8
YKK_N1
100
AcDbLine
 10
8484.99633107
 20
6884.0003
 30
0.0
 11
8484.99633107
 21
6983.2272086
 31
0.0
  0
LINE
  5
D99
330
2
100
AcDbEntity
  8
YKK_N1
  6
Continuous
100
AcDbLine
 10
7959.99633107
 20
6923.0003
 30
0.0
 11
8684.99633107
 21
6923.0003
 31
0.0
  0
LINE
  5
D9A
330
2
100
AcDbEntity
  8
YKK_N1
100
AcDbLine
 10
8684.99633107
 20
6881.0003
 30
0.0
 11
8684.99633107
 21
6923.0003
 31
0.0
  0
CIRCLE
  5
D9B
330
2
100
AcDbEntity
  8
YKK_N1
  6
Continuous
100
AcDbCircle
 10
8684.99633107
 20
6923.0003
 30
0.0
 40
5.0
  0
TEXT
  5
D9C
330
2
100
AcDbEntity
  8
YKK_N1
  6
Continuous
100
AcDbText
 10
8678.03501802
 20
6933.66732517
 30
0.0
 40
60.0
  1
42
 50
90.0
  7
MX_NOTE_STANDARD
 11
8648.03501802
 21
6933.66732517
 31
0.0
100
AcDbText
 73
     2
  0
LINE
  5
D9D
330
2
100
AcDbEntity
  8
YKK_N1
100
AcDbLine
 10
8614.6899722
 20
6760.89348218
 30
-0.00000002
 11
8614.6899722
 21
6850.29585589
 31
-0.00000002
  0
LINE
  5
D9E
330
2
100
AcDbEntity
  8
YKK_N1
100
AcDbLine
 10
8614.6899722
 20
6850.29585589
 30
-0.00000002
 11
8484.99633107
 21
6876.0003
 31
0.0
  0
LINE
  5
D9F
330
2
100
AcDbEntity
  8
YKK_N1
  6
Continuous
100
AcDbLine
 10
7959.99633107
 20
4915.0003
 30
0.0
 11
8684.99633107
 21
4915.0003
 31
0.0
  0
LINE
  5
DA0
330
2
100
AcDbEntity
  8
YKK_N1
100
AcDbLine
 10
8684.99633107
 20
4984.0003
 30
0.0
 11
8684.99633107
 21
4915.0003
 31
0.0
  0
CIRCLE
  5
DA1
330
2
100
AcDbEntity
  8
YKK_N1
  6
Continuous
100
AcDbCircle
 10
8684.99633107
 20
4915.0003
 30
0.0
 40
5.0
  0
TEXT
  5
DA2
330
2
100
AcDbEntity
  8
YKK_N1
  6
Continuous
100
AcDbText
 10
8678.00449514
 20
4772.56488438
 30
0.0
 40
60.0
  1
69
 50
90.0
  7
MX_NOTE_STANDARD
 11
8648.00449514
 21
4772.56488438
 31
0.0
100
AcDbText
 73
     2
  0
LINE
  5
DA3
330
2
100
AcDbEntity
  8
YKK_B1E
100
AcDbLine
 10
4805.00005419
 20
2930.99814302
 30
0.0
 11
4839.99998019
 21
2930.99814302
 31
0.0
  0
LINE
  5
DA4
330
2
100
AcDbEntity
  8
YKK_B1E
100
AcDbLine
 10
4839.99980819
 20
2970.99813091
 30
0.0
 11
4840.00010919
 21
2900.99827202
 31
0.0
  0
LINE
  5
DA5
330
2
100
AcDbEntity
  8
YKK_B1E
100
AcDbLine
 10
4876.99994719
 20
2970.99815002
 30
0.0
 11
4825.00007212
 21
2970.99813402
 31
0.0
  0
LINE
  5
DA6
330
2
100
AcDbEntity
  8
YKK_B1E
100
AcDbLine
 10
4824.99999319
 20
2930.9982247
 30
0.0
 11
4825.00006289
 21
3000.9982226
 31
0.0
  0
LINE
  5
DA7
330
2
100
AcDbEntity
  8
YKK_B1E
100
AcDbLine
 10
4825.00006289
 20
3000.9982226
 30
0.0
 11
4834.37538277
 21
3000.99824523
 31
0.0
  0
LINE
  5
DA8
330
2
100
AcDbEntity
  8
YKK_B1E
100
AcDbLine
 10
4834.37538277
 20
3000.99824523
 30
0.0
 11
4836.99998543
 21
2970.99813771
 31
0.0
  0
LINE
  5
DA9
330
2
100
AcDbEntity
  8
YKK_B1E
100
AcDbLine
 10
4876.99994719
 20
2970.99804202
 30
0.0
 11
4877.00001319
 21
2915.99820902
 31
0.0
  0
LINE
  5
DAA
330
2
100
AcDbEntity
  8
YKK_B1E
100
AcDbLine
 10
4877.00001319
 20
2915.99820902
 30
0.0
 11
4840.00020046
 21
2915.99820902
 31
0.0
  0
LINE
  5
DAB
330
2
100
AcDbEntity
  8
YKK_B1E
100
AcDbLine
 10
5794.99630789
 20
2930.99814302
 30
0.0
 11
5759.99638189
 21
2930.99814302
 31
0.0
  0
LINE
  5
DAC
330
2
100
AcDbEntity
  8
YKK_B1E
100
AcDbLine
 10
5759.99655389
 20
2970.99813091
 30
0.0
 11
5759.99625289
 21
2900.99827202
 31
0.0
  0
LINE
  5
DAD
330
2
100
AcDbEntity
  8
YKK_B1E
100
AcDbLine
 10
5722.99641489
 20
2970.99815002
 30
0.0
 11
5774.99628997
 21
2970.99813402
 31
0.0
  0
LINE
  5
DAE
330
2
100
AcDbEntity
  8
YKK_B1E
100
AcDbLine
 10
5774.99636889
 20
2930.9982247
 30
0.0
 11
5774.9962992
 21
3000.9982226
 31
0.0
  0
LINE
  5
DAF
330
2
100
AcDbEntity
  8
YKK_B1E
100
AcDbLine
 10
5774.9962992
 20
3000.9982226
 30
0.0
 11
5765.62097932
 21
3000.99824523
 31
0.0
  0
LINE
  5
DB0
330
2
100
AcDbEntity
  8
YKK_B1E
100
AcDbLine
 10
5765.62097932
 20
3000.99824523
 30
0.0
 11
5762.99637665
 21
2970.99813771
 31
0.0
  0
LINE
  5
DB1
330
2
100
AcDbEntity
  8
YKK_B1E
100
AcDbLine
 10
5722.99641489
 20
2970.99804202
 30
0.0
 11
5722.99634889
 21
2915.99820902
 31
0.0
  0
LINE
  5
DB2
330
2
100
AcDbEntity
  8
YKK_B1E
100
AcDbLine
 10
5722.99634889
 20
2915.99820902
 30
0.0
 11
5759.99616163
 21
2915.99820902
 31
0.0
  0
LINE
  5
DB3
330
2
100
AcDbEntity
  8
YKK_B1
100
AcDbLine
 10
4815.00003098
 20
3038.79554788
 30
0.0
 11
4865.00003097
 21
3038.79554788
 31
0.0
  0
LINE
  5
DB4
330
2
100
AcDbEntity
  8
YKK_B1
100
AcDbLine
 10
4865.00003097
 20
3038.79554788
 30
0.0
 11
4865.00003097
 21
3008.49596593
 31
0.0
  0
LINE
  5
DB5
330
2
100
AcDbEntity
  8
YKK_B1
100
AcDbLine
 10
4865.00003097
 20
3008.49596593
 30
0.0
 11
4880.00003098
 21
3008.49596593
 31
0.0
  0
LINE
  5
DB6
330
2
100
AcDbEntity
  8
YKK_B1
100
AcDbLine
 10
4880.00003098
 20
3008.49596593
 30
0.0
 11
4880.00003098
 21
3020.79596593
 31
0.0
  0
LINE
  5
DB7
330
2
100
AcDbEntity
  8
YKK_B1
100
AcDbLine
 10
4880.00003098
 20
3020.79596593
 30
0.0
 11
4865.00003098
 21
3020.79596593
 31
0.0
  0
LINE
  5
DB8
330
2
100
AcDbEntity
  8
YKK_B1
100
AcDbLine
 10
4815.00003098
 20
2986.49596593
 30
0.0
 11
4815.00003098
 21
3038.79554788
 31
0.0
  0
LINE
  5
DB9
330
2
100
AcDbEntity
  8
YKK_B1
100
AcDbLine
 10
4822.90003098
 20
3021.09596593
 30
0.0
 11
4815.00003098
 21
3021.09596593
 31
0.0
  0
LINE
  5
DBA
330
2
100
AcDbEntity
  8
YKK_B1
100
AcDbLine
 10
4851.50003087
 20
3021.09596593
 30
0.0
 11
4865.00003098
 21
3021.09596593
 31
0.0
  0
LINE
  5
DBB
330
2
100
AcDbEntity
  8
YKK_B1
100
AcDbLine
 10
4885.00003096
 20
2912.49596593
 30
0.0
 11
4885.00003096
 21
2948.09596593
 31
0.0
  0
LINE
  5
DBC
330
2
100
AcDbEntity
  8
YKK_B1
100
AcDbLine
 10
4885.00003096
 20
2948.09596593
 30
0.0
 11
4905.00003096
 21
2948.09596593
 31
0.0
  0
LINE
  5
DBD
330
2
100
AcDbEntity
  8
YKK_B1
100
AcDbLine
 10
4885.00003096
 20
2961.29596593
 30
0.0
 11
4905.00003096
 21
2961.29596593
 31
0.0
  0
LINE
  5
DBE
330
2
100
AcDbEntity
  8
YKK_B1
100
AcDbLine
 10
4897.20003096
 20
2961.29596593
 30
0.0
 11
4897.20003096
 21
2948.09596593
 31
0.0
  0
LINE
  5
DBF
330
2
100
AcDbEntity
  8
YKK_B1
100
AcDbLine
 10
4885.00003096
 20
2961.29596593
 30
0.0
 11
4885.00003096
 21
3005.99596593
 31
0.0
  0
LINE
  5
DC0
330
2
100
AcDbEntity
  8
YKK_B1
100
AcDbLine
 10
4862.00003096
 20
3000.99596593
 30
0.0
 11
4862.00003096
 21
3005.99596593
 31
0.0
  0
LINE
  5
DC1
330
2
100
AcDbEntity
  8
YKK_B1
100
AcDbLine
 10
4862.00003096
 20
3005.99596593
 30
0.0
 11
4918.00003096
 21
3005.99596593
 31
0.0
  0
LINE
  5
DC2
330
2
100
AcDbEntity
  8
YKK_B1
100
AcDbLine
 10
4918.00003096
 20
3005.99596593
 30
0.0
 11
4918.00003096
 21
2989.99596593
 31
0.0
  0
LINE
  5
DC3
330
2
100
AcDbEntity
  8
YKK_B1
100
AcDbLine
 10
4905.00003096
 20
2927.49596593
 30
0.0
 11
4885.00003096
 21
2927.49596593
 31
0.0
  0
LINE
  5
DC4
330
2
100
AcDbEntity
  8
YKK_B1
100
AcDbLine
 10
4905.00003096
 20
2927.49596593
 30
0.0
 11
4905.00003096
 21
3005.99596593
 31
0.0
  0
LINE
  5
DC5
330
2
100
AcDbEntity
  8
YKK_B1
100
AcDbLine
 10
4910.00003095
 20
2859.99595686
 30
0.0
 11
4910.00003095
 21
2989.99595686
 31
0.0
  0
LINE
  5
DC6
330
2
100
AcDbEntity
  8
YKK_B1
100
AcDbLine
 10
4910.00003095
 20
2989.99595686
 30
0.0
 11
4922.00003098
 21
2989.99595686
 31
0.0
  0
LINE
  5
DC7
330
2
100
AcDbEntity
  8
YKK_B1
100
AcDbLine
 10
4922.00003098
 20
2989.99595686
 30
0.0
 11
4924.35838144
 21
2944.99595686
 31
0.0
  0
LINE
  5
DC8
330
2
100
AcDbEntity
  8
YKK_B1
100
AcDbLine
 10
4978.00003095
 20
2874.99595686
 30
0.0
 11
4910.00003095
 21
2874.99595686
 31
0.0
  0
LINE
  5
DC9
330
2
100
AcDbEntity
  8
YKK_B1
100
AcDbLine
 10
4952.00003095
 20
2944.99595686
 30
0.0
 11
4910.00003095
 21
2944.99595686
 31
0.0
  0
LINE
  5
DCA
330
2
100
AcDbEntity
  8
YKK_B1
100
AcDbLine
 10
4952.00003095
 20
2944.99595686
 30
0.0
 11
4952.00003095
 21
2874.99595686
 31
0.0
  0
LINE
  5
DCB
330
2
100
AcDbEntity
  8
YKK_B1
100
AcDbLine
 10
5784.99633107
 20
3038.79554788
 30
0.0
 11
5734.99633108
 21
3038.79554788
 31
0.0
  0
LINE
  5
DCC
330
2
100
AcDbEntity
  8
YKK_B1
100
AcDbLine
 10
5734.99633108
 20
3038.79554788
 30
0.0
 11
5734.99633108
 21
3008.49596593
 31
0.0
  0
LINE
  5
DCD
330
2
100
AcDbEntity
  8
YKK_B1
100
AcDbLine
 10
5734.99633108
 20
3008.49596593
 30
0.0
 11
5719.99633107
 21
3008.49596593
 31
0.0
  0
LINE
  5
DCE
330
2
100
AcDbEntity
  8
YKK_B1
100
AcDbLine
 10
5719.99633107
 20
3008.49596593
 30
0.0
 11
5719.99633107
 21
3020.79596593
 31
0.0
  0
LINE
  5
DCF
330
2
100
AcDbEntity
  8
YKK_B1
100
AcDbLine
 10
5719.99633107
 20
3020.79596593
 30
0.0
 11
5734.99633107
 21
3020.79596593
 31
0.0
  0
LINE
  5
DD0
330
2
100
AcDbEntity
  8
YKK_B1
100
AcDbLine
 10
5784.99633107
 20
2986.49596593
 30
0.0
 11
5784.99633107
 21
3038.79554788
 31
0.0
  0
LINE
  5
DD1
330
2
100
AcDbEntity
  8
YKK_B1
100
AcDbLine
 10
5777.09633107
 20
3021.09596593
 30
0.0
 11
5784.99633107
 21
3021.09596593
 31
0.0
  0
LINE
  5
DD2
330
2
100
AcDbEntity
  8
YKK_B1
100
AcDbLine
 10
5748.49633118
 20
3021.09596593
 30
0.0
 11
5734.99633107
 21
3021.09596593
 31
0.0
  0
LINE
  5
DD3
330
2
100
AcDbEntity
  8
YKK_B1
100
AcDbLine
 10
5714.99633109
 20
2912.49596593
 30
0.0
 11
5714.99633109
 21
2948.09596593
 31
0.0
  0
LINE
  5
DD4
330
2
100
AcDbEntity
  8
YKK_B1
100
AcDbLine
 10
5714.99633109
 20
2948.09596593
 30
0.0
 11
5694.99633109
 21
2948.09596593
 31
0.0
  0
LINE
  5
DD5
330
2
100
AcDbEntity
  8
YKK_B1
100
AcDbLine
 10
5714.99633109
 20
2961.29596593
 30
0.0
 11
5694.99633109
 21
2961.29596593
 31
0.0
  0
LINE
  5
DD6
330
2
100
AcDbEntity
  8
YKK_B1
100
AcDbLine
 10
5702.79633109
 20
2961.29596593
 30
0.0
 11
5702.79633109
 21
2948.09596593
 31
0.0
  0
LINE
  5
DD7
330
2
100
AcDbEntity
  8
YKK_B1
100
AcDbLine
 10
5714.99633109
 20
2961.29596593
 30
0.0
 11
5714.99633109
 21
3005.99596593
 31
0.0
  0
LINE
  5
DD8
330
2
100
AcDbEntity
  8
YKK_B1
100
AcDbLine
 10
5737.99633109
 20
3000.99596593
 30
0.0
 11
5737.99633109
 21
3005.99596593
 31
0.0
  0
LINE
  5
DD9
330
2
100
AcDbEntity
  8
YKK_B1
100
AcDbLine
 10
5737.99633109
 20
3005.99596593
 30
0.0
 11
5681.99633109
 21
3005.99596593
 31
0.0
  0
LINE
  5
DDA
330
2
100
AcDbEntity
  8
YKK_B1
100
AcDbLine
 10
5681.99633109
 20
3005.99596593
 30
0.0
 11
5681.99633109
 21
2989.99596593
 31
0.0
  0
LINE
  5
DDB
330
2
100
AcDbEntity
  8
YKK_B1
100
AcDbLine
 10
5694.99633109
 20
2927.49596593
 30
0.0
 11
5714.99633109
 21
2927.49596593
 31
0.0
  0
LINE
  5
DDC
330
2
100
AcDbEntity
  8
YKK_B1
100
AcDbLine
 10
5694.99633109
 20
2927.49596593
 30
0.0
 11
5694.99633109
 21
3005.99596593
 31
0.0
  0
LINE
  5
DDD
330
2
100
AcDbEntity
  8
YKK_B1
100
AcDbLine
 10
5689.99633109
 20
2859.99595686
 30
0.0
 11
5689.99633109
 21
2989.99595686
 31
0.0
  0
LINE
  5
DDE
330
2
100
AcDbEntity
  8
YKK_B1
100
AcDbLine
 10
5689.99633109
 20
2989.99595686
 30
0.0
 11
5677.99633107
 21
2989.99595686
 31
0.0
  0
LINE
  5
DDF
330
2
100
AcDbEntity
  8
YKK_B1
100
AcDbLine
 10
5677.99633107
 20
2989.99595686
 30
0.0
 11
5675.63798061
 21
2944.99595686
 31
0.0
  0
LINE
  5
DE0
330
2
100
AcDbEntity
  8
YKK_B1
100
AcDbLine
 10
5621.99633109
 20
2874.99595686
 30
0.0
 11
5689.99633109
 21
2874.99595686
 31
0.0
  0
LINE
  5
DE1
330
2
100
AcDbEntity
  8
YKK_B1
100
AcDbLine
 10
5647.99633109
 20
2944.99595686
 30
0.0
 11
5689.99633109
 21
2944.99595686
 31
0.0
  0
LINE
  5
DE2
330
2
100
AcDbEntity
  8
YKK_B1
100
AcDbLine
 10
5647.99633109
 20
2944.99595686
 30
0.0
 11
5647.99633109
 21
2874.99595686
 31
0.0
  0
LINE
  5
DE3
330
2
100
AcDbEntity
  8
YKK_B1
100
AcDbLine
 10
5039.99999822
 20
2958.99596727
 30
0.0
 11
4943.99999773
 21
2958.99596727
 31
0.0
  0
LINE
  5
DE4
330
2
100
AcDbEntity
  8
YKK_B1
100
AcDbLine
 10
5039.99999773
 20
2888.99596727
 30
0.0
 11
4967.99999773
 21
2888.99596727
 31
0.0
  0
LINE
  5
DE5
330
2
100
AcDbEntity
  8
YKK_B1
100
AcDbLine
 10
4967.99999773
 20
2888.99596727
 30
0.0
 11
4967.99999773
 21
2958.99596727
 31
0.0
  0
LINE
  5
DE6
330
2
100
AcDbEntity
  8
YKK_B1
100
AcDbLine
 10
5015.99999773
 20
2888.99596727
 30
0.0
 11
5015.99999773
 21
2958.99596727
 31
0.0
  0
LINE
  5
DE7
330
2
100
AcDbEntity
  8
YKK_B1
100
AcDbLine
 10
5559.99849598
 20
2958.99789057
 30
0.0
 11
5655.99849647
 21
2958.99789057
 31
0.0
  0
LINE
  5
DE8
330
2
100
AcDbEntity
  8
YKK_B1
100
AcDbLine
 10
5559.99849647
 20
2888.99789057
 30
0.0
 11
5631.99849647
 21
2888.99789057
 31
0.0
  0
LINE
  5
DE9
330
2
100
AcDbEntity
  8
YKK_B1
100
AcDbLine
 10
5631.99849647
 20
2888.99789057
 30
0.0
 11
5631.99849647
 21
2958.99789057
 31
0.0
  0
LINE
  5
DEA
330
2
100
AcDbEntity
  8
YKK_B1
100
AcDbLine
 10
5583.99849647
 20
2888.99789057
 30
0.0
 11
5583.99849647
 21
2958.99789057
 31
0.0
  0
LINE
  5
DEB
330
2
100
AcDbEntity
  8
YKK_B1
100
AcDbLine
 10
5025.99999845
 20
2944.00052502
 30
0.0
 11
5573.99520466
 21
2944.00052505
 31
0.0
  0
LINE
  5
DEC
330
2
100
AcDbEntity
  8
YKK_B1
100
AcDbLine
 10
5025.99999845
 20
2923.50052503
 30
0.0
 11
5573.99520466
 21
2923.50052503
 31
0.0
  0
LINE
  5
DED
330
2
100
AcDbEntity
  8
YKK_B1
100
AcDbLine
 10
5573.99520512
 20
2903.00052507
 30
0.0
 11
5025.99999845
 21
2903.00052504
 31
0.0
  0
LINE
  5
DEE
330
2
100
AcDbEntity
  8
YKK_B1
100
AcDbLine
 10
4890.00003098
 20
3020.79596593
 30
0.0
 11
5709.99633107
 21
3020.79596594
 31
0.0
  0
LINE
  5
DEF
330
2
100
AcDbEntity
  8
YKK_B1
  6
PHANTOM
100
AcDbLine
 10
4932.53444847
 20
2966.66065595
 30
0.0
 11
5056.17578804
 21
3667.84309952
 31
0.0
  0
ARC
  5
DF0
330
2
100
AcDbEntity
  8
YKK_B1
  6
PHANTOM
100
AcDbCircle
 10
4932.41525626
 20
2954.91060492
 30
0.0
 40
723.5947837536054
100
AcDbArc
 50
0.32364172
 51
80.1519584
  0
TEXT
  5
DF1
330
2
100
AcDbEntity
  8
YKK_N1
  6
Continuous
100
AcDbText
 10
5242.7216243
 20
3037.48464123
 30
0.0
 40
60.0
  1
115
 50
90.0
  7
MX_NOTE_STANDARD
 11
5212.7216243
 21
3037.48464123
 31
0.0
100
AcDbText
 73
     2
  0
CIRCLE
  5
DF2
330
2
100
AcDbEntity
  8
YKK_N1
  6
Continuous
100
AcDbCircle
 10
5254.8278743
 20
2989.99162667
 30
0.0
 40
5.0
  0
CIRCLE
  5
DF3
330
2
100
AcDbEntity
  8
YKK_N1
  6
Continuous
100
AcDbCircle
 10
5254.7216243
 20
2874.99163867
 30
0.0
 40
5.0
  0
LINE
  5
DF4
330
2
100
AcDbEntity
  8
YKK_N1
  6
Continuous
100
AcDbLine
 10
5254.8278743
 20
2874.99163867
 30
0.0
 11
5254.8278743
 21
2989.99162667
 31
0.0
  0
LINE
  5
DF5
330
2
100
AcDbEntity
  8
YKK_N1
  6
Continuous
100
AcDbLine
 10
5129.8278743
 20
2989.99162667
 30
0.0
 11
5254.8278743
 21
2989.99162667
 31
0.0
  0
LINE
  5
DF6
330
2
100
AcDbEntity
  8
YKK_N1
  6
Continuous
100
AcDbLine
 10
5129.8278743
 20
2874.99163867
 30
0.0
 11
5254.8278743
 21
2874.99163867
 31
0.0
  0
TEXT
  5
DF7
330
2
100
AcDbEntity
  8
YKK_N1
  6
Continuous
100
AcDbText
 10
5137.5003647
 20
2422.0
 30
0.0
 40
40.0
  1
新設窓W=780
  7
MX_NOTE_STANDARD
 11
5137.5003647
 21
2442.0
 31
0.0
100
AcDbText
 73
     2
  0
TEXT
  5
DF8
330
2
100
AcDbEntity
  8
YKK_N1
  6
Continuous
100
AcDbText
 10
5769.95759444
 20
2412.000003
 30
0.0
 40
60.0
  1
25
  7
MX_NOTE_STANDARD
100
AcDbText
  0
LINE
  5
DF9
330
2
100
AcDbEntity
  8
YKK_N1
  6
Continuous
100
AcDbLine
 10
5715.00003103
 20
2725.0
 30
0.0
 11
5715.00003103
 21
2200.0
 31
0.0
  0
LINE
  5
DFA
330
2
100
AcDbEntity
  8
YKK_N1
  6
Continuous
100
AcDbLine
 10
5690.00003103
 20
2725.0
 30
0.0
 11
5690.00003103
 21
2400.0
 31
0.0
  0
LINE
  5
DFB
330
2
100
AcDbEntity
  8
YKK_N1
  6
Continuous
100
AcDbLine
 10
5690.00003103
 20
2400.0
 30
0.0
 11
5715.00003103
 21
2400.0
 31
0.0
  0
CIRCLE
  5
DFC
330
2
100
AcDbEntity
  8
YKK_N1
  6
Continuous
100
AcDbCircle
 10
5715.00003103
 20
2400.0
 30
0.0
 40
5.0
  0
LINE
  5
DFD
330
2
100
AcDbEntity
  8
YKK_N1
  6
Continuous
100
AcDbLine
 10
5690.00003103
 20
2600.0
 30
0.0
 11
5670.00003103
 21
2600.0
 31
0.0
  0
LINE
  5
DFE
330
2
100
AcDbEntity
  8
YKK_N1
  6
Continuous
100
AcDbLine
 10
5670.00003103
 20
2725.0
 30
0.0
 11
5670.00003103
 21
2600.0
 31
0.0
  0
CIRCLE
  5
DFF
330
2
100
AcDbEntity
  8
YKK_N1
  6
Continuous
100
AcDbCircle
 10
5670.00003103
 20
2600.0
 30
0.0
 40
5.0
  0
CIRCLE
  5
E00
330
2
100
AcDbEntity
  8
YKK_N1
  6
Continuous
100
AcDbCircle
 10
5690.00003103
 20
2600.0
 30
0.0
 40
5.0
  0
LINE
  5
E01
330
2
100
AcDbEntity
  8
YKK_N1
  6
Continuous
100
AcDbLine
 10
5603.39749103
 20
2450.0
 30
0.0
 11
5603.39749103
 21
2350.0
 31
0.0
  0
LINE
  5
E02
330
2
100
AcDbEntity
  8
YKK_N1
  6
Continuous
100
AcDbLine
 10
5603.39749103
 20
2450.0
 30
0.0
 11
5690.00003103
 21
2400.0
 31
0.0
  0
LINE
  5
E03
330
2
100
AcDbEntity
  8
YKK_N1
  6
Continuous
100
AcDbLine
 10
5690.00003103
 20
2400.0
 30
0.0
 11
5603.39749103
 21
2350.0
 31
0.0
  0
TEXT
  5
E04
330
2
100
AcDbEntity
  8
YKK_N1
  6
Continuous
100
AcDbText
 10
5553.16863729
 20
2612.78324834
 30
0.0
 40
60.0
  1
20
  7
MX_NOTE_STANDARD
 11
5553.16863729
 21
2642.78324834
 31
0.0
100
AcDbText
 73
     2
  0
LINE
  5
E05
330
2
100
AcDbEntity
  8
YKK_N1
  6
Continuous
100
AcDbLine
 10
4996.60257103
 20
2450.0
 30
0.0
 11
4910.00003103
 21
2400.0
 31
0.0
  0
LINE
  5
E06
330
2
100
AcDbEntity
  8
YKK_N1
  6
Continuous
100
AcDbLine
 10
4910.00003103
 20
2400.0
 30
0.0
 11
4996.60257103
 21
2350.0
 31
0.0
  0
TEXT
  5
E07
330
2
100
AcDbEntity
  8
YKK_N1
  6
Continuous
100
AcDbText
 10
4944.41854216
 20
2612.78324834
 30
0.0
 40
60.0
  1
20
  7
MX_NOTE_STANDARD
 11
4944.41854216
 21
2642.78324834
 31
0.0
100
AcDbText
 73
     2
  0
CIRCLE
  5
E08
330
2
100
AcDbEntity
  8
YKK_N1
  6
Continuous
100
AcDbCircle
 10
4885.00003103
 20
2400.0
 30
0.0
 40
5.0
  0
LINE
  5
E09
330
2
100
AcDbEntity
  8
YKK_N1
  6
Continuous
100
AcDbLine
 10
4885.00003103
 20
2400.0
 30
0.0
 11
4910.00003103
 21
2400.0
 31
0.0
  0
CIRCLE
  5
E0A
330
2
100
AcDbEntity
  8
YKK_N1
  6
Continuous
100
AcDbCircle
 10
4930.00003103
 20
2600.0
 30
0.0
 40
5.0
  0
CIRCLE
  5
E0B
330
2
100
AcDbEntity
  8
YKK_N1
  6
Continuous
100
AcDbCircle
 10
4910.00003103
 20
2600.0
 30
0.0
 40
5.0
  0
LINE
  5
E0C
330
2
100
AcDbEntity
  8
YKK_N1
  6
Continuous
100
AcDbLine
 10
4910.00003103
 20
2600.0
 30
0.0
 11
4930.00003103
 21
2600.0
 31
0.0
  0
LINE
  5
E0D
330
2
100
AcDbEntity
  8
YKK_N1
  6
Continuous
100
AcDbLine
 10
4996.60257103
 20
2450.0
 30
0.0
 11
4996.60257103
 21
2350.0
 31
0.0
  0
TEXT
  5
E0E
330
2
100
AcDbEntity
  8
YKK_N1
  6
Continuous
100
AcDbText
 10
4725.07679536
 20
2412.000003
 30
0.0
 40
60.0
  1
25
  7
MX_NOTE_STANDARD
100
AcDbText
  0
LINE
  5
E0F
330
2
100
AcDbEntity
  8
YKK_N1
  6
Continuous
100
AcDbLine
 10
5690.00003103
 20
2400.0
 30
0.0
 11
4910.00003103
 21
2400.0
 31
0.0
  0
LINE
  5
E10
330
2
100
AcDbEntity
  8
YKK_N1
  6
Continuous
100
AcDbLine
 10
4930.00003103
 20
2725.0
 30
0.0
 11
4930.00003103
 21
2600.0
 31
0.0
  0
LINE
  5
E11
330
2
100
AcDbEntity
  8
YKK_N1
  6
Continuous
100
AcDbLine
 10
4910.00003103
 20
2725.0
 30
0.0
 11
4910.00003103
 21
2400.0
 31
0.0
  0
LINE
  5
E12
330
2
100
AcDbEntity
  8
YKK_N1
  6
Continuous
100
AcDbLine
 10
4885.00003103
 20
2725.0
 30
0.0
 11
4885.00003103
 21
2200.0
 31
0.0
  0
LINE
  5
E13
330
2
100
AcDbEntity
  8
YKK_N1
  6
Continuous
100
AcDbLine
 10
5715.00003103
 20
2200.0
 30
0.0
 11
4885.00003103
 21
2200.0
 31
0.0
  0
LINE
  5
E14
330
2
100
AcDbEntity
  8
YKK_N1
  6
Continuous
100
AcDbLine
 10
5720.00003103
 20
2000.0
 30
0.0
 11
4880.00003103
 21
2000.0
 31
0.0
  0
LINE
  5
E15
330
2
100
AcDbEntity
  8
YKK_N1
  6
Continuous
100
AcDbLine
 10
4880.00003103
 20
2725.0
 30
0.0
 11
4880.00003103
 21
2000.0
 31
0.0
  0
LINE
  5
E16
330
2
100
AcDbEntity
  8
YKK_N1
  6
Continuous
100
AcDbLine
 10
5720.00003103
 20
2725.0
 30
0.0
 11
5720.00003103
 21
2000.0
 31
0.0
  0
LINE
  5
E17
330
2
100
AcDbEntity
  8
YKK_N1
100
AcDbLine
 10
4885.00003103
 20
2200.0
 30
0.0
 11
4880.00003103
 21
2200.0
 31
0.0
  0
LINE
  5
E18
330
2
100
AcDbEntity
  8
YKK_N1
100
AcDbLine
 10
5715.00003103
 20
2200.0
 30
0.0
 11
5720.00003103
 21
2200.0
 31
0.0
  0
LINE
  5
E19
330
2
100
AcDbEntity
  8
YKK_N1
  6
Continuous
100
AcDbLine
 10
4877.00003103
 20
2725.0
 30
0.0
 11
4877.00003103
 21
2200.0
 31
0.0
  0
LINE
  5
E1A
330
2
100
AcDbEntity
  8
YKK_N1
  6
Continuous
100
AcDbLine
 10
5723.00003103
 20
2725.0
 30
0.0
 11
5723.00003103
 21
2200.0
 31
0.0
  0
LINE
  5
E1B
330
2
100
AcDbEntity
  8
YKK_N1
100
AcDbLine
 10
4880.00003103
 20
2200.0
 30
0.0
 11
4877.00003103
 21
2200.0
 31
0.0
  0
LINE
  5
E1C
330
2
100
AcDbEntity
  8
YKK_N1
100
AcDbLine
 10
5720.00003103
 20
2200.0
 30
0.0
 11
5723.00003103
 21
2200.0
 31
0.0
  0
LINE
  5
E1D
330
2
100
AcDbEntity
  8
YKK_N1
  6
Continuous
100
AcDbLine
 10
4971.60257103
 20
2250.0
 30
0.0
 11
4885.00003103
 21
2200.0
 31
0.0
  0
LINE
  5
E1E
330
2
100
AcDbEntity
  8
YKK_N1
  6
Continuous
100
AcDbLine
 10
4885.00003103
 20
2200.0
 30
0.0
 11
4971.60257103
 21
2150.0
 31
0.0
  0
LINE
  5
E1F
330
2
100
AcDbEntity
  8
YKK_N1
  6
Continuous
100
AcDbLine
 10
4971.60257103
 20
2250.0
 30
0.0
 11
4971.60257103
 21
2150.0
 31
0.0
  0
LINE
  5
E20
330
2
100
AcDbEntity
  8
YKK_N1
  6
Continuous
100
AcDbLine
 10
4966.60257103
 20
2050.0
 30
0.0
 11
4880.00003103
 21
2000.0
 31
0.0
  0
LINE
  5
E21
330
2
100
AcDbEntity
  8
YKK_N1
  6
Continuous
100
AcDbLine
 10
4880.00003103
 20
2000.0
 30
0.0
 11
4966.60257103
 21
1950.0
 31
0.0
  0
LINE
  5
E22
330
2
100
AcDbEntity
  8
YKK_N1
  6
Continuous
100
AcDbLine
 10
4966.60257103
 20
2050.0
 30
0.0
 11
4966.60257103
 21
1950.0
 31
0.0
  0
LINE
  5
E23
330
2
100
AcDbEntity
  8
YKK_N1
  6
Continuous
100
AcDbLine
 10
5628.39749103
 20
2250.0
 30
0.0
 11
5628.39749103
 21
2150.0
 31
0.0
  0
LINE
  5
E24
330
2
100
AcDbEntity
  8
YKK_N1
  6
Continuous
100
AcDbLine
 10
5628.39749103
 20
2250.0
 30
0.0
 11
5715.00003103
 21
2200.0
 31
0.0
  0
LINE
  5
E25
330
2
100
AcDbEntity
  8
YKK_N1
  6
Continuous
100
AcDbLine
 10
5715.00003103
 20
2200.0
 30
0.0
 11
5628.39749103
 21
2150.0
 31
0.0
  0
LINE
  5
E26
330
2
100
AcDbEntity
  8
YKK_N1
  6
Continuous
100
AcDbLine
 10
5633.39749103
 20
2050.0
 30
0.0
 11
5633.39749103
 21
1950.0
 31
0.0
  0
LINE
  5
E27
330
2
100
AcDbEntity
  8
YKK_N1
  6
Continuous
100
AcDbLine
 10
5633.39749103
 20
2050.0
 30
0.0
 11
5720.00003103
 21
2000.0
 31
0.0
  0
LINE
  5
E28
330
2
100
AcDbEntity
  8
YKK_N1
  6
Continuous
100
AcDbLine
 10
5720.00003103
 20
2000.0
 30
0.0
 11
5633.39749103
 21
1950.0
 31
0.0
  0
CIRCLE
  5
E29
330
2
100
AcDbEntity
  8
YKK_N1
  6
Continuous
100
AcDbCircle
 10
4880.00003103
 20
2200.0
 30
0.0
 40
5.0
  0
CIRCLE
  5
E2A
330
2
100
AcDbEntity
  8
YKK_N1
  6
Continuous
100
AcDbCircle
 10
4877.00003103
 20
2200.0
 30
0.0
 40
5.0
  0
CIRCLE
  5
E2B
330
2
100
AcDbEntity
  8
YKK_N1
  6
Continuous
100
AcDbCircle
 10
5720.00003103
 20
2200.0
 30
0.0
 40
5.0
  0
CIRCLE
  5
E2C
330
2
100
AcDbEntity
  8
YKK_N1
  6
Continuous
100
AcDbCircle
 10
5723.00003103
 20
2200.0
 30
0.0
 40
5.0
  0
TEXT
  5
E2D
330
2
100
AcDbEntity
  8
YKK_N1
  6
Continuous
100
AcDbText
 10
5047.75997147
 20
2227.0
 30
0.0
 40
30.0
  1
ジョイント枠出来幅JW=830
  7
MX_NOTE_STANDARD
 11
5047.75997147
 21
2242.0
 31
0.0
100
AcDbText
 73
     2
  0
TEXT
  5
E2E
330
2
100
AcDbEntity
  8
YKK_N1
  6
Continuous
100
AcDbText
 10
5087.03229648
 20
2027.0
 30
0.0
 40
30.0
  1
既設窓枠開口幅KW=840
  7
MX_NOTE_STANDARD
 11
5087.03229648
 21
2042.0
 31
0.0
100
AcDbText
 73
     2
  0
TEXT
  5
E2F
330
2
100
AcDbEntity
  8
YKK_N1
  6
Continuous
100
AcDbText
 10
5657.23472945
 20
2086.81440528
 30
0.0
 40
60.0
  1
5
  7
MX_NOTE_STANDARD
100
AcDbText
  0
TEXT
  5
E30
330
2
100
AcDbEntity
  8
YKK_N1
  6
Continuous
100
AcDbText
 10
4906.65228228
 20
2086.81440528
 30
0.0
 40
60.0
  1
5
  7
MX_NOTE_STANDARD
100
AcDbText
  0
TEXT
  5
E31
330
2
100
AcDbEntity
  8
YKK_N1
  6
Continuous
100
AcDbText
 10
5784.55022056
 20
2212.000003
 30
0.0
 40
60.0
  1
3
  7
MX_NOTE_STANDARD
100
AcDbText
  0
TEXT
  5
E32
330
2
100
AcDbEntity
  8
YKK_N1
  6
Continuous
100
AcDbText
 10
4773.9748359
 20
2212.000003
 30
0.0
 40
60.0
  1
3
  7
MX_NOTE_STANDARD
100
AcDbText
  0
LINE
  5
E33
330
2
100
AcDbEntity
  8
YKK_N1
100
AcDbLine
 10
4961.87803644
 20
2076.82071129
 30
-0.00000002
 11
4899.28339788
 21
2076.82071129
 31
-0.00000002
  0
LINE
  5
E34
330
2
100
AcDbEntity
  8
YKK_N1
100
AcDbLine
 10
4899.28339788
 20
2076.82071129
 30
-0.00000002
 11
4882.50003103
 21
2200.0
 31
0.0
  0
LINE
  5
E35
330
2
100
AcDbEntity
  8
YKK_N1
100
AcDbLine
 10
5638.12202561
 20
2076.82071129
 30
-0.00000002
 11
5700.71666417
 21
2076.82071129
 31
-0.00000002
  0
LINE
  5
E36
330
2
100
AcDbEntity
  8
YKK_N1
100
AcDbLine
 10
5700.71666417
 20
2076.82071129
 30
-0.00000002
 11
5717.50003103
 21
2200.0
 31
0.0
  0
LINE
  5
E37
330
2
100
AcDbEntity
  8
YKK_N1
  6
Continuous
100
AcDbLine
 10
4839.00003103
 20
2725.0
 30
0.0
 11
4839.00003103
 21
2000.0
 31
0.0
  0
LINE
  5
E38
330
2
100
AcDbEntity
  8
YKK_N1
  6
Continuous
100
AcDbLine
 10
5761.00003103
 20
2725.0
 30
0.0
 11
5761.00003103
 21
2000.0
 31
0.0
  0
LINE
  5
E39
330
2
100
AcDbEntity
  8
YKK_N1
100
AcDbLine
 10
4880.00003103
 20
2000.0
 30
0.0
 11
4839.00003103
 21
2000.0
 31
0.0
  0
LINE
  5
E3A
330
2
100
AcDbEntity
  8
YKK_N1
100
AcDbLine
 10
5761.00003103
 20
2000.0
 30
0.0
 11
5720.00003103
 21
2000.0
 31
0.0
  0
CIRCLE
  5
E3B
330
2
100
AcDbEntity
  8
YKK_N1
  6
Continuous
100
AcDbCircle
 10
4839.00003103
 20
2000.0
 30
0.0
 40
5.0
  0
CIRCLE
  5
E3C
330
2
100
AcDbEntity
  8
YKK_N1
  6
Continuous
100
AcDbCircle
 10
5761.00003103
 20
2000.0
 30
0.0
 40
5.0
  0
TEXT
  5
E3D
330
2
100
AcDbEntity
  8
YKK_N1
  6
Continuous
100
AcDbText
 10
5769.95759444
 20
2012.000003
 30
0.0
 40
60.0
  1
41
  7
MX_NOTE_STANDARD
100
AcDbText
  0
TEXT
  5
E3E
330
2
100
AcDbEntity
  8
YKK_N1
  6
Continuous
100
AcDbText
 10
4725.07679536
 20
2012.000003
 30
0.0
 40
60.0
  1
41
  7
MX_NOTE_STANDARD
100
AcDbText
  0
LINE
  5
E3F
330
2
100
AcDbEntity
  8
YKK_A1
100
AcDbLine
 10
4815.00003098
 20
6943.00029998
 30
0.0
 11
5784.99633107
 21
6943.00029998
 31
0.0
  0
LINE
  5
E40
330
2
100
AcDbEntity
  8
YKK_A1
100
AcDbLine
 10
4865.00003097
 20
6878.00029999
 30
0.0
 11
5734.99633108
 21
6878.00029999
 31
0.0
  0
LINE
  5
E41
330
2
100
AcDbEntity
  8
YKK_A1
100
AcDbLine
 10
4880.00003098
 20
6855.00030035
 30
0.0
 11
5719.99633107
 21
6855.00030035
 31
0.0
  0
LINE
  5
E42
330
2
100
AcDbEntity
  8
YKK_A1
100
AcDbLine
 10
4918.00003096
 20
6842.00029997
 30
0.0
 11
5681.99633109
 21
6842.00029997
 31
0.0
  0
LINE
  5
E43
330
2
100
AcDbEntity
  8
YKK_A1
100
AcDbLine
 10
4943.99999773
 20
6819.99975382
 30
0.0
 11
5655.99849647
 21
6819.99975382
 31
0.0
  0
LINE
  5
E44
330
2
100
AcDbEntity
  8
YKK_A1
100
AcDbLine
 10
5039.99999822
 20
6723.99975357
 30
0.0
 11
5559.99849598
 21
6723.99975357
 31
0.0
  0
LINE
  5
E45
330
2
100
AcDbEntity
  8
YKK_A1
100
AcDbLine
 10
5039.99999822
 20
5114.00027365
 30
0.0
 11
5559.99849598
 21
5114.00027365
 31
0.0
  0
LINE
  5
E46
330
2
100
AcDbEntity
  8
YKK_A1
100
AcDbLine
 10
4943.99999773
 20
5018.00027339
 30
0.0
 11
5655.99849647
 21
5018.00027339
 31
0.0
  0
LINE
  5
E47
330
2
100
AcDbEntity
  8
YKK_A1
100
AcDbLine
 10
4918.00003096
 20
4996.00000001
 30
0.0
 11
5681.99633109
 21
4996.00000001
 31
0.0
  0
LINE
  5
E48
330
2
100
AcDbEntity
  8
YKK_A1
100
AcDbLine
 10
4880.00003098
 20
4983.99999998
 30
0.0
 11
5719.99633107
 21
4983.99999998
 31
0.0
  0
LINE
  5
E49
330
2
100
AcDbEntity
  8
YKK_A1
100
AcDbLine
 10
4865.00003097
 20
4965.0
 30
0.0
 11
5734.99633108
 21
4965.0
 31
0.0
  0
LINE
  5
E4A
330
2
100
AcDbEntity
  8
YKK_A1
100
AcDbLine
 10
4815.00003098
 20
4900.0
 30
0.0
 11
5784.99633107
 21
4900.0
 31
0.0
  0
LINE
  5
E4B
330
2
100
AcDbEntity
  8
YKK_A1
100
AcDbLine
 10
4815.00003098
 20
6943.00029998
 30
0.0
 11
4815.00003098
 21
4900.0
 31
0.0
  0
LINE
  5
E4C
330
2
100
AcDbEntity
  8
YKK_A1
100
AcDbLine
 10
4865.00003097
 20
6878.00029999
 30
0.0
 11
4865.00003097
 21
4965.0
 31
0.0
  0
LINE
  5
E4D
330
2
100
AcDbEntity
  8
YKK_A1
100
AcDbLine
 10
4880.00003098
 20
6855.00030035
 30
0.0
 11
4880.00003098
 21
4983.99999998
 31
0.0
  0
LINE
  5
E4E
330
2
100
AcDbEntity
  8
YKK_A1
100
AcDbLine
 10
4918.00003096
 20
6842.00029997
 30
0.0
 11
4918.00003096
 21
4996.00000001
 31
0.0
  0
LINE
  5
E4F
330
2
100
AcDbEntity
  8
YKK_A1
100
AcDbLine
 10
4943.99999773
 20
6819.99975382
 30
0.0
 11
4943.99999773
 21
5018.00027339
 31
0.0
  0
LINE
  5
E50
330
2
100
AcDbEntity
  8
YKK_A1
100
AcDbLine
 10
5039.99999822
 20
6723.99975357
 30
0.0
 11
5039.99999822
 21
5114.00027365
 31
0.0
  0
LINE
  5
E51
330
2
100
AcDbEntity
  8
YKK_A1
100
AcDbLine
 10
5559.99849598
 20
6723.99975357
 30
0.0
 11
5559.99849598
 21
5114.00027365
 31
0.0
  0
LINE
  5
E52
330
2
100
AcDbEntity
  8
YKK_A1
100
AcDbLine
 10
5655.99849647
 20
6819.99975382
 30
0.0
 11
5655.99849647
 21
5018.00027339
 31
0.0
  0
LINE
  5
E53
330
2
100
AcDbEntity
  8
YKK_A1
100
AcDbLine
 10
5681.99633109
 20
6842.00029997
 30
0.0
 11
5681.99633109
 21
4996.00000001
 31
0.0
  0
LINE
  5
E54
330
2
100
AcDbEntity
  8
YKK_A1
100
AcDbLine
 10
5719.99633107
 20
6855.00030035
 30
0.0
 11
5719.99633107
 21
4983.99999998
 31
0.0
  0
LINE
  5
E55
330
2
100
AcDbEntity
  8
YKK_A1
100
AcDbLine
 10
5734.99633108
 20
6878.00029999
 30
0.0
 11
5734.99633108
 21
4965.0
 31
0.0
  0
LINE
  5
E56
330
2
100
AcDbEntity
  8
YKK_A1
100
AcDbLine
 10
5784.99633107
 20
6943.00029998
 30
0.0
 11
5784.99633107
 21
4900.0
 31
0.0
  0
LINE
  5
E57
330
2
100
AcDbEntity
  8
YKK_A1
  6
YDIVIDE_1
100
AcDbLine
 10
4943.99999773
 20
6819.99975382
 30
0.0
 11
5655.99849647
 21
5919.00001361
 31
0.0
  0
LINE
  5
E58
330
2
100
AcDbEntity
  8
YKK_A1
  6
YDIVIDE_1
100
AcDbLine
 10
5655.99849647
 20
5919.00001361
 30
0.0
 11
4943.99999773
 21
5018.00027339
 31
0.0
  0
TEXT
  5
E59
330
2
100
AcDbEntity
  8
YKK_N1
  6
Continuous
100
AcDbText
 10
5972.99633107
 20
5671.16291492
 30
0.0
 40
60.0
  1
新設窓H=1870
 50
90.0
 41
1.122581
  7
MX_NOTE_STANDARD
 11
5942.99633107
 21
5671.16291492
 31
0.0
100
AcDbText
 73
     2
  0
TEXT
  5
E5A
330
2
100
AcDbEntity
  8
YKK_N1
  6
Continuous
100
AcDbText
 10
5972.99633107
 20
6933.25084292
 30
0.0
 40
60.0
  1
17
 50
90.0
  7
MX_NOTE_STANDARD
 11
5942.99633107
 21
6933.25084292
 31
0.0
100
AcDbText
 73
     2
  0
LINE
  5
E5B
330
2
100
AcDbEntity
  8
YKK_N1
  6
Continuous
100
AcDbLine
 10
5934.99633107
 20
6767.397759
 30
0.0
 11
6034.99633107
 21
6767.397759
 31
0.0
  0
LINE
  5
E5C
330
2
100
AcDbEntity
  8
YKK_N1
  6
Continuous
100
AcDbLine
 10
5934.99633107
 20
6767.397759
 30
0.0
 11
5984.99633107
 21
6854.0003
 31
0.0
  0
LINE
  5
E5D
330
2
100
AcDbEntity
  8
YKK_N1
  6
Continuous
100
AcDbLine
 10
5984.99633107
 20
6871.0003
 30
0.0
 11
5984.99633107
 21
6854.0003
 31
0.0
  0
CIRCLE
  5
E5E
330
2
100
AcDbEntity
  8
YKK_N1
  6
Continuous
100
AcDbCircle
 10
5984.99633107
 20
6871.0003
 30
0.0
 40
5.0
  0
LINE
  5
E5F
330
2
100
AcDbEntity
  8
YKK_N1
  6
Continuous
100
AcDbLine
 10
6034.99633107
 20
6767.397759
 30
0.0
 11
5984.99633107
 21
6854.0003
 31
0.0
  0
LINE
  5
E60
330
2
100
AcDbEntity
  8
YKK_N1
  6
Continuous
100
AcDbLine
 10
5934.99633107
 20
5070.60324
 30
0.0
 11
6034.99633107
 21
5070.60324
 31
0.0
  0
LINE
  5
E61
330
2
100
AcDbEntity
  8
YKK_N1
  6
Continuous
100
AcDbLine
 10
5934.99633107
 20
5070.60324
 30
0.0
 11
5984.99633107
 21
4984.0007
 31
0.0
  0
LINE
  5
E62
330
2
100
AcDbEntity
  8
YKK_N1
  6
Continuous
100
AcDbLine
 10
6034.99633107
 20
5070.60324
 30
0.0
 11
5984.99633107
 21
4984.0007
 31
0.0
  0
LINE
  5
E63
330
2
100
AcDbEntity
  8
YKK_N1
  6
Continuous
100
AcDbLine
 10
5984.99633107
 20
6854.0003
 30
0.0
 11
5984.99633107
 21
4984.0003
 31
0.0
  0
LINE
  5
E64
330
2
100
AcDbEntity
  8
YKK_N1
  6
Continuous
100
AcDbLine
 10
5859.99633107
 20
4984.0003
 30
0.0
 11
6184.99633107
 21
4984.0003
 31
0.0
  0
LINE
  5
E65
330
2
100
AcDbEntity
  8
YKK_N1
  6
Continuous
100
AcDbLine
 10
5859.99633107
 20
6871.0003
 30
0.0
 11
6184.99633107
 21
6871.0003
 31
0.0
  0
LINE
  5
E66
330
2
100
AcDbEntity
  8
YKK_N1
  6
Continuous
100
AcDbLine
 10
5859.99633107
 20
6854.0003
 30
0.0
 11
5984.99633107
 21
6854.0003
 31
0.0
  0
LINE
  5
E67
330
2
100
AcDbEntity
  8
YKK_N1
  6
Continuous
100
AcDbLine
 10
6184.99633107
 20
6871.0003
 30
0.0
 11
6184.99633107
 21
4984.0003
 31
0.0
  0
LINE
  5
E68
330
2
100
AcDbEntity
  8
YKK_N1
  6
Continuous
100
AcDbLine
 10
6134.99633107
 20
6784.397759
 30
0.0
 11
6234.99633107
 21
6784.397759
 31
0.0
  0
LINE
  5
E69
330
2
100
AcDbEntity
  8
YKK_N1
  6
Continuous
100
AcDbLine
 10
6134.99633107
 20
6784.397759
 30
0.0
 11
6184.99633107
 21
6871.0003
 31
0.0
  0
LINE
  5
E6A
330
2
100
AcDbEntity
  8
YKK_N1
  6
Continuous
100
AcDbLine
 10
6234.99633107
 20
6784.397759
 30
0.0
 11
6184.99633107
 21
6871.0003
 31
0.0
  0
LINE
  5
E6B
330
2
100
AcDbEntity
  8
YKK_N1
  6
Continuous
100
AcDbLine
 10
6134.99633107
 20
5070.60284
 30
0.0
 11
6234.99633107
 21
5070.60284
 31
0.0
  0
LINE
  5
E6C
330
2
100
AcDbEntity
  8
YKK_N1
  6
Continuous
100
AcDbLine
 10
6134.99633107
 20
5070.60284
 30
0.0
 11
6184.99633107
 21
4984.0003
 31
0.0
  0
LINE
  5
E6D
330
2
100
AcDbEntity
  8
YKK_N1
  6
Continuous
100
AcDbLine
 10
6234.99633107
 20
5070.60284
 30
0.0
 11
6184.99633107
 21
4984.0003
 31
0.0
  0
TEXT
  5
E6E
330
2
100
AcDbEntity
  8
YKK_N1
  6
Continuous
100
AcDbText
 10
6167.99633107
 20
5460.00171531
 30
0.0
 40
50.0
  1
ジョイント枠出来高JH=1887
 50
90.0
 41
1.122581
  7
MX_NOTE_STANDARD
 11
6142.99633107
 21
5460.00171531
 31
0.0
100
AcDbText
 73
     2
  0
TEXT
  5
E6F
330
2
100
AcDbEntity
  8
YKK_N1
  6
Continuous
100
AcDbText
 10
5137.5003647
 20
4722.0
 30
0.0
 40
40.0
  1
新設窓W=780
  7
MX_NOTE_STANDARD
 11
5137.5003647
 21
4742.0
 31
0.0
100
AcDbText
 73
     2
  0
LINE
  5
E70
330
2
100
AcDbEntity
  8
YKK_N1
  6
Continuous
100
AcDbLine
 10
5715.00003103
 20
4825.0
 30
0.0
 11
5715.00003103
 21
4500.0
 31
0.0
  0
LINE
  5
E71
330
2
100
AcDbEntity
  8
YKK_N1
  6
Continuous
100
AcDbLine
 10
5690.00003103
 20
4825.0
 30
0.0
 11
5690.00003103
 21
4700.0
 31
0.0
  0
LINE
  5
E72
330
2
100
AcDbEntity
  8
YKK_N1
  6
Continuous
100
AcDbLine
 10
5690.00003103
 20
4700.0
 30
0.0
 11
5715.00003103
 21
4700.0
 31
0.0
  0
CIRCLE
  5
E73
330
2
100
AcDbEntity
  8
YKK_N1
  6
Continuous
100
AcDbCircle
 10
5715.00003103
 20
4700.0
 30
0.0
 40
5.0
  0
LINE
  5
E74
330
2
100
AcDbEntity
  8
YKK_N1
  6
Continuous
100
AcDbLine
 10
5603.39749103
 20
4750.0
 30
0.0
 11
5603.39749103
 21
4650.0
 31
0.0
  0
LINE
  5
E75
330
2
100
AcDbEntity
  8
YKK_N1
  6
Continuous
100
AcDbLine
 10
5603.39749103
 20
4750.0
 30
0.0
 11
5690.00003103
 21
4700.0
 31
0.0
  0
LINE
  5
E76
330
2
100
AcDbEntity
  8
YKK_N1
  6
Continuous
100
AcDbLine
 10
5690.00003103
 20
4700.0
 30
0.0
 11
5603.39749103
 21
4650.0
 31
0.0
  0
LINE
  5
E77
330
2
100
AcDbEntity
  8
YKK_N1
  6
Continuous
100
AcDbLine
 10
4996.60257103
 20
4750.0
 30
0.0
 11
4910.00003103
 21
4700.0
 31
0.0
  0
LINE
  5
E78
330
2
100
AcDbEntity
  8
YKK_N1
  6
Continuous
100
AcDbLine
 10
4910.00003103
 20
4700.0
 30
0.0
 11
4996.60257103
 21
4650.0
 31
0.0
  0
CIRCLE
  5
E79
330
2
100
AcDbEntity
  8
YKK_N1
  6
Continuous
100
AcDbCircle
 10
4885.00003103
 20
4700.0
 30
0.0
 40
5.0
  0
LINE
  5
E7A
330
2
100
AcDbEntity
  8
YKK_N1
  6
Continuous
100
AcDbLine
 10
4885.00003103
 20
4700.0
 30
0.0
 11
4910.00003103
 21
4700.0
 31
0.0
  0
LINE
  5
E7B
330
2
100
AcDbEntity
  8
YKK_N1
  6
Continuous
100
AcDbLine
 10
4996.60257103
 20
4750.0
 30
0.0
 11
4996.60257103
 21
4650.0
 31
0.0
  0
LINE
  5
E7C
330
2
100
AcDbEntity
  8
YKK_N1
  6
Continuous
100
AcDbLine
 10
5690.00003103
 20
4700.0
 30
0.0
 11
4910.00003103
 21
4700.0
 31
0.0
  0
LINE
  5
E7D
330
2
100
AcDbEntity
  8
YKK_N1
  6
Continuous
100
AcDbLine
 10
4910.00003103
 20
4825.0
 30
0.0
 11
4910.00003103
 21
4700.0
 31
0.0
  0
LINE
  5
E7E
330
2
100
AcDbEntity
  8
YKK_N1
  6
Continuous
100
AcDbLine
 10
4885.00003103
 20
4825.0
 30
0.0
 11
4885.00003103
 21
4500.0
 31
0.0
  0
LINE
  5
E7F
330
2
100
AcDbEntity
  8
YKK_N1
  6
Continuous
100
AcDbLine
 10
5715.00003103
 20
4500.0
 30
0.0
 11
4885.00003103
 21
4500.0
 31
0.0
  0
LINE
  5
E80
330
2
100
AcDbEntity
  8
YKK_N1
  6
Continuous
100
AcDbLine
 10
4971.60257103
 20
4550.0
 30
0.0
 11
4885.00003103
 21
4500.0
 31
0.0
  0
LINE
  5
E81
330
2
100
AcDbEntity
  8
YKK_N1
  6
Continuous
100
AcDbLine
 10
4885.00003103
 20
4500.0
 30
0.0
 11
4971.60257103
 21
4450.0
 31
0.0
  0
LINE
  5
E82
330
2
100
AcDbEntity
  8
YKK_N1
  6
Continuous
100
AcDbLine
 10
4971.60257103
 20
4550.0
 30
0.0
 11
4971.60257103
 21
4450.0
 31
0.0
  0
LINE
  5
E83
330
2
100
AcDbEntity
  8
YKK_N1
  6
Continuous
100
AcDbLine
 10
5628.39749103
 20
4550.0
 30
0.0
 11
5628.39749103
 21
4450.0
 31
0.0
  0
LINE
  5
E84
330
2
100
AcDbEntity
  8
YKK_N1
  6
Continuous
100
AcDbLine
 10
5628.39749103
 20
4550.0
 30
0.0
 11
5715.00003103
 21
4500.0
 31
0.0
  0
LINE
  5
E85
330
2
100
AcDbEntity
  8
YKK_N1
  6
Continuous
100
AcDbLine
 10
5715.00003103
 20
4500.0
 30
0.0
 11
5628.39749103
 21
4450.0
 31
0.0
  0
TEXT
  5
E86
330
2
100
AcDbEntity
  8
YKK_N1
  6
Continuous
100
AcDbText
 10
5047.75997147
 20
4527.0
 30
0.0
 40
30.0
  1
ジョイント枠出来幅JW=830
  7
MX_NOTE_STANDARD
 11
5047.75997147
 21
4542.0
 31
0.0
100
AcDbText
 73
     2
  0
TEXT
  5
E87
330
2
100
AcDbEntity
  8
YKK_N1
  6
Continuous
100
AcDbText
 10
5749.73771318
 20
4712.000003
 30
0.0
 40
60.0
  1
25
  7
MX_NOTE_STANDARD
100
AcDbText
  0
TEXT
  5
E88
330
2
100
AcDbEntity
  8
YKK_N1
  6
Continuous
100
AcDbText
 10
4763.76985044
 20
4712.000003
 30
0.0
 40
60.0
  1
25
  7
MX_NOTE_STANDARD
100
AcDbText
  0
TEXT
  5
EFE
330
2
100
AcDbEntity
  8
0
100
AcDbText
 10
8534.7087729
 20
9812.5
 30
0.0
 40
100.0
  1
※図面を簡略化しております。詳細につきましては、詳細図（納まり図）をご参照ください。
  7
EXTFONT
 72
     2
 11
13485.66115385
 21
9812.5
 31
0.0
100
AcDbText
  0
ENDSEC
  0
SECTION
  2
OBJECTS
  0
DICTIONARY
  5
1E
330
0
100
AcDbDictionary
281
     1
  3
ACAD_BACKGROUND
350
6EF
  3
ACAD_CIP_PREVIOUS_PRODUCT_INFO
350
9D
  3
ACAD_COLOR
350
7B
  3
ACAD_DETAILVIEWSTYLE
350
95
  3
ACAD_GROUP
350
1C
  3
ACAD_LAYOUT
350
7C
  3
ACAD_MATERIAL
350
49
  3
ACAD_MLEADERSTYLE
350
91
  3
ACAD_MLINESTYLE
350
1D
  3
ACAD_PLOTSETTINGS
350
97
  3
ACAD_PLOTSTYLENAME
350
47
  3
ACAD_RENDER_ACTIVE_RAPIDRT_SETTINGS
350
A7
  3
ACAD_RENDER_ACTIVE_SETTINGS
350
84F
  3
ACAD_SCALELIST
350
7F
  3
ACAD_SECTIONVIEWSTYLE
350
93
  3
ACAD_TABLESTYLE
350
7D
  3
ACAD_VISUALSTYLE
350
62
  3
ACDB_RECOMPOSE_DATA
350
F58
  3
AcDbVariableDictionary
350
856
  0
DICTIONARY
  5
812
330
16
100
AcDbDictionary
280
     1
281
     1
  0
DICTIONARY
  5
116
330
E
100
AcDbDictionary
280
     1
281
     1
  3
ACAD_LAYERSTATES
360
117
  0
DICTIONARY
  5
B2
330
6
100
AcDbDictionary
280
     1
281
     1
  3
ADSK_XREC_LAYER_RECONCILED
360
B3
  0
DICTIONARY
  5
B4
330
24
100
AcDbDictionary
280
     1
281
     1
  3
ADSK_XREC_LAYER_RECONCILED
360
B5
  0
DICTIONARY
  5
105
330
104
100
AcDbDictionary
280
     1
281
     1
  0
DICTIONARY
  5
107
330
106
100
AcDbDictionary
280
     1
281
     1
  0
DICTIONARY
  5
109
330
108
100
AcDbDictionary
280
     1
281
     1
  0
DICTIONARY
  5
10B
330
10A
100
AcDbDictionary
280
     1
281
     1
  0
DICTIONARY
  5
10D
330
10C
100
AcDbDictionary
280
     1
281
     1
  0
DICTIONARY
  5
10F
330
10E
100
AcDbDictionary
280
     1
281
     1
  0
DICTIONARY
  5
3
330
2
100
AcDbDictionary
280
     1
281
     1
  3
ACAD_LAYOUTSELFREF
360
4
  0
DICTIONARY
  5
A
330
9
100
AcDbDictionary
280
     1
281
     1
  3
ACAD_LAYOUTSELFREF
360
B
  0
DICTIONARY
  5
6EF
102
{ACAD_REACTORS
330
1E
102
}
330
1E
100
AcDbDictionary
281
     1
  0
XRECORD
  5
9D
102
{ACAD_REACTORS
330
1E
102
}
330
1E
100
AcDbXrecord
280
     1
300
ACD
300
2018
300
86830ACD_2018_0F
  0
DICTIONARY
  5
7B
102
{ACAD_REACTORS
330
1E
102
}
330
1E
100
AcDbDictionary
281
     1
  0
DICTIONARY
  5
95
102
{ACAD_REACTORS
330
1E
102
}
330
1E
100
AcDbDictionary
281
     1
  3
Imperial24
350
96
  3
Metric50
350
119
  0
DICTIONARY
  5
1C
102
{ACAD_REACTORS
330
1E
102
}
330
1E
100
AcDbDictionary
281
     1
  0
DICTIONARY
  5
7C
102
{ACAD_REACTORS
330
1E
102
}
330
1E
100
AcDbDictionary
281
     1
  3
Model
350
98
  3
レイアウト1
350
99
  0
DICTIONARY
  5
49
102
{ACAD_REACTORS
330
1E
102
}
330
1E
100
AcDbDictionary
281
     1
  3
ByBlock
350
52
  3
ByLayer
350
4A
  3
Global
350
5A
  0
DICTIONARY
  5
91
102
{ACAD_REACTORS
330
1E
102
}
330
1E
100
AcDbDictionary
281
     1
  3
Standard
350
92
  0
DICTIONARY
  5
1D
102
{ACAD_REACTORS
330
1E
102
}
330
1E
100
AcDbDictionary
281
     1
  3
STANDARD
350
1F
  0
DICTIONARY
  5
97
102
{ACAD_REACTORS
330
1E
102
}
330
1E
100
AcDbDictionary
281
     1
  0
ACDBDICTIONARYWDFLT
  5
47
102
{ACAD_REACTORS
330
1E
102
}
330
1E
100
AcDbDictionary
281
     1
  3
Normal
350
48
100
AcDbDictionaryWithDefault
340
48
  0
RAPIDRTRENDERSETTINGS
  5
A7
102
{ACAD_REACTORS
330
1E
102
}
330
1E
100
AcDbRenderSettings
 90
        2
  1
中
290
     1
290
     0
290
     1
290
     1
  1

  1
5 レンダリング レベルを適用
 90
        0
100
AcDbRapidRTRenderSettings
 90
        3
 70
     0
 90
        5
 90
        1
 70
     1
 70
     2
 40
3.0
 40
3.0
290
     1
  0
MENTALRAYRENDERSETTINGS
  5
84F
102
{ACAD_XDICTIONARY
360
850
102
}
102
{ACAD_REACTORS
330
1E
102
}
330
1E
100
AcDbRenderSettings
 90
        2
  1
中間
290
     1
290
     1
290
     1
290
     1
  1

  1

 90
        0
100
AcDbMentalRayRenderSettings
 90
        2
 90
        0
 90
        1
 70
     2
 40
3.0
 40
3.0
 40
0.05
 40
0.05
 40
0.05
 40
0.05
 70
     0
290
     0
290
     1
 90
        5
 90
        5
 90
        5
290
     0
 90
      500
290
     0
 40
1.0
 90
    10000
 90
        5
 90
        5
 90
        5
290
     0
 90
      200
290
     0
290
     0
290
     0
 40
1.0
 40
1.0
 40
1500.0
 70
     0
 70
     0
 40
10.0
 70
     0
 70
     0
290
     0
  1

 90
       32
 70
     0
 90
     1048
290
     0
 40
1.0
  0
DICTIONARY
  5
7F
102
{ACAD_REACTORS
330
1E
102
}
330
1E
100
AcDbDictionary
281
     1
  3
A0
350
80
  3
A1
350
81
  3
A2
350
82
  3
A3
350
83
  3
A4
350
84
  3
A5
350
85
  3
A6
350
86
  3
A7
350
87
  3
A8
350
88
  3
A9
350
89
  3
B0
350
8A
  3
B1
350
8B
  3
B2
350
8C
  3
B3
350
8D
  3
B4
350
8E
  3
B5
350
8F
  3
B6
350
90
  0
DICTIONARY
  5
93
102
{ACAD_REACTORS
330
1E
102
}
330
1E
100
AcDbDictionary
281
     1
  3
Imperial24
350
94
  3
Metric50
350
118
  0
DICTIONARY
  5
7D
102
{ACAD_REACTORS
330
1E
102
}
330
1E
100
AcDbDictionary
281
     1
  3
Standard
350
7E
  0
DICTIONARY
  5
62
102
{ACAD_REACTORS
330
1E
102
}
330
1E
100
AcDbDictionary
281
     1
  3
2dWireframe
350
68
  3
Basic
350
67
  3
Brighten
350
6E
  3
ColorChange
350
72
  3
Conceptual
350
6B
  3
Dim
350
6D
  3
EdgeColorOff
350
7A
  3
Facepattern
350
71
  3
Flat
350
63
  3
FlatWithEdges
350
64
  3
Gouraud
350
65
  3
GouraudWithEdges
350
66
  3
Hidden
350
6A
  3
JitterOff
350
78
  3
Linepattern
350
70
  3
OverhangOff
350
79
  3
Realistic
350
6C
  3
Shaded
350
77
  3
Shaded with edges
350
76
  3
Shades of Gray
350
73
  3
Sketchy
350
74
  3
Thicken
350
6F
  3
Wireframe
350
69
  3
X-Ray
350
75
  0
XRECORD
  5
F58
102
{ACAD_REACTORS
330
1E
102
}
330
1E
100
AcDbXrecord
280
     1
 90
        1
330
7E
  0
DICTIONARY
  5
856
102
{ACAD_REACTORS
330
1E
102
}
330
1E
100
AcDbDictionary
281
     1
  3
CANNOSCALE
350
85B
  3
CMLEADERSTYLE
350
858
  3
CTABLESTYLE
350
857
  3
CVIEWDETAILSTYLE
350
859
  3
CVIEWSECTIONSTYLE
350
85A
  3
XCLIPFRAME
350
F56
  0
DICTIONARY
  5
117
102
{ACAD_REACTORS
330
116
102
}
330
116
100
AcDbDictionary
281
     1
  0
XRECORD
  5
B3
102
{ACAD_REACTORS
330
B2
102
}
330
B2
100
AcDbXrecord
280
     1
290
     1
  0
XRECORD
  5
B5
102
{ACAD_REACTORS
330
B4
102
}
330
B4
100
AcDbXrecord
280
     1
290
     1
  0
XRECORD
  5
4
102
{ACAD_REACTORS
330
3
102
}
330
3
100
AcDbXrecord
280
     1
340
2
  0
XRECORD
  5
B
102
{ACAD_REACTORS
330
A
102
}
330
A
100
AcDbXrecord
280
     1
340
9
  0
ACDBDETAILVIEWSTYLE
  5
96
102
{ACAD_XDICTIONARY
360
F91
102
}
102
{ACAD_REACTORS
330
95
102
}
330
95
100
AcDbModelDocViewStyle
 70
     0
  3
Imperial24
290
     0
100
AcDbDetailViewStyle
 70
     0
 71
     0
 90
        3
 71
     1
340
10
 62
   256
 40
0.24
340
0
 62
   256
 40
0.24
300

 40
0.36
280
     3
 71
     2
340
7
 90
       25
 62
   256
 71
     3
340
10
 62
   256
 40
0.24
 90
        1
 40
0.75
 90
        1
300
%<\AcVar ViewType \f "%tc1">% %<\AcVar ViewDetailId>%\PSCALE %<\AcVar ViewScale \f "%sn">%
 71
     4
340
7
 90
       25
 62
   256
340
7
 90
       25
 62
   256
280
     0
  0
ACDBDETAILVIEWSTYLE
  5
119
102
{ACAD_XDICTIONARY
360
F95
102
}
102
{ACAD_REACTORS
330
95
102
}
330
95
100
AcDbModelDocViewStyle
 70
     0
  3
Metric50
290
     0
100
AcDbDetailViewStyle
 70
     0
 71
     0
 90
        3
 71
     1
340
10
 62
   256
 40
5.0
340
0
 62
   256
 40
5.0
300

 40
0.0
280
     1
 71
     2
340
7
 90
       25
 62
   256
 71
     3
340
10
 62
   256
 40
5.0
 90
        0
 40
15.0
 90
        1
300
%<\AcVar ViewDetailId>% (%<\AcVar ViewScale \f "%sn">%)
 71
     4
340
7
 90
       25
 62
   256
340
7
 90
       25
 62
   256
280
     0
  0
LAYOUT
  5
98
102
{ACAD_XDICTIONARY
360
EE0
102
}
102
{ACAD_REACTORS
330
7C
102
}
330
7C
100
AcDbPlotSettings
  1

  2
FX ApeosPort-V C7776
  4
A4
  6

 40
4.90008307
 41
4.90005493
 42
4.90008545
 43
4.90008545
 44
210.01567078
 45
297.01065063
 46
0.0
 47
0.0
 48
0.0
 49
0.0
140
0.0
141
0.0
142
1.0
143
6240.87038063
 70
  1712
 72
     0
 73
     0
 74
     0
  7
monochrome.ctb
 75
     0
147
0.00016023
 76
     0
 77
     2
 78
   300
148
38988.52545419
149
1987.59756046
100
AcDbLayout
  1
Model
 70
     1
 71
     0
 10
0.0
 20
0.0
 11
12.0
 21
9.0
 12
0.0
 22
0.0
 32
0.0
 14
0.0
 24
0.0
 34
0.0
 15
0.0
 25
0.0
 35
0.0
146
0.0
 13
0.0
 23
0.0
 33
0.0
 16
1.0
 26
0.0
 36
0.0
 17
0.0
 27
1.0
 37
0.0
 76
     0
330
2
331
45
  0
LAYOUT
  5
99
102
{ACAD_REACTORS
330
7C
102
}
330
7C
100
AcDbPlotSettings
  1

  2
FX ApeosPort-V C7776
  4
A4
  6

 40
4.90008307
 41
4.90005493
 42
4.90008545
 43
4.90008545
 44
210.01567078
 45
297.01065063
 46
0.0
 47
0.0
 48
0.0
 49
0.0
140
0.0
141
0.0
142
1.0
143
1.0
 70
   688
 72
     0
 73
     0
 74
     5
  7
monochrome.ctb
 75
    16
147
1.0
 76
     0
 77
     2
 78
   300
148
0.0
149
0.0
100
AcDbLayout
  1
レイアウト1
 70
     0
 71
     1
 10
0.0
 20
0.0
 11
12.0
 21
9.0
 12
0.0
 22
0.0
 32
0.0
 14
1.00000000E+20
 24
1.00000000E+20
 34
1.00000000E+20
 15
-1.00000000E+20
 25
-1.00000000E+20
 35
-1.00000000E+20
146
0.0
 13
0.0
 23
0.0
 33
0.0
 16
1.0
 26
0.0
 36
0.0
 17
0.0
 27
1.0
 37
0.0
 76
     0
330
9
  0
MATERIAL
  5
52
102
{ACAD_XDICTIONARY
360
53
102
}
102
{ACAD_REACTORS
330
49
102
}
330
49
100
AcDbMaterial
  1
ByBlock
 72
     0
 43
0.02083333
 43
0.0
 43
0.0
 43
0.0
 43
0.0
 43
0.02083333
 43
0.0
 43
0.0
 43
0.0
 43
0.0
 43
1.0
 43
0.0
 43
0.0
 43
0.0
 43
0.0
 43
1.0
 77
     0
 47
0.02083333
 47
0.0
 47
0.0
 47
0.0
 47
0.0
 47
0.02083333
 47
0.0
 47
0.0
 47
0.0
 47
0.0
 47
1.0
 47
0.0
 47
0.0
 47
0.0
 47
0.0
 47
1.0
171
     0
 49
0.02083333
 49
0.0
 49
0.0
 49
0.0
 49
0.0
 49
0.02083333
 49
0.0
 49
0.0
 49
0.0
 49
0.0
 49
1.0
 49
0.0
 49
0.0
 49
0.0
 49
0.0
 49
1.0
175
     0
142
0.02083333
142
0.0
142
0.0
142
0.0
142
0.0
142
0.02083333
142
0.0
142
0.0
142
0.0
142
0.0
142
1.0
142
0.0
142
0.0
142
0.0
142
0.0
142
1.0
179
     0
144
0.02083333
144
0.0
144
0.0
144
0.0
144
0.0
144
0.02083333
144
0.0
144
0.0
144
0.0
144
0.0
144
1.0
144
0.0
144
0.0
144
0.0
144
0.0
144
1.0
147
0.02083333
147
0.0
147
0.0
147
0.0
147
0.0
147
0.02083333
147
0.0
147
0.0
147
0.0
147
0.0
147
1.0
147
0.0
147
0.0
147
0.0
147
0.0
147
1.0
  0
MATERIAL
  5
4A
102
{ACAD_XDICTIONARY
360
4B
102
}
102
{ACAD_REACTORS
330
49
102
}
330
49
100
AcDbMaterial
  1
ByLayer
 72
     0
 43
0.02083333
 43
0.0
 43
0.0
 43
0.0
 43
0.0
 43
0.02083333
 43
0.0
 43
0.0
 43
0.0
 43
0.0
 43
1.0
 43
0.0
 43
0.0
 43
0.0
 43
0.0
 43
1.0
 77
     0
 47
0.02083333
 47
0.0
 47
0.0
 47
0.0
 47
0.0
 47
0.02083333
 47
0.0
 47
0.0
 47
0.0
 47
0.0
 47
1.0
 47
0.0
 47
0.0
 47
0.0
 47
0.0
 47
1.0
171
     0
 49
0.02083333
 49
0.0
 49
0.0
 49
0.0
 49
0.0
 49
0.02083333
 49
0.0
 49
0.0
 49
0.0
 49
0.0
 49
1.0
 49
0.0
 49
0.0
 49
0.0
 49
0.0
 49
1.0
175
     0
142
0.02083333
142
0.0
142
0.0
142
0.0
142
0.0
142
0.02083333
142
0.0
142
0.0
142
0.0
142
0.0
142
1.0
142
0.0
142
0.0
142
0.0
142
0.0
142
1.0
179
     0
144
0.02083333
144
0.0
144
0.0
144
0.0
144
0.0
144
0.02083333
144
0.0
144
0.0
144
0.0
144
0.0
144
1.0
144
0.0
144
0.0
144
0.0
144
0.0
144
1.0
147
0.02083333
147
0.0
147
0.0
147
0.0
147
0.0
147
0.02083333
147
0.0
147
0.0
147
0.0
147
0.0
147
1.0
147
0.0
147
0.0
147
0.0
147
0.0
147
1.0
  0
MATERIAL
  5
5A
102
{ACAD_XDICTIONARY
360
5B
102
}
102
{ACAD_REACTORS
330
49
102
}
330
49
100
AcDbMaterial
  1
Global
 72
     0
 43
0.02083333
 43
0.0
 43
0.0
 43
0.0
 43
0.0
 43
0.02083333
 43
0.0
 43
0.0
 43
0.0
 43
0.0
 43
1.0
 43
0.0
 43
0.0
 43
0.0
 43
0.0
 43
1.0
 77
     0
 47
0.02083333
 47
0.0
 47
0.0
 47
0.0
 47
0.0
 47
0.02083333
 47
0.0
 47
0.0
 47
0.0
 47
0.0
 47
1.0
 47
0.0
 47
0.0
 47
0.0
 47
0.0
 47
1.0
171
     0
 49
0.02083333
 49
0.0
 49
0.0
 49
0.0
 49
0.0
 49
0.02083333
 49
0.0
 49
0.0
 49
0.0
 49
0.0
 49
1.0
 49
0.0
 49
0.0
 49
0.0
 49
0.0
 49
1.0
175
     0
142
0.02083333
142
0.0
142
0.0
142
0.0
142
0.0
142
0.02083333
142
0.0
142
0.0
142
0.0
142
0.0
142
1.0
142
0.0
142
0.0
142
0.0
142
0.0
142
1.0
179
     0
144
0.02083333
144
0.0
144
0.0
144
0.0
144
0.0
144
0.02083333
144
0.0
144
0.0
144
0.0
144
0.0
144
1.0
144
0.0
144
0.0
144
0.0
144
0.0
144
1.0
147
0.02083333
147
0.0
147
0.0
147
0.0
147
0.0
147
0.02083333
147
0.0
147
0.0
147
0.0
147
0.0
147
1.0
147
0.0
147
0.0
147
0.0
147
0.0
147
1.0
  0
MLEADERSTYLE
  5
92
102
{ACAD_XDICTIONARY
360
F8D
102
}
102
{ACAD_REACTORS
330
91
102
}
330
91
100
AcDbMLeaderStyle
170
     2
171
     1
172
     0
 90
        2
 40
0.0
 41
0.0
173
     1
 91
-1056964608
340
12
 92
       -2
290
     1
 42
0.09
291
     1
 43
0.36
  3
Standard
 44
0.18
300

342
10
174
     1
178
     6
175
     1
176
     0
 93
-1056964608
 45
0.18
292
     0
297
     0
 46
0.18
 94
-1056964608
 47
1.0
 49
1.0
140
1.0
293
     1
141
0.0
294
     1
177
     0
142
1.0
295
     0
296
     0
143
0.125
1001
ACAD_MLEADERVER
1070
     2
  0
MLINESTYLE
  5
1F
102
{ACAD_REACTORS
330
1D
102
}
330
1D
100
AcDbMlineStyle
  2
STANDARD
 70
     0
  3

 62
   256
 51
90.0
 52
90.0
 71
     2
 49
0.5
 62
   256
  6
BYLAYER
 49
-0.5
 62
   256
  6
BYLAYER
  0
ACDBPLACEHOLDER
  5
48
102
{ACAD_REACTORS
330
47
102
}
330
47
  0
DICTIONARY
  5
850
330
84F
100
AcDbDictionary
280
     1
281
     1
  3
ADSK_XREC_MENTALRAYSETTINGSINFO
360
851
  0
SCALE
  5
80
102
{ACAD_REACTORS
330
7F
102
}
330
7F
100
AcDbScale
 70
     0
300
1:1
140
1.0
141
1.0
290
     1
  0
SCALE
  5
81
102
{ACAD_REACTORS
330
7F
102
}
330
7F
100
AcDbScale
 70
     0
300
1/128" = 1'-0"
140
0.0078125
141
12.0
290
     0
  0
SCALE
  5
82
102
{ACAD_REACTORS
330
7F
102
}
330
7F
100
AcDbScale
 70
     0
300
1/64" = 1'-0"
140
0.015625
141
12.0
290
     0
  0
SCALE
  5
83
102
{ACAD_REACTORS
330
7F
102
}
330
7F
100
AcDbScale
 70
     0
300
1/32" = 1'-0"
140
0.03125
141
12.0
290
     0
  0
SCALE
  5
84
102
{ACAD_REACTORS
330
7F
102
}
330
7F
100
AcDbScale
 70
     0
300
1/16" = 1'-0"
140
0.0625
141
12.0
290
     0
  0
SCALE
  5
85
102
{ACAD_REACTORS
330
7F
102
}
330
7F
100
AcDbScale
 70
     0
300
3/32" = 1'-0"
140
0.09375
141
12.0
290
     0
  0
SCALE
  5
86
102
{ACAD_REACTORS
330
7F
102
}
330
7F
100
AcDbScale
 70
     0
300
1/8" = 1'-0"
140
0.125
141
12.0
290
     0
  0
SCALE
  5
87
102
{ACAD_REACTORS
330
7F
102
}
330
7F
100
AcDbScale
 70
     0
300
3/16" = 1'-0"
140
0.1875
141
12.0
290
     0
  0
SCALE
  5
88
102
{ACAD_REACTORS
330
7F
102
}
330
7F
100
AcDbScale
 70
     0
300
1/4" = 1'-0"
140
0.25
141
12.0
290
     0
  0
SCALE
  5
89
102
{ACAD_REACTORS
330
7F
102
}
330
7F
100
AcDbScale
 70
     0
300
3/8" = 1'-0"
140
0.375
141
12.0
290
     0
  0
SCALE
  5
8A
102
{ACAD_REACTORS
330
7F
102
}
330
7F
100
AcDbScale
 70
     0
300
1/2" = 1'-0"
140
0.5
141
12.0
290
     0
  0
SCALE
  5
8B
102
{ACAD_REACTORS
330
7F
102
}
330
7F
100
AcDbScale
 70
     0
300
3/4" = 1'-0"
140
0.75
141
12.0
290
     0
  0
SCALE
  5
8C
102
{ACAD_REACTORS
330
7F
102
}
330
7F
100
AcDbScale
 70
     0
300
1" = 1'-0"
140
1.0
141
12.0
290
     0
  0
SCALE
  5
8D
102
{ACAD_REACTORS
330
7F
102
}
330
7F
100
AcDbScale
 70
     0
300
1-1/2" = 1'-0"
140
1.5
141
12.0
290
     0
  0
SCALE
  5
8E
102
{ACAD_REACTORS
330
7F
102
}
330
7F
100
AcDbScale
 70
     0
300
3" = 1'-0"
140
3.0
141
12.0
290
     0
  0
SCALE
  5
8F
102
{ACAD_REACTORS
330
7F
102
}
330
7F
100
AcDbScale
 70
     0
300
6" = 1'-0"
140
6.0
141
12.0
290
     0
  0
SCALE
  5
90
102
{ACAD_REACTORS
330
7F
102
}
330
7F
100
AcDbScale
 70
     0
300
1'-0" = 1'-0"
140
12.0
141
12.0
290
     0
  0
ACDBSECTIONVIEWSTYLE
  5
94
102
{ACAD_XDICTIONARY
360
F8F
102
}
102
{ACAD_REACTORS
330
93
102
}
330
93
100
AcDbModelDocViewStyle
 70
     0
  3
Imperial24
290
     0
100
AcDbSectionViewStyle
 70
     0
 71
     0
 90
       78
 71
     1
340
10
 62
   256
 40
0.24
340
0
340
0
 62
   256
 40
0.24
300
I, O, Q, S, X, Z
 40
0.48
 90
        3
 40
0.18
 90
        1
 71
     2
340
7
 90
       25
 62
   256
340
7
 90
       50
 62
   256
 40
0.24
 40
0.0
 40
0.24
 71
     3
340
10
 62
   256
 40
0.24
 90
        1
 40
0.75
 90
        1
300
%<\AcVar ViewType \f "%tc1">% %<\AcVar ViewSectionStartId>%-%<\AcVar ViewSectionEndId>%\PSCALE %<\AcVar ViewScale \f "%sn">%
 71
     4
 62
   256
 62
   257
300
ANSI31
 40
1.0
 90
        0
290
     0
290
     0
 90
        6
 40
0.0
 40
1.57079633
 40
0.26179939
 40
1.30899694
 40
-0.26179939
 40
1.83259571
  0
ACDBSECTIONVIEWSTYLE
  5
118
102
{ACAD_XDICTIONARY
360
F93
102
}
102
{ACAD_REACTORS
330
93
102
}
330
93
100
AcDbModelDocViewStyle
 70
     0
  3
Metric50
290
     0
100
AcDbSectionViewStyle
 70
     0
 71
     0
 90
      102
 71
     1
340
10
 62
   256
 40
5.0
340
0
340
0
 62
   256
 40
5.0
300
I, O, Q, S, X, Z
 40
10.0
 90
        0
 40
2.5
 90
        0
 71
     2
340
7
 90
       25
 62
   256
340
7
 90
       50
 62
   256
 40
5.0
 40
2.5
 40
5.0
 71
     3
340
10
 62
   256
 40
5.0
 90
        0
 40
15.0
 90
        1
300
%<\AcVar ViewSectionStartId>%-%<\AcVar ViewSectionEndId>% (%<\AcVar ViewScale \f "%sn">%)
 71
     4
 62
   256
 62
   257
300
ANSI31
 40
1.0
 90
        0
290
     0
290
     0
 90
        6
 40
0.0
 40
1.57079633
 40
0.26179939
 40
1.30899694
 40
-0.26179939
 40
1.83259571
  0
TABLESTYLE
  5
7E
102
{ACAD_XDICTIONARY
360
807
102
}
102
{ACAD_REACTORS
330
7D
102
}
330
7D
100
AcDbTableStyle
  3
Standard
 70
     0
 71
     0
 40
0.06
 41
0.06
280
     0
281
     0
  7
STANDARD
140
0.18
170
     2
 62
     0
 63
     7
283
     0
274
    -2
284
     1
 64
     0
275
    -2
285
     1
 65
     0
276
    -2
286
     1
 66
     0
277
    -2
287
     1
 67
     0
278
    -2
288
     1
 68
     0
279
    -2
289
     1
 69
     0
  7
STANDARD
140
0.25
170
     5
 62
     0
 63
     7
283
     0
274
    -2
284
     1
 64
     0
275
    -2
285
     1
 65
     0
276
    -2
286
     1
 66
     0
277
    -2
287
     1
 67
     0
278
    -2
288
     1
 68
     0
279
    -2
289
     1
 69
     0
  7
STANDARD
140
0.18
170
     5
 62
     0
 63
     7
283
     0
274
    -2
284
     1
 64
     0
275
    -2
285
     1
 65
     0
276
    -2
286
     1
 66
     0
277
    -2
287
     1
 67
     0
278
    -2
288
     1
 68
     0
279
    -2
289
     1
 69
     0
  0
VISUALSTYLE
  5
68
102
{ACAD_XDICTIONARY
360
F66
102
}
102
{ACAD_REACTORS
330
62
102
}
330
62
100
AcDbVisualStyle
  2
2dWireframe
 70
     4
 71
     0
 72
     2
 73
     0
 90
        0
 40
-0.6
 41
-30.0
 62
     5
 63
     7
421
 16777215
 74
     1
 91
        4
 64
     7
 65
   257
 75
     1
175
     1
 42
1.0
 92
        0
 66
   257
 43
1.0
 76
     1
 77
     6
 78
     2
 67
     7
 79
     5
170
     0
171
     0
290
     0
174
     0
 93
        1
 44
0.0
173
     0
291
     0
 45
0.0
1001
ACAD
1000
AcDbSavedByObjectVersion
1070
     0
  0
VISUALSTYLE
  5
67
102
{ACAD_XDICTIONARY
360
F64
102
}
102
{ACAD_REACTORS
330
62
102
}
330
62
100
AcDbVisualStyle
  2
Basic
 70
     7
 71
     1
 72
     0
 73
     1
 90
        0
 40
-0.6
 41
-30.0
 62
     5
 63
     7
421
 16777215
 74
     0
 91
        4
 64
     7
 65
   257
 75
     1
175
     1
 42
1.0
 92
        8
 66
     7
 43
1.0
 76
     1
 77
     6
 78
     2
 67
     7
 79
     5
170
     0
171
     0
290
     0
174
     0
 93
        1
 44
0.0
173
     0
291
     1
 45
0.0
1001
ACAD
1000
AcDbSavedByObjectVersion
1070
     0
  0
VISUALSTYLE
  5
6E
102
{ACAD_XDICTIONARY
360
F72
102
}
102
{ACAD_REACTORS
330
62
102
}
330
62
100
AcDbVisualStyle
  2
Brighten
 70
    12
 71
     2
 72
     2
 73
     0
 90
        0
 40
-0.6
 41
-30.0
 62
     5
 63
     7
421
 16777215
 74
     1
 91
        4
 64
     7
 65
   257
 75
     1
175
     1
 42
1.0
 92
        8
 66
     7
 43
1.0
 76
     1
 77
     6
 78
     2
 67
     7
 79
     5
170
     0
171
     0
290
     0
174
     0
 93
        1
 44
50.0
173
     0
291
     1
 45
0.0
1001
ACAD
1000
AcDbSavedByObjectVersion
1070
     0
  0
VISUALSTYLE
  5
72
102
{ACAD_XDICTIONARY
360
F7A
102
}
102
{ACAD_REACTORS
330
62
102
}
330
62
100
AcDbVisualStyle
  2
ColorChange
 70
    16
 71
     2
 72
     2
 73
     3
 90
        0
 40
-0.6
 41
-30.0
 62
     5
 63
     8
421
  8421504
 74
     1
 91
        4
 64
     7
 65
   257
 75
     1
175
     1
 42
1.0
 92
        8
 66
     8
424
  8421504
 43
1.0
 76
     1
 77
     6
 78
     2
 67
     7
 79
     5
170
     0
171
     0
290
     0
174
     0
 93
        1
 44
0.0
173
     0
291
     1
 45
0.0
1001
ACAD
1000
AcDbSavedByObjectVersion
1070
     0
  0
VISUALSTYLE
  5
6B
102
{ACAD_XDICTIONARY
360
F6C
102
}
102
{ACAD_REACTORS
330
62
102
}
330
62
100
AcDbVisualStyle
  2
Conceptual
 70
     9
 71
     3
 72
     2
 73
     0
 90
        0
 40
-0.6
 41
-30.0
 62
     5
 63
     7
421
 16777215
 74
     2
 91
        2
 64
     7
 65
   257
 75
     1
175
     1
 42
179.0
 92
        8
 66
     7
 43
1.0
 76
     1
 77
     6
 78
     2
 67
     7
 79
     3
170
     0
171
     0
290
     0
174
     0
 93
        1
 44
0.0
173
     0
291
     0
 45
0.0
1001
ACAD
1000
AcDbSavedByObjectVersion
1070
     0
  0
VISUALSTYLE
  5
6D
102
{ACAD_XDICTIONARY
360
F70
102
}
102
{ACAD_REACTORS
330
62
102
}
330
62
100
AcDbVisualStyle
  2
Dim
 70
    11
 71
     2
 72
     2
 73
     0
 90
        0
 40
-0.6
 41
-30.0
 62
     5
 63
     7
421
 16777215
 74
     1
 91
        4
 64
     7
 65
   257
 75
     1
175
     1
 42
1.0
 92
        8
 66
     7
 43
1.0
 76
     1
 77
     6
 78
     2
 67
     7
 79
     5
170
     0
171
     0
290
     0
174
     0
 93
        1
 44
-50.0
173
     0
291
     1
 45
0.0
1001
ACAD
1000
AcDbSavedByObjectVersion
1070
     0
  0
VISUALSTYLE
  5
7A
102
{ACAD_XDICTIONARY
360
F8A
102
}
102
{ACAD_REACTORS
330
62
102
}
330
62
100
AcDbVisualStyle
  2
EdgeColorOff
 70
    22
 71
     2
 72
     2
 73
     0
 90
        0
 40
-0.6
 41
-30.0
 62
     5
 63
     7
421
 16777215
 74
     1
 91
        4
 64
     7
 65
   257
 75
     1
175
     1
 42
1.0
 92
        8
 66
     7
 43
1.0
 76
     1
 77
     6
 78
     2
 67
     7
 79
     5
170
     0
171
     0
290
     0
174
     0
 93
        1
 44
0.0
173
     0
291
     1
 45
0.0
1001
ACAD
1000
AcDbSavedByObjectVersion
1070
     0
  0
VISUALSTYLE
  5
71
102
{ACAD_XDICTIONARY
360
F78
102
}
102
{ACAD_REACTORS
330
62
102
}
330
62
100
AcDbVisualStyle
  2
Facepattern
 70
    15
 71
     2
 72
     2
 73
     0
 90
        0
 40
-0.6
 41
-30.0
 62
     5
 63
     7
421
 16777215
 74
     1
 91
        4
 64
     7
 65
   257
 75
     1
175
     1
 42
1.0
 92
        8
 66
     7
 43
1.0
 76
     1
 77
     6
 78
     2
 67
     7
 79
     5
170
     0
171
     0
290
     0
174
     0
 93
        1
 44
0.0
173
     0
291
     1
 45
0.0
1001
ACAD
1000
AcDbSavedByObjectVersion
1070
     0
  0
VISUALSTYLE
  5
63
102
{ACAD_XDICTIONARY
360
F5C
102
}
102
{ACAD_REACTORS
330
62
102
}
330
62
100
AcDbVisualStyle
  2
Flat
 70
     0
 71
     2
 72
     1
 73
     1
 90
        2
 40
-0.6
 41
30.0
 62
     5
 63
     7
421
 16777215
 74
     0
 91
        0
 64
     7
 65
   257
 75
     1
175
     1
 42
1.0
 92
        8
 66
     7
 43
1.0
 76
     1
 77
     6
 78
     2
 67
     7
 79
     5
170
     0
171
     0
290
     0
174
     0
 93
       13
 44
0.0
173
     0
291
     1
 45
0.0
1001
ACAD
1000
AcDbSavedByObjectVersion
1070
     0
  0
VISUALSTYLE
  5
64
102
{ACAD_XDICTIONARY
360
F5E
102
}
102
{ACAD_REACTORS
330
62
102
}
330
62
100
AcDbVisualStyle
  2
FlatWithEdges
 70
     1
 71
     2
 72
     1
 73
     1
 90
        2
 40
-0.6
 41
30.0
 62
     5
 63
     7
421
 16777215
 74
     1
 91
        0
 64
     7
 65
   257
 75
     1
175
     1
 42
1.0
 92
        0
 66
   257
 43
1.0
 76
     1
 77
     6
 78
     2
 67
     7
 79
     5
170
     0
171
     0
290
     0
174
     0
 93
       13
 44
0.0
173
     0
291
     1
 45
0.0
1001
ACAD
1000
AcDbSavedByObjectVersion
1070
     0
  0
VISUALSTYLE
  5
65
102
{ACAD_XDICTIONARY
360
F60
102
}
102
{ACAD_REACTORS
330
62
102
}
330
62
100
AcDbVisualStyle
  2
Gouraud
 70
     2
 71
     2
 72
     2
 73
     1
 90
        2
 40
-0.6
 41
30.0
 62
     5
 63
     7
421
 16777215
 74
     0
 91
        0
 64
     7
 65
   257
 75
     1
175
     1
 42
1.0
 92
        0
 66
     7
 43
1.0
 76
     1
 77
     6
 78
     2
 67
     7
 79
     5
170
     0
171
     0
290
     0
174
     0
 93
       13
 44
0.0
173
     0
291
     1
 45
0.0
1001
ACAD
1000
AcDbSavedByObjectVersion
1070
     0
  0
VISUALSTYLE
  5
66
102
{ACAD_XDICTIONARY
360
F62
102
}
102
{ACAD_REACTORS
330
62
102
}
330
62
100
AcDbVisualStyle
  2
GouraudWithEdges
 70
     3
 71
     2
 72
     2
 73
     1
 90
        2
 40
-0.6
 41
30.0
 62
     5
 63
     7
421
 16777215
 74
     1
 91
        0
 64
     7
 65
   257
 75
     1
175
     1
 42
1.0
 92
        0
 66
   257
 43
1.0
 76
     1
 77
     6
 78
     2
 67
     7
 79
     5
170
     0
171
     0
290
     0
174
     0
 93
       13
 44
0.0
173
     0
291
     1
 45
0.0
1001
ACAD
1000
AcDbSavedByObjectVersion
1070
     0
  0
VISUALSTYLE
  5
6A
102
{ACAD_XDICTIONARY
360
F6A
102
}
102
{ACAD_REACTORS
330
62
102
}
330
62
100
AcDbVisualStyle
  2
Hidden
 70
     6
 71
     1
 72
     2
 73
     2
 90
        0
 40
-0.6
 41
-30.0
 62
     5
 63
     7
421
 16777215
 74
     2
 91
        2
 64
     7
 65
   257
 75
     2
175
     1
 42
40.0
 92
        0
 66
   257
 43
1.0
 76
     1
 77
     6
 78
     2
 67
     7
 79
     3
170
     0
171
     0
290
     0
174
     0
 93
        1
 44
0.0
173
     0
291
     0
 45
0.0
1001
ACAD
1000
AcDbSavedByObjectVersion
1070
     0
  0
VISUALSTYLE
  5
78
102
{ACAD_XDICTIONARY
360
F86
102
}
102
{ACAD_REACTORS
330
62
102
}
330
62
100
AcDbVisualStyle
  2
JitterOff
 70
    20
 71
     2
 72
     2
 73
     0
 90
        0
 40
-0.6
 41
-30.0
 62
     5
 63
     7
421
 16777215
 74
     1
 91
        4
 64
     7
 65
   257
 75
     1
175
     1
 42
1.0
 92
       10
 66
     7
 43
1.0
 76
     1
 77
     6
 78
     2
 67
     7
 79
     5
170
     0
171
     0
290
     0
174
     0
 93
        1
 44
0.0
173
     0
291
     1
 45
0.0
1001
ACAD
1000
AcDbSavedByObjectVersion
1070
     0
  0
VISUALSTYLE
  5
70
102
{ACAD_XDICTIONARY
360
F76
102
}
102
{ACAD_REACTORS
330
62
102
}
330
62
100
AcDbVisualStyle
  2
Linepattern
 70
    14
 71
     2
 72
     2
 73
     0
 90
        0
 40
-0.6
 41
-30.0
 62
     5
 63
     7
421
 16777215
 74
     1
 91
        4
 64
     7
 65
   257
 75
     7
175
     7
 42
1.0
 92
        8
 66
     7
 43
1.0
 76
     1
 77
     6
 78
     2
 67
     7
 79
     5
170
     0
171
     0
290
     0
174
     0
 93
        1
 44
0.0
173
     0
291
     1
 45
0.0
1001
ACAD
1000
AcDbSavedByObjectVersion
1070
     0
  0
VISUALSTYLE
  5
79
102
{ACAD_XDICTIONARY
360
F88
102
}
102
{ACAD_REACTORS
330
62
102
}
330
62
100
AcDbVisualStyle
  2
OverhangOff
 70
    21
 71
     2
 72
     2
 73
     0
 90
        0
 40
-0.6
 41
-30.0
 62
     5
 63
     7
421
 16777215
 74
     1
 91
        4
 64
     7
 65
   257
 75
     1
175
     1
 42
1.0
 92
        9
 66
     7
 43
1.0
 76
     1
 77
     6
 78
     2
 67
     7
 79
     5
170
     0
171
     0
290
     0
174
     0
 93
        1
 44
0.0
173
     0
291
     1
 45
0.0
1001
ACAD
1000
AcDbSavedByObjectVersion
1070
     0
  0
VISUALSTYLE
  5
6C
102
{ACAD_XDICTIONARY
360
F6E
102
}
102
{ACAD_REACTORS
330
62
102
}
330
62
100
AcDbVisualStyle
  2
Realistic
 70
     8
 71
     2
 72
     2
 73
     0
 90
        2
 40
-0.6
 41
30.0
 62
     5
 63
     7
421
 16777215
 74
     0
 91
        0
 64
     7
 65
   257
 75
     1
175
     1
 42
1.0
 92
        8
 66
   257
 43
1.0
 76
     1
 77
     6
 78
     2
 67
     7
 79
     3
170
     0
171
     0
290
     0
174
     0
 93
       13
 44
0.0
173
     0
291
     0
 45
0.0
1001
ACAD
1000
AcDbSavedByObjectVersion
1070
     0
  0
VISUALSTYLE
  5
77
102
{ACAD_XDICTIONARY
360
F84
102
}
102
{ACAD_REACTORS
330
62
102
}
330
62
100
AcDbVisualStyle
  2
Shaded
 70
    27
 71
     2
 72
     2
 73
     1
 90
        2
 40
-0.6
 41
30.0
 62
     5
 63
     7
421
 16777215
 74
     0
 91
        4
 64
     7
 65
   257
 75
     1
175
     1
 42
1.0
 92
        8
 66
   257
 43
1.0
 76
     1
 77
     6
 78
     2
 67
     8
425
  7895160
 79
     3
170
     0
171
     0
290
     0
174
     0
 93
        5
 44
0.0
173
     0
291
     0
 45
0.0
1001
ACAD
1000
AcDbSavedByObjectVersion
1070
     0
  0
VISUALSTYLE
  5
76
102
{ACAD_XDICTIONARY
360
F82
102
}
102
{ACAD_REACTORS
330
62
102
}
330
62
100
AcDbVisualStyle
  2
Shaded with edges
 70
    26
 71
     2
 72
     2
 73
     1
 90
        2
 40
-0.6
 41
30.0
 62
     5
 63
     7
421
 16777215
 74
     1
 91
        2
 64
     7
 65
   257
 75
     2
175
     1
 42
1.0
 92
        8
 66
   257
 43
1.0
 76
     1
 77
     6
 78
     2
 67
     7
 79
     3
170
     0
171
     0
290
     0
174
     0
 93
        5
 44
0.0
173
     0
291
     0
 45
0.0
1001
ACAD
1000
AcDbSavedByObjectVersion
1070
     0
  0
VISUALSTYLE
  5
73
102
{ACAD_XDICTIONARY
360
F7C
102
}
102
{ACAD_REACTORS
330
62
102
}
330
62
100
AcDbVisualStyle
  2
Shades of Gray
 70
    23
 71
     2
 72
     2
 73
     3
 90
        0
 40
-0.6
 41
-30.0
 62
     5
 63
     7
421
 16777215
 74
     2
 91
        2
 64
     7
 65
     7
 75
     1
175
     1
 42
40.0
 92
        8
 66
     7
 43
1.0
 76
     1
 77
     6
 78
     2
 67
     7
 79
     3
170
     0
171
     0
290
     0
174
     0
 93
        1
 44
0.0
173
     0
291
     0
 45
0.0
1001
ACAD
1000
AcDbSavedByObjectVersion
1070
     0
  0
VISUALSTYLE
  5
74
102
{ACAD_XDICTIONARY
360
F7E
102
}
102
{ACAD_REACTORS
330
62
102
}
330
62
100
AcDbVisualStyle
  2
Sketchy
 70
    24
 71
     1
 72
     2
 73
     2
 90
        0
 40
-0.6
 41
-30.0
 62
     5
 63
     7
421
 16777215
 74
     2
 91
        2
 64
     7
 65
     7
 75
     1
175
     1
 42
40.0
 92
       11
 66
     7
 43
1.0
 76
     1
 77
     6
 78
     2
 67
     7
 79
     6
170
     0
171
     0
290
     0
174
     0
 93
        1
 44
0.0
173
     0
291
     0
 45
0.0
1001
ACAD
1000
AcDbSavedByObjectVersion
1070
     0
  0
VISUALSTYLE
  5
6F
102
{ACAD_XDICTIONARY
360
F74
102
}
102
{ACAD_REACTORS
330
62
102
}
330
62
100
AcDbVisualStyle
  2
Thicken
 70
    13
 71
     2
 72
     2
 73
     0
 90
        0
 40
-0.6
 41
-30.0
 62
     5
 63
     7
421
 16777215
 74
     1
 91
        4
 64
     7
 65
   257
 75
     1
175
     1
 42
1.0
 92
       12
 66
     7
 43
1.0
 76
     1
 77
     6
 78
     2
 67
     7
 79
     5
170
     0
171
     0
290
     0
174
     0
 93
        1
 44
0.0
173
     0
291
     1
 45
0.0
1001
ACAD
1000
AcDbSavedByObjectVersion
1070
     0
  0
VISUALSTYLE
  5
69
102
{ACAD_XDICTIONARY
360
F68
102
}
102
{ACAD_REACTORS
330
62
102
}
330
62
100
AcDbVisualStyle
  2
Wireframe
 70
     5
 71
     0
 72
     2
 73
     0
 90
        0
 40
-0.6
 41
-30.0
 62
     5
 63
     7
421
 16777215
 74
     1
 91
        4
 64
     7
 65
   257
 75
     1
175
     1
 42
1.0
 92
        0
 66
   257
 43
1.0
 76
     1
 77
     6
 78
     2
 67
     7
 79
     3
170
     0
171
     0
290
     0
174
     0
 93
        1
 44
0.0
173
     0
291
     0
 45
0.0
1001
ACAD
1000
AcDbSavedByObjectVersion
1070
     0
  0
VISUALSTYLE
  5
75
102
{ACAD_XDICTIONARY
360
F80
102
}
102
{ACAD_REACTORS
330
62
102
}
330
62
100
AcDbVisualStyle
  2
X-Ray
 70
    25
 71
     2
 72
     2
 73
     1
 90
        1
 40
0.5
 41
-30.0
 62
     5
 63
     7
421
 16777215
 74
     1
 91
        0
 64
     7
 65
   257
 75
     1
175
     1
 42
1.0
 92
        8
 66
     7
 43
1.0
 76
     1
 77
     6
 78
     2
 67
     7
 79
     3
170
     0
171
     0
290
     0
174
     0
 93
       13
 44
0.0
173
     0
291
     0
 45
0.0
1001
ACAD
1000
AcDbSavedByObjectVersion
1070
     0
  0
DICTIONARYVAR
  5
85B
102
{ACAD_REACTORS
330
856
102
}
330
856
100
DictionaryVariables
280
     0
  1
1:1
  0
DICTIONARYVAR
  5
858
102
{ACAD_REACTORS
330
856
102
}
330
856
100
DictionaryVariables
280
     0
  1
STANDARD
  0
DICTIONARYVAR
  5
857
102
{ACAD_REACTORS
330
856
102
}
330
856
100
DictionaryVariables
280
     0
  1
STANDARD
  0
DICTIONARYVAR
  5
859
102
{ACAD_REACTORS
330
856
102
}
330
856
100
DictionaryVariables
280
     0
  1
Imperial24
  0
DICTIONARYVAR
  5
85A
102
{ACAD_REACTORS
330
856
102
}
330
856
100
DictionaryVariables
280
     0
  1
Imperial24
  0
DICTIONARYVAR
  5
F56
102
{ACAD_REACTORS
330
856
102
}
330
856
100
DictionaryVariables
280
     0
  1
2
  0
DICTIONARY
  5
F91
330
96
100
AcDbDictionary
280
     1
281
     1
  3
ACAD_XREC_ROUNDTRIP
360
F92
  0
DICTIONARY
  5
F95
330
119
100
AcDbDictionary
280
     1
281
     1
  3
ACAD_XREC_ROUNDTRIP
360
F96
  0
DICTIONARY
  5
EE0
330
98
100
AcDbDictionary
280
     1
281
     1
  3
ADSK_XREC_LAYOUTTHUMBNAIL
360
EE1
  0
DICTIONARY
  5
53
330
52
100
AcDbDictionary
280
     1
281
     1
  3
ACAD_XREC_ROUNDTRIP
360
F5A
  3
BUMPTILE
360
55
  3
DIFFUSETILE
360
54
  3
OPACITYTILE
360
58
  3
REFLECTIONTILE
360
57
  3
REFRACTIONTILE
360
59
  3
SPECULARTILE
360
56
  0
DICTIONARY
  5
4B
330
4A
100
AcDbDictionary
280
     1
281
     1
  3
ACAD_XREC_ROUNDTRIP
360
F59
  3
BUMPTILE
360
4D
  3
DIFFUSETILE
360
4C
  3
OPACITYTILE
360
50
  3
REFLECTIONTILE
360
4F
  3
REFRACTIONTILE
360
51
  3
SPECULARTILE
360
4E
  0
DICTIONARY
  5
5B
330
5A
100
AcDbDictionary
280
     1
281
     1
  3
ACAD_XREC_ROUNDTRIP
360
F5B
  3
BUMPTILE
360
5D
  3
DIFFUSETILE
360
5C
  3
OPACITYTILE
360
60
  3
REFLECTIONTILE
360
5F
  3
REFRACTIONTILE
360
61
  3
SPECULARTILE
360
5E
  0
DICTIONARY
  5
F8D
330
92
100
AcDbDictionary
280
     1
281
     1
  3
ACAD_XREC_ROUNDTRIP
360
F8E
  0
XRECORD
  5
851
102
{ACAD_REACTORS
330
850
102
}
330
850
100
AcDbXrecord
280
     1
 70
     2
 71
     3
 72
     0
  0
DICTIONARY
  5
F8F
330
94
100
AcDbDictionary
280
     1
281
     1
  3
ACAD_XREC_ROUNDTRIP
360
F90
  0
DICTIONARY
  5
F93
330
118
100
AcDbDictionary
280
     1
281
     1
  3
ACAD_XREC_ROUNDTRIP
360
F94
  0
DICTIONARY
  5
807
330
7E
100
AcDbDictionary
280
     1
281
     1
  3
ACAD_ROUNDTRIP_2008_TABLESTYLE_CELLSTYLEMAP
360
F57
  3
ACAD_XREC_ROUNDTRIP
360
F8C
  0
DICTIONARY
  5
F66
330
68
100
AcDbDictionary
280
     1
281
     1
  3
ACAD_XREC_ROUNDTRIP
360
F67
  0
DICTIONARY
  5
F64
330
67
100
AcDbDictionary
280
     1
281
     1
  3
ACAD_XREC_ROUNDTRIP
360
F65
  0
DICTIONARY
  5
F72
330
6E
100
AcDbDictionary
280
     1
281
     1
  3
ACAD_XREC_ROUNDTRIP
360
F73
  0
DICTIONARY
  5
F7A
330
72
100
AcDbDictionary
280
     1
281
     1
  3
ACAD_XREC_ROUNDTRIP
360
F7B
  0
DICTIONARY
  5
F6C
330
6B
100
AcDbDictionary
280
     1
281
     1
  3
ACAD_XREC_ROUNDTRIP
360
F6D
  0
DICTIONARY
  5
F70
330
6D
100
AcDbDictionary
280
     1
281
     1
  3
ACAD_XREC_ROUNDTRIP
360
F71
  0
DICTIONARY
  5
F8A
330
7A
100
AcDbDictionary
280
     1
281
     1
  3
ACAD_XREC_ROUNDTRIP
360
F8B
  0
DICTIONARY
  5
F78
330
71
100
AcDbDictionary
280
     1
281
     1
  3
ACAD_XREC_ROUNDTRIP
360
F79
  0
DICTIONARY
  5
F5C
330
63
100
AcDbDictionary
280
     1
281
     1
  3
ACAD_XREC_ROUNDTRIP
360
F5D
  0
DICTIONARY
  5
F5E
330
64
100
AcDbDictionary
280
     1
281
     1
  3
ACAD_XREC_ROUNDTRIP
360
F5F
  0
DICTIONARY
  5
F60
330
65
100
AcDbDictionary
280
     1
281
     1
  3
ACAD_XREC_ROUNDTRIP
360
F61
  0
DICTIONARY
  5
F62
330
66
100
AcDbDictionary
280
     1
281
     1
  3
ACAD_XREC_ROUNDTRIP
360
F63
  0
DICTIONARY
  5
F6A
330
6A
100
AcDbDictionary
280
     1
281
     1
  3
ACAD_XREC_ROUNDTRIP
360
F6B
  0
DICTIONARY
  5
F86
330
78
100
AcDbDictionary
280
     1
281
     1
  3
ACAD_XREC_ROUNDTRIP
360
F87
  0
DICTIONARY
  5
F76
330
70
100
AcDbDictionary
280
     1
281
     1
  3
ACAD_XREC_ROUNDTRIP
360
F77
  0
DICTIONARY
  5
F88
330
79
100
AcDbDictionary
280
     1
281
     1
  3
ACAD_XREC_ROUNDTRIP
360
F89
  0
DICTIONARY
  5
F6E
330
6C
100
AcDbDictionary
280
     1
281
     1
  3
ACAD_XREC_ROUNDTRIP
360
F6F
  0
DICTIONARY
  5
F84
330
77
100
AcDbDictionary
280
     1
281
     1
  3
ACAD_XREC_ROUNDTRIP
360
F85
  0
DICTIONARY
  5
F82
330
76
100
AcDbDictionary
280
     1
281
     1
  3
ACAD_XREC_ROUNDTRIP
360
F83
  0
DICTIONARY
  5
F7C
330
73
100
AcDbDictionary
280
     1
281
     1
  3
ACAD_XREC_ROUNDTRIP
360
F7D
  0
DICTIONARY
  5
F7E
330
74
100
AcDbDictionary
280
     1
281
     1
  3
ACAD_XREC_ROUNDTRIP
360
F7F
  0
DICTIONARY
  5
F74
330
6F
100
AcDbDictionary
280
     1
281
     1
  3
ACAD_XREC_ROUNDTRIP
360
F75
  0
DICTIONARY
  5
F68
330
69
100
AcDbDictionary
280
     1
281
     1
  3
ACAD_XREC_ROUNDTRIP
360
F69
  0
DICTIONARY
  5
F80
330
75
100
AcDbDictionary
280
     1
281
     1
  3
ACAD_XREC_ROUNDTRIP
360
F81
  0
XRECORD
  5
F92
102
{ACAD_REACTORS
330
F91
102
}
330
F91
100
AcDbXrecord
280
     1
102
DISPLAYNAME
  1
Imperial24
102
FLAGS
 90
        0
  0
XRECORD
  5
F96
102
{ACAD_REACTORS
330
F95
102
}
330
F95
100
AcDbXrecord
280
     1
102
DISPLAYNAME
  1
Metric50
102
FLAGS
 90
        0
  0
XRECORD
  5
EE1
102
{ACAD_REACTORS
330
EE0
102
}
330
EE0
100
AcDbXrecord
280
     1
310
2800000000010000630000000100080000000000006300000100000001000000000100000000000000000066FFFFFF520000005600000050000000730000003200000031000000500000006F0000004F00000032330000466600006699000052CC000056FF00005000330073333300326633003199330050CC33006FFF3300
310
3200660018336600006666000099660000CC660000FF66000000990000339900006699000099990000CC990000FF99000000CC000033CC000066CC000099CC0000CCCC0000FFCC000000FF000033FF000066FF000099FF0000CCFF0000FFFF00010000331433003354660033539900336FCC003374FF003330003333303333
310
33726633337099333370CC333330FF3333010066331233663354666633539966336FCC663374FF66333000993330339933726699337099993331CC993300FF99330000CC330033CC330066CC330099CC3300CCCC3300FFCC330000FF330033FF330066FF330099FF3300CCFF3300FFFF330000006600330066006600660099
310
006600CC006600FF00660000336600333366006633660099336666CC336652FF33665600666650336666736666663299666631CC666650FF66666F0099664F339966336699664699996666CC996652FF99665600CC665033CC667366CC663299CC6631CCCC6650FFCC666F00FF663333FF661866FF660099FF6600CCFF6600
310
FFFF660000009900330099006600990099009900CC009900FF00990000339900333399006633990099339900CC339900FF33990000669900336699006666990099669900CC669900FF66990000999901339999146699995499999953CC99996FFF99997400CC993033CC993066CC997299CC9970CCCC9970FFCC993400FF99
310
0133FF991266FF995499FF9953CCFF996FFFFF99740000CC303300CC306600CC729900CC70CC00CC35FF00CC000033CC003333CC006633CC009933CC00CC33CC00FF33CC000066CC003366CC006666CC009966CC00CC66CC00FF66CC000099CC003399CC006699CC009999CC00CC99CC00FF99CC0000CCCC0033CCCC0066CC
310
CC0099CCCC00CCCCCC66FFCCCC5200FFCC5633FFCC5066FFCC7399FFCC32CCFFCC31FFFFCC500000FF6F3300FF4F6600FF339900FF46CC00FF66FF00FF520033FF563333FF506633FF739933FF32CC33FF31FF33FF500066FF6F3366FF336666FF5A9966FF00CC66FF14FF66FF540099FF533399FF6F6699FF749999FF30CC
310
99FF30FF99FF7200CCFF7033CCFF7066CCFF3799CCFF01CCCCFF12FFCCFF5400FFFF5333FFFF6F66FFFF7499FFFF30CCFFFF30FFFFFF72000000700D0D0D381A1A1A00282828003535356643434352505050565D5D5D506B6B6B73787878328686863193939350A1A1A16FAEAEAE4FBBBBBB33C9C9C946D6D6D666E4E4E452
310
F1F1F156FFFFFF50000000730000003200000031000000500000006F000000330000008C00000000000000F00000000000000000000000000000000000000000000000000000000000000000000000000000000000000000000000000000000000000000000000000000000000000000000000000000000000000000000000
310
00000000000000000000000000000000000000000000000000000000000000000000000000000000000000000000000000000000000000000000000000000000000000000000000000000000000000000000000000000000000000000000000000000000000000000000000000000000000000000000000000000000000000
310
0000000000000000000000000000000000000000000000000000000000000000000000000000000000000000000000000000000000000000000000000000000000000000000000000000000000000000000000000000000000000000000000000000000000000000000000000000F5F5F5F5F5F5F5F5F5F5F5F5F5F5F5F5F5
310
F5F5F5F5F5F5F5F5F5F5F5F5F5F5F5F5F5F5F5F5F5F5F5F5F5F5F5F5F5F5F5F5F5F5F5F5F5F5F5F5F5F5F5F5F5F5F5F5F5F5F5F5F5F5F5F5F5F5F5F5F5F5F5F5F5F5F5F5F5F5F5F5F5F5F5F5F5F5F5F5F5F5F5F5F5F5F5F5F5F5F5F5F5F5F5F5F5F5F5F5F5F5F5F5F5F5F5F5F5F5F5F5F5F5F5F5F5F5F50000000000000000
310
00000000000000000000000000000000000000000000000000000000000000000000000000000000000000000000000000000000000000000000000000000000000000000000000000000000000000000000000000000000000000000000000000000000000000000000000000000000F50000000000000000000000000000
310
000000000000000000000000000000000000000000000000000000000000000000000000000000000000000000000000000000000000000000000000000000000000000000000000000000000000000000000000000000000000000000000000000000000000000000000000000000000000000000F50000F5000000000000
310
000000000000000000000000000000000000000000000000000000000000000000000000000000000000000000000000000000000000000000000000000000000000000000000000000000000000000000000000000000000000000000000000000000000000000000000000000000000000F5000000000000000000000000
310
0000000000000000000000000000000000000000000000000000000000000000000000000000000000000000000000000000000000000000000000000000000000000000000000000000000000000000000000000000000000000000000000000000000000000000000000000000000000000000000000F50000F500000000
310
0000000000000000000000000000000000000000000000000000000000000000000000000000000000000000000000000000000000000000000000000000000000000000000000000000000000000000000000000000000000000000000000000000000000000000000000000000000000000000F500000000000000000000
310
00000000000000000000000000000000000000000000000000000000000000000000000000000000000000000000000000000000000000000000000000000000000000000000000000000000000000000000000000000000000000000000000000000000000000000000000000000000000000000000000000F50000F50000
310
00000000000000000000000000000000000000000000000000000000000000000000000000000000000000000000000000000000000000000000000000000000000000000000000000000000000000000000000000000000000000000000000000000000000000000000000000000000000000000000F50000000000000000
310
000000000000000000000000000000000000000000000000000000000000000000000000000000000000000000000000000000000000000000000000000000000000000000000000000000000000000000000000000000000000000000000000000000000000000000000000000000000000000000000000000000F50000F5
310
000000000000000000000000000000000000000000000000000000000000000000000000000000000000000000000000000000000000000000000000000000000000000000000000000000000000000000000000000000000000000000000000000000000000000000000000000000000000000000000000F5000000000000
310
0000000000000000000000000000000000000000000000000000000000000000000000000000000000000000000000000000000000000000000000000000000000000000000000000000000000000000000000000000000000000000000000000000000000000000000000000000000000000000000000000000000000F500
310
00F5000000000000000000000000000000000000000000000000000000000000000000000000000000000000000000000000000000000000000000000000000000000000000000000000000000000000000000000000000000000000000000000000000000000000000000000000000000000000000000000000F500000000
310
00000000000000000000000000000000000000000000000000000000000000000000000000000000000000000000000000000000000000000000000000000000000000000000000000000000000000000000000000000000000000000000000000000000000000000000000000000000000000000000000000000000000000
310
F50000F5000000000000000000000000000000000000000000000000000000000000000000000000000000000000000000000000000000000000000000000000000000000000000000000000000000000000000000000000000000000000000000000000000000000000000000000000000000000000000000000000F50000
310
00000000000000000000000000000000000000000000000000000000000000000000000000000000000000000000000000000000000000000000000000000000000000000000000000000000000000000000000000000000000000000000000000000000000000000000000000000000000000000000000000000000000000
310
0000F50000F5000000000000000000000000000000000000000000000000000000000000000000000000000000000000000000000000000000000000000000000000000000000000000000000000000000000000000000000000000000000000000000000000000000000000000000000000000000000000000000000000F5
310
00000000000000000000000000000000000000000000000000000000000000000000000000000000000000000000000000000000000000000000000000000000000000000000000000000000000000000000000000000000000000000000000000000000000000000000000000000000000000000000000000000000000000
310
00000000F50000F50000000000000000000000000000000000000000000000000000000000000000000000000000000000000000000000000000000000000000000000000000000000000000000000000000000000000000000000000000000000000000000000000000000000000000000000000000000000000000000000
310
00F50000000000000000000000000000000000000000000000000000000000000000000000000000000000000000000000000000000000000000000000000000000000000000000000000000000000000000000000000000000000000000000000000000000000000000000000000000000000000000000000000000000000
310
000000000000F50000F5000000000000000000000000000000000000000000000000000000000000000000000000000000000000000000000000000000000000000000000000000000000000000000000000000000000000000000000000000000000000000000000000000000000000000000000000000000000000000000
310
000000F5000000000000000000000000000000000000000000000000000000000000000000000000000000000000000000000000000000000000000000000000000000000000000000000000000000000000000000000000000000000000000000000000000000000000000000000000000000000000000000000000000000
310
0000000000000000F50000F500000000000000000000000000000000000000000000000000000000000000000000000000000000000000000000000000000000000000000000000000000000000000000000000000000000000000000000000000000000000000000000000000000000000000000000000000000000000000
310
0000000000F500000000000000000000000000000000000000000000000000000000000000000000000000000000000000000000000000000000000000000000000000000000000000000000000000000000000000000000000000000000000000000000000000000000000000000000000000000000000000000000000000
310
00000000000000000000F50000F50000000000000000000000000000000000000000000000000000000000000000000000000000000000000000000000000000000000000000000000000000000000000000000000000000000000000000000000000000000000000000000000000000000000000000000000000000000000
310
00000000000000F50000000000000000000000000000000000000000000000000000000000000000000000000000000000000000000000000000000000000000000000000000000000000000000000000000000000000000000000000000000000000000000000000000000000000000000000000000000000000000000000
310
000000000000000000000000F50000F5000000000000000000000000000000000000000000000000000000000000000000000000000000000000000000000000000000000000000000000000000000000000000000000000000000000000000000000000000000000000000000000000000000000000000000000000000000
310
000000000000000000F5000000000000000000000000000000000000000000000000000000000000000000000000000000000000000000000000000000000000000000000000000000000000000000000000000000000000000000000000000000000000000000000000000000000000000000000000000000000000000000
310
0000000000000000000000000000F50000F500000000000000000000000000000000000000000000000000000000000000000000000000000000000000000000000000000000000000000000000000000000000000000000000000000000000000000000000000000000000000000000000000000000000000000000000000
310
0000000000000000000000F500000000000000000000000000000000000000000000000000000000000000000000000000000000000000000000000000000000000000000000000000000000000000000000000000000000000000000000000000000000000000000000000000000000000000000000000000000000000000
310
00000000000000000000000000000000F50000F50000000000000000000000000000000000000000000000000000000000000000000000000000000000000000000000000000000000000000000000000000000000000000000000000000000000000000000000000000000000000000000000000000000000000000000000
310
00000000000000000000000000F50000000000000000000000000000000000000000000000000000000000000000000000000000000000000000000000000000000000000000000000000000000000000000000000000000000000000000000000000000000000000000000000000000000000000000000000000000000000
310
000000000000000000000000000000000000F50000F5000000000000000000000000000000000000000000000000000000000000000000000000000000000000000000000000000000000000000000000000000000000000000000000000000000000000000000000000000000000000000000000000000000000000000000
310
000000000000000000000000000000F5000000000000000000000000000000000000000000000000000000000000000000000000000000000000000000000000000000000000000000000000000000000000000000000000000000000000000000000000000000000000000000000000000000000000000000000000000000
310
0000000000000000000000000000000000000000F50000F500000000000000000000000000000000000000000000000000000000000000000000000000000000000000000000000000000000000000000000000000000000000000000000000000000000000000000000000000000000000000000000000000000000000000
310
0000000000000000000000000000000000F500000000000000000000000000000000000000000000000000000000000000000000000000000000000000000000000000000000000000000000000000000000000000000000000000000000000000000000000000000000000000000000000000000000000000000000000000
310
00000000000000000000000000000000000000000000F50000F50000000000000000000000000000000000000000000000000000000000000000000000000000000000000000000000000000000000000000000000000000000000000000000000000000000000000000000000000000000000000000000000000000000000
310
00000000000000000000000000000000000000F5000000000000000000000000000000000000000000000000000000000000000000000000000000000000000000000000DC0000000000DC00000000000000000000000000000000000000000000000000000000000000000000000000000000000000000000000000000000
310
000000000000000000000000000000000000000000000000F50000F5000000000000000000000000000000000000000000000000000000000000000000000000000000000000000000000000000000000000000000000000000000000000000000000000000000000000000000000000000000000000000000000000000000
310
000000000000000000000000000000000000000000F5000000000000000000000000000000000000000000000000000000000000000000000000000000000000000000DCDCDCDCDCDCDCDCDCDCDCDC000000000000000000000000000000000000000000000000000000000000000000000000000000000000000000000000
310
0000000000000000000000000000000000000000000000000000F50000F500000000000000000000000000000000000000000000000000000000000000000000000000000000000000000000000000000000000000000000000000000000000000000000000000000000000000000000000000000000000000000000000000
310
0000000000000000000000000000000000000000000000F500000000000000000000000000000000000000000000000000000000000000000000000000000000000000000000DCDCDC0000000000DCDCDC00000000000000000000000000000000000000000000000000000000000000000000000000000000000000000000
310
00000000000000000000000000000000000000000000000000000000F50000F50000000000000000000000000000000000000000000000000000000000000000000000000000000000000000000000000000000000000000000000000000000000000000000000000000000000000000000000000000000000000000000000
310
00000000000000000000000000000000000000000000000000F500000000000000000000000000000000000000000000000000000000000000000000000000000000000000000000DCDCDCDCDCDCDCDCDCDCDC0000000000000000000000000000000000000000000000000000000000000000000000000000000000000000
310
000000000000000000000000000000000000000000000000000000000000F50000F5000000000000000000000000000000000000000000000000000000000000000000000000000000000000000000000000000000000000000000000000000000000000000000000000000000000000000000000000000000000000000000
310
000000000000000000000000000000000000000000000000000000F500000000000000000000000000000000000000000000000000000000000000000000000000000000000000000000DCDCDC0000000000DCDCDC000000000000000000000000000000000000000000000000000000000000000000000000000000000000
310
0000000000000000000000000000000000000000000000000000000000000000F50000F500000000000000000000000000000000000000000000000000000000000000000000000000000000000000000000000000000000000000000000000000000000000000000000000000000000000000000000000000000000000000
310
0000000000000000000000000000000000000000000000000000000000F5000000000000000000000000000000000000000000000000000000000000000000000000000000000000000000DCDCDCDCDCDCDCDCDCDCDCDCDC000000000000000000000000000000000000000000000000000000000000000000000000000000
310
00000000000000000000000000000000000000000000000000000000000000000000F50000F50000000000000000000000000000000000000000000000000000000000000000000000000000000000000000000000000000000000000000000000000000000000000000000000000000000000000000000000000000000000
310
00000000000000000000000000000000000000000000000000000000000000F500000000000000000000000000000000000000000000000000000000000000000000000000000000000000000000DCDC00000000000000DCDCDC00000000000000000000000000000000000000000000000000000000000000000000000000
310
000000000000000000000000000000000000000000000000000000000000000000000000F50000F5000000000000000000000000000000000000000000000000000000000000000000000000000000000000000000000000000000000000000000000000000000000000000000000000000000000000000000000000000000
310
000000000000000000000000000000000000000000000000000000000000000000F50000000000000000000000000000000000000000000000000000000000000000000000000000000000000000000000DCDC0000000000DCDCDC000000000000000000000000000000000000000000000000000000000000000000000000
310
0000000000000000000000000000000000000000000000000000000000000000000000000000F50000F500000000000000000000000000000000000000000000000000000000000000000000000000000000000000000000000000000000000000000000000000000000000000000000000000000000000000000000000000
310
0000000000000000000000000000000000000000000000000000000000000000000000F50000000000000000000000000000000000000000000000000000000000000000000000000000000000000000000000DC00000000000000DCDC00DC0000000000000000000000000000000000000000000000000000000000000000
310
00000000000000000000000000000000000000000000000000000000000000000000000000000000F50000F50000000000000000000000000000000000000000000000000000000000000000000000000000000000000000000000000000000000000000000000000000000000000000000000000000000000000000000000
310
00000000000000000000000000000000000000000000000000000000000000000000000000F500000000000000000000000000000000000000000000000000000000000000000000000000000000000000000000F52D2DDCDCDC0F0F2D2DF5DCDC000000000000000000000000000000000000000000000000000000000000
310
000000000000000000000000000000000000000000000000000000000000000000000000000000000000F50000F5000000000000000000000000000000000000000000000000000000000000000000000000000000000000000000000000000000000000000000000000000000000000000000000000000000000000000000
310
000000000000000000000000000000000000000000000000000000000000000000000000000000F5000000000000000000000000000000000000000000000000000000000000000000000000000000000000000000002D2D2D2D2DDC2D2D2D2D2D00DC00000000000000000000000000000000000000000000000000000000
310
0000000000000000000000000000000000000000000000000000000000000000000000000000000000000000F50000F500000000000000000000000000000000000000000000000000000000000000000000000000000000000000000000000000000000000000000000000000000000000000000000000000000000000000
310
0000000000000000000000000000000000000000000000000000000000000000000000000000000000F5000000000000000000000000000000000000000000000000000000000000000000000000000000000000000000002D2D2DDCDCDC2D2D2D2D2DDCDC0000000000000000000000000000000000000000000000000000
310
00000000000000000000000000000000000000000000000000000000000000000000000000000000000000000000F50000F50000000000000000000000000000000000000000000000000000000000000000000000000000000000000000000000000000000000000000000000000000000000000000000000000000000000
310
00000000000000000000000000000000000000000000000000000000000000000000000000000000000000F50000000000000000000000000000000000000000000000000000000000000000000000000000000000000000000000002D00DCDC00002D000000DC000000000000000000000000000000000000000000000000
310
000000000000000000000000000000000000000000000000000000000000000000000000000000000000000000000000F50000F5000000000000000000000000000000000000000000000000000000000000000000000000000000000000000000000000000000000000000000000000000000000000000000000000000000
310
000000000000000000000000000000000000000000000000000000000000000000000000000000000000000000F50000000000000000000000000000000000000000000000000000000000000000000000000000000000000000000000002D00000000002D0000000000000000000000000000000000000000000000000000
310
0000000000000000000000000000000000000000000000000000000000000000000000000000000000000000000000000000F50000F500000000000000000000000000000000000000000000000000000000000000000000000000000000000000000000000000000000000000000000000000000000000000000000000000
310
0000000000000000000000000000000000000000000000000000000000000000000000000000000000000000000000F5000000000000000000000000000000000000000000000000000000000000000000000000000000000000000000000000002D0000002D00000000000000000000000000000000000000000000000000
310
00000000000000000000000000000000000000000000000000000000000000000000000000000000000000000000000000000000F50000F50000000000000000000000000000000000000000000000000000000000000000000000000000000000000000000000000000000000000000000000000000000000000000000000
310
00000000000000000000000000000000000000000000000000000000000000000000000000000000000000000000000000F5000000000000000000000000000000000000000000000000000000000000000000000000000000000000000000000000002D0000002D0000000000000000000000000000000000000000000000
310
000000000000000000000000000000000000000000000000000000000000000000000000000000000000000000000000000000000000F50000F5000000000000000000000000000000000000000000000000000000000000000000000000000000000000000000000000000000000000000000000000000000000000000000
310
000000000000000000000000000000000000000000000000000000000000000000000000000000000000000000000000000000F5000000000000000000000000000000000000000000000000000000000000000000000000000000000000000000000000002D002D2D00000000000000000000000000000000000000000000
310
0000000000000000000000000000000000000000000000000000000000000000000000000000000000000000000000000000000000000000F50000F500000000000000000000000000000000000000000000000000000000000000000000000000000000000000000000000000000000000000000000000000000000000000
310
0000000000000000000000000000000000000000000000000000000000000000000000000000000000000000000000000000000000F5000000000000000000000000000000000000000000000000000000000000000000000000000000000000000000000000002D2D00000000000000000000000000000000000000000000
310
00000000000000000000000000000000000000000000000000000000000000000000000000000000000000000000000000000000000000000000F50000F50000000000000000000000000000000000000000000000000000000000000000000000000000000000000000000000000000000000000000000000000000000000
310
00000000000000000000000000000000000000000000000000000000000000000000000000000000000000000000000000000000000000F50000000000000000000000000000000000000000000000000000000000000000000000000000000000000000000000000000000000000000000000000000000000000000000000
310
000000000000000000000000000000000000000000000000000000000000000000000000000000000000000000000000000000000000000000000000F50000F5000000000000000000000000000000000000000000000000000000000000000000000000000000000000000000000000000000000000000000000000000000
310
000000000000000000000000000000000000000000000000000000000000000000000000000000000000000000000000000000000000000000F5000000000000000000000000000000000000000000000000000000000000000000000000000000000000000000000000000000000000000000000000000000000000000000
310
0000000000000000000000000000000000000000000000000000000000000000000000000000000000000000000000000000000000000000000000000000F50000F500000000000000000000000000000000000000000000000000000000000000000000000000000000000000000000000000000000000000000000000000
310
0000000000000000000000000000000000000000000000000000000000000000000000000000000000000000000000000000000000000000000000F500000000000000000000000000000000000000000000000000000000000000000000000000000000000000000000000000000000000000000000000000000000000000
310
00000000000000000000000000000000000000000000000000000000000000000000000000000000000000000000000000000000000000000000000000000000F50000F50000000000000000000000000000000000000000000000000000000000000000000000000000000000000000000000000000000000000000000000
310
00000000000000000000000000000000000000000000000000000000000000000000000000000000000000000000000000000000000000000000000000F50000000000000000000000000000000000000000000000000000000000000000000000000000000000000000000000000000000000000000000000000000000000
310
000000000000000000000000000000000000000000000000000000000000000000000000000000000000000000000000000000000000000000000000000000000000F50000F5000000000000000000000000000000000000000000000000000000000000000000000000000000000000000000000000000000000000000000
310
000000000000000000000000000000000000000000000000000000000000000000000000000000000000000000000000000000000000000000000000000000F5000000000000000000000000000000000000000000000000000000000000000000000000000000000000000000000000000000000000000000000000000000
310
0000000000000000000000000000000000000000000000000000000000000000000000000000000000000000000000000000000000000000000000000000000000000000F50000F500000000000000000000000000000000000000000000000000000000000000000000000000000000000000000000000000000000000000
310
0000000000000000000000000000000000000000000000000000000000000000000000000000000000000000000000000000000000000000000000000000000000F500000000000000000000000000000000000000000000000000000000000000000000000000000000000000000000000000000000000000000000000000
310
00000000000000000000000000000000000000000000000000000000000000000000000000000000000000000000000000000000000000000000000000000000000000000000F50000F50000000000000000000000000000000000000000000000000000000000000000000000000000000000000000000000000000000000
310
00000000000000000000000000000000000000000000000000000000000000000000000000000000000000000000000000000000000000000000000000000000000000F50000000000000000000000000000000000000000000000000000000000000000000000000000000000000000000000000000000000000000000000
310
000000000000000000000000000000000000000000000000000000000000000000000000000000000000000000000000000000000000000000000000000000000000000000000000F50000F5000000000000000000000000000000000000000000000000000000000000000000000000000000000000000000000000000000
310
000000000000000000000000000000000000000000000000000000000000000000000000000000000000000000000000000000000000000000000000000000000000000000F50000000000000000000000000000000000000000000000000000000000000000000000000000000000000000000000DCDCDCDCDCDCDCDCDC00
310
0000000000000000000000000000000000000000000000000000000000000000000000000000000000000000000000000000000000000000000000000000000000000000000000000000F50000F500000000000000000000000000000000000000000000000000000000000000000000000000000000000000000000000000
310
0000000000000000000000000000000000000000000000000000000000000000000000000000000000000000000000000000000000000000000000000000000000000000000000F50000000000000000000000000000000000000000000000000000000000000000000000000000000000000000000000DCDCDCDCDCDCDCDC
310
DC000000000000000000000000000000000000DCDCDC000000000000000000000000000000000000000000000000000000000000000000000000000000000000000000000000000000000000F50000F50000000000000000000000000000000000000000000000000000000000000000000000000000000000000000000000
310
00000000000000000000000000000000000000000000000000000000000000000000000000000000000000000000000000000000000000000000000000000000000000000000000000F500000000000000000000000000000000000000000000000000000000000000000000000000000000000000000000DCDCDCDCDCDCDC
310
DCDCDCDC00000000000000000000000000000000DCDCDCDCDC0000000000000000000000000000000000000000000000000000000000000000000000000000000000000000000000000000000000F50000F5000000000000000000000000000000000000000000000000000000000000000000000000000000000000000000
310
000000000000000000000000000000000000000000000000000000000000000000000000000000000000000000000000000000000000000000000000000000000000000000000000000000F500000000000000000000000000000000000000000000000000000000000000000000000000000000000000000000DCDCDC00DC
310
DCDCDCDCDCDC0000000000000000000000000000000000DCDCDC00000000000000DC00000000000000000000000000000000000000000000000000000000000000000000000000000000000000000000F50000F500000000000000000000000000000000000000000000000000000000000000000000000000000000000000
310
0000000000000000000000000000000000000000000000000000000000000000000000000000000000000000000000000000000000000000000000000000000000000000000000000000000000F5000000000000000000000000000000000000000000000000000000000000000000000000000000000000000000002D2D2D
310
2D2D2D2D2D2D2D2D00000000000000000000000000000000002D2D0FDCDCDCDCDCDCDCDC00000000000000000000000000000000000000000000000000000000000000000000000000000000000000000000F50000F50000000000000000000000000000000000000000000000000000000000000000000000000000000000
310
00000000000000000000000000000000000000000000000000000000000000000000000000000000000000000000000000000000000000000000000000000000000000000000000000000000000000F5000000000000000000000000000000000000000000000000000000000000000000000000000000000000000000002D
310
2D2D2D2D2D2D2D2D2D2DDCDCDCDC000000000000000000000000002D2D2DDCDCDCDCDCDCDCDC00000000000000000000000000000000000000000000000000000000000000000000000000000000000000000000F50000F5000000000000000000000000000000000000000000000000000000000000000000000000000000
310
000000000000000000000000000000000000000000000000000000000000000000000000000000000000000000000000000000000000000000000000000000000000000000000000000000000000000000F5000000000000000000000000000000000000000000000000000000000000000000000000000000000000000000
310
002D2D2D2D2D2D2D2D2D2D2DDCDCDCDC000000000000000000000000002D2D2D00DC00DCDCDCDCDCDC000000000000000000000000000000000000000000000000000000000000000000000000000000000000000000F50000F500000000000000000000000000000000000000000000000000000000000000000000000000
310
0000000000000000000000000000000000000000000000000000000000000000000000000000000000000000000000000000000000000000000000000000000000000000000000000000000000000000000000F500000000000000000000000000000000000000000000000000000000000000000000000000000000000000
310
0000002D2D2D2D2D0000002D2D2D00DC00DC000000000000000000000000002D2D0F000000DC00DC00DC00000000000000000000000000000000000000000000000000000000000000000000000000000000000000000000F50000F50000000000000000000000000000000000000000000000000000000000000000000000
310
00000000000000000000000000000000000000000000000000000000000000000000000000000000000000000000000000000000000000000000000000000000000000000000000000000000000000000000000000F50000000000000000000000000000000000000000000000000000000000000000000000000000000000
310
00000000002D2D2D2D2D0000002D2D2D00DC00DC000000000000000000000000002D2D0F000000DC00DC00DC00000000000000000000000000000000000000000000000000000000000000000000000000000000000000000000F50000F5000000000000000000000000000000000000000000000000000000000000000000
310
000000000000000000000000000000000000000000000000000000000000000000000000000000000000000000000000000000000000000000000000000000000000000000000000000000000000000000000000000000F5000000000000000000000000000000000000000000000000000000000000000000000000000000
310
000000000000002D2D2D2D002D00002D2D2D00DC00DC000000000000000000000000002D2D0F000000DC00DC00DC00000000000000000000000000000000000000000000000000000000000000000000000000000000000000000000F50000F500000000000000000000000000000000000000000000000000000000000000
310
0000000000000000000000000000000000000000000000000000000000000000000000000000000000000000000000000000000000000000000000000000000000000000000000000000000000000000000000000000000000F500000000000000000000000000000000000000000000000000000000000000000000000000
310
0000000000000000002D2D2D2D00002D002D2D2D00DCDCDC000000000000000000000000002D2D0F000000DC00DC00DC00000000000000000000000000000000000000000000000000000000000000000000000000000000000000000000F50000F50000000000000000000000000000000000000000000000000000000000
310
00000000000000000000000000000000000000000000000000000000000000000000000000000000000000000000000000000000000000000000000000000000000000000000000000000000000000000000000000000000000000F50000000000000000000000000000000000000000000000000000000000000000000000
310
00000000000000000000002D2D2D2D0000002D2D2D2D00DCDCDC000000000000000000000000002D2D0F000000DC00DC00DC00000000000000000000000000000000000000000000000000000000000000000000000000000000000000000000F50000F5000000000000000000000000000000000000000000000000000000
310
000000000000000000000000000000000000000000000000000000000000000000000000000000000000000000000000000000000000000000000000000000000000000000000000000000000000000000000000000000000000000000F5000000000000000000000000000000000000000000000000000000000000000000
310
000000000000000000000000002D2D2D2D0000002D2D2D2DDCDCDCDC000000000000000000000000002D2D0F000000DC00DC00DC00000000000000000000000000000000000000000000000000000000000000000000000000000000000000000000F50000F500000000000000000000000000000000000000000000000000
310
0000000000000000000000000000000000000000000000000000000000000000000000000000000000000000000000000000000000000000000000000000000000000000000000000000000000000000000000000000000000000000000000F500000000000000000000000000000000000000000000000000000000000000
310
0000000000000000000000000000002D2D2D2D000000002D2D2DDCDCDCDC000000000000000000000000002D2D0F000000DC00DC00DC00000000000000000000000000000000000000000000000000000000000000000000000000000000000000000000F50000F50000000000000000000000000000000000000000000000
310
00000000000000000000000000000000000000000000000000000000000000000000000000000000000000000000000000000000000000000000000000000000000000000000000000000000000000000000000000000000000000000000000000F50000000000000000000000000000000000000000000000000000000000
310
00000000000000000000000000000000002D2D2D2D000000002D2D2DDCDCDCDC000000000000000000000000002D2DDC000000DC00DC00DC00000000000000000000000000000000000000000000000000000000000000000000000000000000000000000000F50000F5000000000000000000000000000000000000000000
310
000000000000000000000000000000000000000000000000000000000000000000000000000000000000000000000000000000000000000000000000000000000000000000000000000000000000000000000000000000000000000000000000000000F5000000000000000000000000000000000000000000000000000000
310
000000000000000000000000000000000000002D2D2D2D000000002D2D2DDCDCDCDC000000000000000000000000002D2DDC000000DC00DC00DC00000000000000000000000000000000000000000000000000000000000000000000000000000000000000000000F50000F500000000000000000000000000000000000000
310
0000000000000000000000000000000000000000000000000000000000000000000000000000000000000000000000000000000000000000000000000000000000000000000000000000000000000000000000000000000000000000000000000000000000F500000000000000000000000000000000000000000000000000
310
0000000000000000000000000000000000000000002D2D2D2D0000002D2D2D2DDCDCDCDC000000000000000000000000DC2D2D0F000000DC00DC00DC00000000000000000000000000000000000000000000000000000000000000000000000000000000000000000000F50000F50000000000000000000000000000000000
310
00000000000000000000000000000000000000000000000000000000000000000000000000000000000000000000000000000000000000000000000000000000000000000000000000000000000000000000000000000000000000000000000000000000000000F50000000000000000000000000000000000000000000000
310
00000000000000000000000000000000000000000000002D2D2D2D0000002D2D2D2DDCDCDCDC000000000000000000000000002D2D0F000000DC00DC00DC00000000000000000000000000000000000000000000000000000000000000000000000000000000000000000000F50000F5000000000000000000000000000000
310
000000000000000000000000000000000000000000000000000000000000000000000000000000000000000000000000000000000000000000000000000000000000000000000000000000000000000000000000000000000000000000000000000000000000000000F5000000000000000000000000000000000000000000
310
000000000000000000000000000000000000000000000000002D2D2D2D00002D002D2D2D00DCDCDC000000000000000000000000002D2D0F000000DC00DC00DC00000000000000000000000000000000000000000000000000000000000000000000000000000000000000000000F50000F500000000000000000000000000
310
0000000000000000000000000000000000000000000000000000000000000000000000000000000000000000000000000000000000000000000000000000000000000000000000000000000000000000000000000000000000000000000000000000000000000000000000F500000000000000000000000000000000000000
310
0000000000000000000000000000000000000000000000000000002D2D2D2D002D00002D2D2D00DCDCDC000000000000000000000000002D2D0F000000DC00DC00DC00000000000000000000000000000000000000000000000000000000000000000000000000000000000000000000F50000F50000000000000000000000
310
00000000000000000000000000000000000000000000000000000000000000000000000000000000000000000000000000000000000000000000000000000000000000000000000000000000000000000000000000000000000000000000000000000000000000000000000000F50000000000000000000000000000000000
310
00000000000000000000000000000000000000000000000000000000002D2D2D2D2D0000002D2D2D00DC00DC000000000000000000000000002D2D0F000000DC00DC00DC00000000000000000000000000000000000000000000000000000000000000000000000000000000000000000000F50000F5000000000000000000
310
000000000000000000000000000000000000000000000000000000000000000000000000000000000000000000000000000000000000000000000000000000000000000000000000000000000000000000000000000000000000000000000000000000000000000000000000000000F5000000000000000000000000000000
310
000000000000000000000000000000000000000000000000000000000000002D2D2D2D2D0000002D2D2D00DC00DC000000000000000000000000002D2D0F000000DC00DC00DC00000000000000000000000000000000000000000000000000000000000000000000000000000000000000000000F50000F500000000000000
310
0000000000000000000000000000000000000000000000000000000000000000000000000000000000000000000000000000000000000000000000000000000000000000000000000000000000000000000000000000000000000000000000000000000000000000000000000000000000F500000000000000000000000000
310
0000000000000000000000000000000000000000000000000000000000000000002D2D2D2D2D2D2D2D2D2D2DDCDCDCDC000000000000000000000000002D2D2D00DC00DCDCDCDCDCDC000000000000000000000000000000000000000000000000000000000000000000000000000000000000000000F50000F50000000000
310
00000000000000000000000000000000000000000000000000000000000000000000000000000000000000000000000000000000000000000000000000000000000000000000000000000000000000000000000000000000000000000000000000000000000000000000000000000000000000F50000000000000000000000
310
00000000000000000000000000000000000000000000000000000000000000000000002D2D2D2D2D2D2D2D2D2D2DDCDCDCDC000000000000000000000000002D2D2DDCDCDCDCDCDCDCDC00000000000000000000000000000000000000000000000000000000000000000000000000000000000000000000F50000F5000000
310
000000000000000000000000000000000000000000000000000000000000000000000000000000000000000000000000000000000000000000000000000000000000000000000000000000000000000000000000000000000000000000000000000000000000000000000000000000000000000000F5000000000000000000
310
000000000000000000000000000000000000000000000000000000000000000000000000002D2D2D2D2D2D2D2D2D2D2DDCDC0000000000000000000000000000002D2D0FDCDCDCDCDCDCDCDC00000000000000000000000000000000000000000000000000000000000000000000000000000000000000000000F50000F500
310
0000000000000000000000000000000000000000000000000000000000000000000000000000000000000000000000000000000000000000000000000000000000000000000000000000000000000000000000000000000000000000000000000000000000000000000000000000000000000000000000F500000000000000
310
0000000000000000000000000000000000000000000000000000000000000000000000000000000000000000000000000000DC0000000000000000000000000000000000F5F5000000DC000000DC00000000000000000000000000000000000000000000000000000000000000000000000000000000000000000000F50000
310
F5000000000000000000000000000000000000000000000000000000000000000000000000000000000000000000000000000000000000000000000000000000000000000000000000000000000000000000000000000000000000000000000000000000000000000000000000000000000000000000000000F50000000000
310
000000000000000000000000000000000000000000000000000000000000000000000000000000000000000000000000000000000000000000000000000000000000000000000000000000000000000000000000000000000000000000000000000000000000000000000000000000000000000000000000000000000000F5
310
0000F5000000000000000000000000000000000000000000000000000000000000000000000000000000000000000000000000000000000000000000000000000000000000000000000000000000000000000000000000000000000000000000000000000000000000000000000000000000000000000000000000F5000000
310
00000000000000000000000000000000000000000000000000000000000000000000000000000000000000000000000000000000000000000000000000000000000000000000000000000000000000000000000000000000000000000000000000000000000000000000000000000000000000000000000000000000000000
310
00F50000F5000000000000000000000000000000000000000000000000000000000000000000000000000000000000000000000000000000000000000000000000000000000000000000000000000000000000000000000000000000000000000000000000000000000000000000000000000000000000000000000000F500
310
00000000000000000000000000000000000000000000000000000000000000000000000000000000000000000000000000000000000000000000000000000000000000000000000000000000000000000000000000000000000000000000000000000000000000000000000000000000000000000000000000000000000000
310
000000F50000F5000000000000000000000000000000000000000000000000000000000000000000000000000000000000000000000000000000000000000000000000000000000000000000000000000000000000000000000000000000000000000000000000000000000000000000000000000000000000000000000000
310
F5000000000000000000000000000000000000000000000000000000000000000000000000000000000000000000000000000000000000000000000000000000000000000000000000000000000000000000000000000000000000000000000000000000000000000000000000000000000000000000000000000000000000
310
0000000000F50000F500000000000000000000000000000000000000000000000000000000000000000000000000000000000000000000000000000000000000000000000000000000000000000000000000000000000000000000000000000000000000000000000000000000000000000000000000000000000000000000
310
0000F500000000000000000000000000000000000000000000000000000000000000000000000000000000000000000000000000000000000000000000000000000000000000000000000000000000000000000000000000000000000000000000000000000000000000000000000000000000000000000000000000000000
310
00000000000000F50000F50000000000000000000000000000000000000000000000000000000000000000000000000000000000000000000000000000000000000000000000000000000000000000000000000000000000000000000000000000000000000000000000000000000000000000000000000000000000000000
310
00000000F50000000000000000000000000000000000000000000000000000000000000000000000000000000000000000000000000000000000000000000000000000000000000000000000000000000000000000000000000000000000000000000000000000000000000000000000000000000000000000000000000000
310
000000000000000000F50000F5000000000000000000000000000000000000000000000000000000000000000000000000000000000000000000000000000000000000000000000000000000000000000000000000000000000000000000000000000000000000000000000000000000000000000000000000000000000000
310
000000000000F5000000000000000000000000000000000000000000000000000000000000000000000000000000000000000000000000000000000000000000000000000000000000000000000000000000000000000000000000000000000000000000000000000000000000000000000000000000000000000000000000
310
0000000000000000000000F50000F500000000000000000000000000000000000000000000000000000000000000000000000000000000000000000000000000000000000000000000000000000000000000000000000000000000000000000000000000000000000000000000000000000000000000000000000000000000
310
0000000000000000F500000000000000000000000000000000000000000000000000000000000000000000000000000000000000000000000000000000000000000000000000000000000000000000000000000000000000000000000000000000000000000000000000000000000000000000000000000000000000000000
310
00000000000000000000000000F50000F50000000000000000000000000000000000000000000000000000000000000000000000000000000000000000000000000000000000000000000000000000000000000000000000000000000000000000000000000000000000000000000000000000000000000000000000000000
310
00000000000000000000F50000000000000000000000000000000000000000000000000000000000000000000000000000000000000000000000000000000000000000000000000000000000000000000000000000000000000000000000000000000000000000000000000000000000000000000000000000000000000000
310
000000000000000000000000000000F50000F5000000000000000000000000000000000000000000000000000000000000000000000000000000000000000000000000000000000000000000000000000000000000000000000000000000000000000000000000000000000000000000000000000000000000000000000000
310
000000000000000000000000F5000000000000000000000000000000000000000000000000000000000000000000000000000000000000000000000000000000000000000000000000000000000000000000000000000000000000000000000000000000000000000000000000000000000000000000000000000000000000
310
0000000000000000000000000000000000F50000F500000000000000000000000000000000000000000000000000000000000000000000000000000000000000000000000000000000000000000000000000000000000000000000000000000000000000000000000000000000000000000000000000000000000000000000
310
0000000000000000000000000000F500000000000000000000000000000000000000000000000000000000000000000000000000000000000000000000000000000000000000000000000000000000000000000000000000000000000000000000000000000000000000000000000000000000000000000000000000000000
310
00000000000000000000000000000000000000F50000F50000000000000000000000000000000000000000000000000000000000000000000000000000000000000000000000000000000000000000000000000000000000000000000000000000000000000000000000000000000000000000000000000000000000000000
310
00000000000000000000000000000000F50000000000000000000000000000000000000000000000000000000000000000000000000000000000000000000000000000000000000000000000000000000000000000000000000000000000000000000000000000000000000000000000000000000000000000000000000000
310
000000000000000000000000000000000000000000F50000F5000000000000000000000000000000000000000000000000000000000000000000000000000000000000000000000000000000000000000000000000000000000000000000000000000000000000000000000000000000000000000000000000000000000000
310
000000000000000000000000000000000000F5000000000000000000000000000000000000000000000000000000000000000000000000000000000000000000000000000000000000000000000000000000000000000000000000000000000000000000000000000000000000000000000000000000000000000000000000
310
0000000000000000000000000000000000000000000000F50000F500000000000000000000000000000000000000000000000000000000000000000000000000000000000000000000000000000000000000000000000000000000000000000000000000000000000000000000000000000000000000000000000000000000
310
0000000000000000000000000000000000000000F500000000000000000000000000000000000000000000000000000000000000000000000000000000000000000000000000000000000000000000000000000000000000000000000000000000000000000000000000000000000000000000000000000000000000000000
310
00000000000000000000000000000000000000000000000000F50000F50000000000000000000000000000000000000000000000000000000000000000000000000000000000000000000000000000000000000000000000000000000000000000000000000000000000000000000000000000000000000000000000000000
310
00000000000000000000000000000000000000000000F50000000000000000000000000000000000000000000000000000000000000000000000000000000000000000000000000000000000000000000000000000000000000000000000000000000000000000000000000000000000000000000000000000000000000000
310
000000000000000000000000000000000000000000000000000000F50000F5000000000000000000000000000000000000000000000000000000000000000000000000000000000000000000000000000000000000000000000000000000000000000000000000000000000000000000000000000000000000000000000000
310
000000000000000000000000000000000000000000000000F5000000000000000000000000000000000000000000000000000000000000000000000000000000000000000000000000000000000000000000000000000000000000000000000000000000000000000000000000000000000000000000000000000000000000
310
0000000000000000000000000000000000000000000000000000000000F50000F500000000000000000000000000000000000000000000000000000000000000000000000000000000000000000000000000000000000000000000000000000000000000000000000000000000000000000000000000000000000000000000
310
0000000000000000000000000000000000000000000000000000F500000000000000000000000000000000000000000000000000000000000000000000000000000000000000000000000000000000000000000000000000000000000000000000000000000000000000000000000000000000000000000000000000000000
310
00000000000000000000000000000000000000000000000000000000000000F50000F50000000000000000000000000000000000000000000000000000000000000000000000000000000000000000000000000000000000000000000000000000000000000000000000000000000000000000000000000000000000000000
310
00000000000000000000000000000000000000000000000000000000F50000000000000000000000000000000000000000000000000000000000000000000000000000000000000000000000000000000000000000000000000000000000000000000000000000000000000000000000000000000000000000000000000000
310
000000000000000000000000000000000000000000000000000000000000000000F50000F5000000000000000000000000000000000000000000000000000000000000000000000000000000000000000000000000000000000000000000000000000000000000000000000000000000000000000000000000000000000000
310
000000000000000000000000000000000000000000000000000000000000F5000000000000000000000000000000000000000000000000000000000000000000000000000000000000000000000000000000000000000000000000000000000000000000000000000000000000000000000000000000000000000000000000
310
0000000000000000000000000000000000000000000000000000000000000000000000F50000F500000000000000000000000000000000000000000000000000000000000000000000000000000000000000000000000000000000000000000000000000000000000000000000000000000000000000000000000000000000
310
0000000000000000000000000000000000000000000000000000000000000000F500000000000000000000000000000000000000000000000000000000000000000000000000000000000000000000000000000000000000000000000000000000000000000000000000000000000000000000000000000000000000000000
310
00000000000000000000000000000000000000000000000000000000000000000000000000F50000F50000000000000000000000000000000000000000000000000000000000000000000000000000000000000000000000000000000000000000000000000000000000000000000000000000000000000000000000000000
310
00000000000000000000000000000000000000000000000000000000000000000000F50000000000000000000000000000000000000000000000000000000000000000000000000000000000000000000000000000000000000000000000000000000000000000000000000000000000000000000000000000000000000000
310
000000000000000000000000000000000000000000000000000000000000000000000000000000F50000F5000000000000000000000000000000000000000000000000000000000000000000000000000000000000000000000000000000000000000000000000000000000000000000000000000000000000000000000000
310
000000000000000000000000000000000000000000000000000000000000000000000000F5F5F5F5F5F5F5F5F5F5F5F5F5F5F5F5F5F5F5F5F5F5F5F5F5F5F5F5F5F5F5F5F5F5F5F5F5F5F5F5F5F5F5F5F5F5F5F5F5F5F5F5F5F5F5F5F5F5F5F5F5F5F5F5F5F5F5F5F5F5F5F5F5F5F5F5F5F5F5F5F5F5F5F5F5F5F5F5F5F5F5
310
F5F5F5F5F5F5F5F5F5F5F5F5F5F5F5F5F5F5F5F5F5F5F5F5F5F5F5F5F5F5F5F5F5F5F5F5F5F5F5F5F5F50000F500000000000000000000000000000000000000000000000000000000000000000000000000000000000000000000000000000000000000000000000000000000000000000000000000000000000000000000
310
0000000000000000000000000000000000000000000000000000000000000000000000000000F5F5F5F5F5F5F5F5F5F5F5F5F5F5F50000000000000000000000000000000000000000000000000000000000000000000000000000000000000000000000000000000000000000000000000000000000000000000000000000
310
00000000000000000000000000000000000000000000000000000000000000000000000000000000000000F50000F50000000000000000000000000000000000000000000000000000000000000000000000000000000000000000000000000000000000000000000000000000000000000000000000000000000000000000
310
00000000000000000000000000000000000000000000000000000000000000000000000000000000F5F5F5F5F5F5F5F5F5F5F5F5F5F5F5F5F5F5F5F5F5F5F5F5F5F5F5F5F5F5F5F5F5F5F5F5F5F5F5F5F5F5F5F5F5F5F5F5F5F5F5F5F5F5F5F5F5F5F5F5F5F5F5F5F5F5F5F5F5F5F5F5F5F5F5F5F5F5F5F5F5F5F5F5F5F5F5
310
F5F5F5F5F5F5F5F5F5F5F5F5F5F5F5F5F5F5F5F5F5F5F5F5F5F5F5F5F5F5F5F5F5F5F5F5F5F5F5F5F5F5F5F5F5F50000F5000000000000000000000000000000000000000000000000000000000000000000000000000000000000000000000000000000000000000000000000000000000000000000000000000000000000
310
000000000000000000000000000000000000000000000000000000000000000000000000000000000000F5F5F5F5F5F5F5F5F5F5F5F5F5F5F5F5F5F5F5F5F5F5F5F5F5F5F500F5F5F5F5F5F5F5F5F5F5F5F5F5F5F5F5F5F5F5F5F5F5F5F5F5F500000000000000000000000000000000000000000000000000000000000000
310
0000000000000000000000000000000000000000000000000000000000000000000000000000000000000000000000F50000F500000000000000000000000000000000000000000000000000000000000000000000000000000000000000000000000000000000000000000000000000000000000000000000000000000000
310
0000000000000000000000000000000000000000000000000000000000000000000000000000000000000000F5F5F5F5F5F5F5F5F5F5F5F5F5F5F5F5F5F5F5F5F5F5F5F5F5F5F5F5F5F5F5F5F5F5F5F5F5F5F5F5F5F5F5F5F5F5F5F5F5F5F5F5F5F5F5F5F5F5F5F5F5F5F5F5F5F5F5F5F5F5F5F5F5F5F5F5F5F5F5F5F5F5F5
310
F5F5F5F5F5F5F5F5F5F5F5F5F5F5F5F5F5F5F5F5F5F5F5F5F5F5F5F5F5F5F5F5F5F5F5F5F5F5F5F5F5F5F5F5F5F5F5F5F5F50000F50000000000000000000000000000000000000000000000000000000000000000000000000000000000000000000000000000000000000000000000000000000000000000000000000000
310
00000000000000000000000000000000000000000000000000000000000000000000000000000000000000000000F50000F5F5F5F5F5F5F5F5F5F500F5F5F5F5F5F5F5F5F5F5F5F5F500F5F5F5F5F500F5F5F5F5F5000000000000000000000000000000000000000000000000000000000000000000000000000000000000
310
000000F5F5F5F5F5F5F5F5F5F5F5F5F5F5F5F5F5F5F5F5F5F5F5F5F5F5F5F5F5F5F5F5F5F5F5F5F5F5F5F5F5F5F5F5F5F5F5F5F50000F5000000000000000000000000000000000000000000000000000000000000000000000000000000000000000000000000000000000000000000000000000000000000000000000000
310
000000000000000000000000000000000000000000000000000000000000000000000000000000000000000000000000F5F5F5F5F5F5F5F5F5F5F5F5F5F5F5F5F5F5F5F5F5F5F5F5F5F5F5F5F5F5F5F5F5F5F5F5F5F5F5F5F5F5F5F5F5F5F5F5F5F5F5F5F5F5F5F5F5F5F5F5F5F5F5F5F5F5F5F5F5F5F5F5F5F5F5F5F5F5F5
310
F5F5F5F5F5F5F5F5F5F5F5F5F5F5F5F5F5F5F5F5F5F5F5F5F5F5F5F5F5F5F5F5F5F5F5F5F5F5F5F5F5F5F5F5F5F5F5F5F5F5F5F5F5F5F5F5F500000000000000000000000000000000000000000000000000000000000000000000000000000000000000000000000000000000000000000000000000000000000000000000
310
00000000000000000000000000000000000000000000000000000000000000000000000000000000000000000000000000000000000000000000000000000000000000000000000000000000000000000000000000000000000000000000000000000000000000000000000000000000000000000000000000000000000000
310
0000000000000000000000000000000000000000000000000000000000000000000000000000000000000000000000000000000000000000000000000000000000000000000000000000000000000000000000000000000000000000000000000000000000000000000000000000000000000000000000
  0
XRECORD
  5
F5A
102
{ACAD_REACTORS
330
53
102
}
330
53
100
AcDbXrecord
280
     1
102
MATERIAL
148
0.0
149
0.0
149
0.0
 93
        0
 94
      127
282
     0
 72
     0
 77
     0
171
     0
175
     0
179
     0
273
     0
  0
XRECORD
  5
55
102
{ACAD_REACTORS
330
53
102
}
330
53
100
AcDbXrecord
280
     1
270
     1
271
     1
  0
XRECORD
  5
54
102
{ACAD_REACTORS
330
53
102
}
330
53
100
AcDbXrecord
280
     1
270
     1
271
     1
  0
XRECORD
  5
58
102
{ACAD_REACTORS
330
53
102
}
330
53
100
AcDbXrecord
280
     1
270
     1
271
     1
  0
XRECORD
  5
57
102
{ACAD_REACTORS
330
53
102
}
330
53
100
AcDbXrecord
280
     1
270
     1
271
     1
  0
XRECORD
  5
59
102
{ACAD_REACTORS
330
53
102
}
330
53
100
AcDbXrecord
280
     1
270
     1
271
     1
  0
XRECORD
  5
56
102
{ACAD_REACTORS
330
53
102
}
330
53
100
AcDbXrecord
280
     1
270
     1
271
     1
  0
XRECORD
  5
F59
102
{ACAD_REACTORS
330
4B
102
}
330
4B
100
AcDbXrecord
280
     1
102
MATERIAL
148
0.0
149
0.0
149
0.0
 93
        0
 94
      127
282
     0
 72
     0
 77
     0
171
     0
175
     0
179
     0
273
     0
  0
XRECORD
  5
4D
102
{ACAD_REACTORS
330
4B
102
}
330
4B
100
AcDbXrecord
280
     1
270
     1
271
     1
  0
XRECORD
  5
4C
102
{ACAD_REACTORS
330
4B
102
}
330
4B
100
AcDbXrecord
280
     1
270
     1
271
     1
  0
XRECORD
  5
50
102
{ACAD_REACTORS
330
4B
102
}
330
4B
100
AcDbXrecord
280
     1
270
     1
271
     1
  0
XRECORD
  5
4F
102
{ACAD_REACTORS
330
4B
102
}
330
4B
100
AcDbXrecord
280
     1
270
     1
271
     1
  0
XRECORD
  5
51
102
{ACAD_REACTORS
330
4B
102
}
330
4B
100
AcDbXrecord
280
     1
270
     1
271
     1
  0
XRECORD
  5
4E
102
{ACAD_REACTORS
330
4B
102
}
330
4B
100
AcDbXrecord
280
     1
270
     1
271
     1
  0
XRECORD
  5
F5B
102
{ACAD_REACTORS
330
5B
102
}
330
5B
100
AcDbXrecord
280
     1
102
MATERIAL
148
0.0
149
0.0
149
0.0
 93
        0
 94
      127
282
     0
 72
     0
 77
     0
171
     0
175
     0
179
     0
273
     0
  0
XRECORD
  5
5D
102
{ACAD_REACTORS
330
5B
102
}
330
5B
100
AcDbXrecord
280
     1
270
     1
271
     1
  0
XRECORD
  5
5C
102
{ACAD_REACTORS
330
5B
102
}
330
5B
100
AcDbXrecord
280
     1
270
     1
271
     1
  0
XRECORD
  5
60
102
{ACAD_REACTORS
330
5B
102
}
330
5B
100
AcDbXrecord
280
     1
270
     1
271
     1
  0
XRECORD
  5
5F
102
{ACAD_REACTORS
330
5B
102
}
330
5B
100
AcDbXrecord
280
     1
270
     1
271
     1
  0
XRECORD
  5
61
102
{ACAD_REACTORS
330
5B
102
}
330
5B
100
AcDbXrecord
280
     1
270
     1
271
     1
  0
XRECORD
  5
5E
102
{ACAD_REACTORS
330
5B
102
}
330
5B
100
AcDbXrecord
280
     1
270
     1
271
     1
  0
XRECORD
  5
F8E
102
{ACAD_REACTORS
330
F8D
102
}
330
F8D
100
AcDbXrecord
280
     1
102
ACAD_ROUNDTRIP_2012_MLEADER_STYLE
298
     1
  0
XRECORD
  5
F90
102
{ACAD_REACTORS
330
F8F
102
}
330
F8F
100
AcDbXrecord
280
     1
102
DISPLAYNAME
  1
Imperial24
102
FLAGS
 90
        0
  0
XRECORD
  5
F94
102
{ACAD_REACTORS
330
F93
102
}
330
F93
100
AcDbXrecord
280
     1
102
DISPLAYNAME
  1
Metric50
102
FLAGS
 90
        0
  0
CELLSTYLEMAP
  5
F57
102
{ACAD_REACTORS
330
807
102
}
330
807
100
AcDbCellStyleMap
 90
        3
300
CELLSTYLE
  1
TABLEFORMAT_BEGIN
 90
        5
170
     1
 91
        0
 92
    32768
 62
   257
 93
        1
300
CONTENTFORMAT
  1
CONTENTFORMAT_BEGIN
 90
        0
 91
        0
 92
      512
 93
        0
300

 40
0.0
140
1.0
 94
        5
 62
     0
340
10
144
0.25
309
CONTENTFORMAT_END
171
     0
 94
        0
309
TABLEFORMAT_END
  1
CELLSTYLE_BEGIN
 90
        1
 91
        1
300
_TITLE
309
CELLSTYLE_END
300
CELLSTYLE
  1
TABLEFORMAT_BEGIN
 90
        5
170
     1
 91
        0
 92
        0
 62
   257
 93
        1
300
CONTENTFORMAT
  1
CONTENTFORMAT_BEGIN
 90
        0
 91
        0
 92
      512
 93
        0
300

 40
0.0
140
1.0
 94
        5
 62
     0
340
10
144
0.18
309
CONTENTFORMAT_END
171
     0
 94
        0
309
TABLEFORMAT_END
  1
CELLSTYLE_BEGIN
 90
        2
 91
        1
300
_HEADER
309
CELLSTYLE_END
300
CELLSTYLE
  1
TABLEFORMAT_BEGIN
 90
        5
170
     1
 91
        0
 92
        0
 62
   257
 93
        1
300
CONTENTFORMAT
  1
CONTENTFORMAT_BEGIN
 90
        0
 91
        0
 92
      512
 93
        0
300

 40
0.0
140
1.0
 94
        2
 62
     0
340
10
144
0.18
309
CONTENTFORMAT_END
171
     0
 94
        0
309
TABLEFORMAT_END
  1
CELLSTYLE_BEGIN
 90
        3
 91
        2
300
_DATA
309
CELLSTYLE_END
  0
XRECORD
  5
F8C
102
{ACAD_REACTORS
330
807
102
}
330
807
100
AcDbXrecord
280
     1
102
ACAD_ROUNDTRIP_PRE2007_TABLESTYLE
 90
      512
 91
        0
  1

 92
      512
 93
        0
  2

 94
      512
 95
        0
  3

  0
XRECORD
  5
F67
102
{ACAD_REACTORS
330
F66
102
}
330
F66
100
AcDbXrecord
280
     1
102
RTVSPost2010Prop28
280
     1
102
RTVSPost2010PropOp28
 70
     1
102
RTVSPost2010Prop29
280
     1
102
RTVSPost2010PropOp29
 70
     1
102
RTVSPost2010Prop30
280
     0
102
RTVSPost2010PropOp30
 70
     1
102
RTVSPost2010Prop31
280
     0
102
RTVSPost2010PropOp31
 70
     1
102
RTVSPost2010Prop32
280
     0
102
RTVSPost2010PropOp32
 70
     1
102
RTVSPost2010Prop33
280
     0
102
RTVSPost2010PropOp33
 70
     1
102
RTVSPost2010Prop34
280
     0
102
RTVSPost2010PropOp34
 70
     1
102
RTVSPost2010Prop35
280
     0
102
RTVSPost2010PropOp35
 70
     1
102
RTVSPost2010Prop36
280
     0
102
RTVSPost2010PropOp36
 70
     1
102
RTVSPost2010Prop37
 90
       50
102
RTVSPost2010PropOp37
 70
     1
102
RTVSPost2010Prop38
140
0.0
102
RTVSPost2010PropOp38
 70
     1
102
RTVSPost2010Prop39
140
1.0
102
RTVSPost2010PropOp39
 70
     1
102
RTVSPost2010Prop40
 90
        0
102
RTVSPost2010PropOp40
 70
     1
102
RTVSPost2010Prop41ColorIndex
 90
       18
102
RTVSPost2010Prop41ColorRGB
 90
        0
102
RTVSPost2010PropOp41
 70
     1
102
RTVSPost2010Prop42
 90
       50
102
RTVSPost2010PropOp42
 70
     1
102
RTVSPost2010Prop43
 90
        3
102
RTVSPost2010PropOp43
 70
     1
102
RTVSPost2010Prop44ColorIndex
 90
        5
102
RTVSPost2010Prop44ColorRGB
 90
      255
102
RTVSPost2010PropOp44
 70
     1
102
RTVSPost2010Prop45
280
     0
102
RTVSPost2010PropOp45
 70
     1
102
RTVSPost2010Prop46
 90
       50
102
RTVSPost2010PropOp46
 70
     1
102
RTVSPost2010Prop47
 90
       50
102
RTVSPost2010PropOp47
 70
     1
102
RTVSPost2010Prop48
 90
       50
102
RTVSPost2010PropOp48
 70
     1
102
RTVSPost2010Prop49
280
     0
102
RTVSPost2010PropOp49
 70
     1
102
RTVSPost2010Prop50
 90
       50
102
RTVSPost2010PropOp50
 70
     1
102
RTVSPost2010Prop51ColorIndex
 90
      256
102
RTVSPost2010Prop51ColorRGB
 90
-16777216
102
RTVSPost2010PropOp51
 70
     0
102
RTVSPost2010Prop52
140
1.0
102
RTVSPost2010PropOp52
 70
     0
102
RTVSPost2010Prop53
 90
        2
102
RTVSPost2010PropOp53
 70
     1
102
RTVSPost2010Prop54
  1
strokes_ogs.tif
102
RTVSPost2010PropOp54
 70
     1
102
RTVSPost2010Prop55
280
     0
102
RTVSPost2010PropOp55
 70
     1
102
RTVSPost2010Prop56
140
1.0
102
RTVSPost2010PropOp56
 70
     1
102
RTVSPost2010Prop57
140
1.0
102
RTVSPost2010PropOp57
 70
     1
102
RTVSPropertyOp0
 70
     1
102
RTVSPropertyOp1
 70
     1
102
RTVSPropertyOp2
 70
     1
102
RTVSPropertyOp3
 70
     1
102
RTVSPropertyOp4
 70
     1
102
RTVSPropertyOp5
 70
     1
102
RTVSPropertyOp6
 70
     1
102
RTVSPropertyOp7
 70
     1
102
RTVSPropertyOp8
 70
     1
102
RTVSPropertyOp9
 70
     1
102
RTVSPropertyOp10
 70
     1
102
RTVSPropertyOp11
 70
     1
102
RTVSPropertyOp12
 70
     1
102
RTVSPropertyOp13
 70
     1
102
RTVSPropertyOp14
 70
     1
102
RTVSPropertyOp15
 70
     1
102
RTVSPropertyOp16
 70
     1
102
RTVSPropertyOp17
 70
     1
102
RTVSPropertyOp18
 70
     1
102
RTVSPropertyOp19
 70
     1
102
RTVSPropertyOp20
 70
     1
102
RTVSPropertyOp21
 70
     1
102
RTVSPropertyOp22
 70
     1
102
RTVSPropertyOp23
 70
     1
102
RTVSPropertyOp24
 70
     1
102
RTVSPropertyOp25
 70
     1
102
RTVSPropertyOp26
 70
     1
102
RTVSPropertyOp27
 70
     1
102
RTVSPropertyOp28
 70
     1
102
RTVSPropertyOp29
 70
     1
102
RTVSPropertyOp30
 70
     1
102
RTVSPropertyOp31
 70
     1
102
RTVSPropertyOp32
 70
     1
102
RTVSPropertyOp33
 70
     1
102
RTVSPropertyOp34
 70
     1
102
RTVSPropertyOp35
 70
     1
102
RTVSPropertyOp36
 70
     1
102
RTVSPropertyOp37
 70
     1
102
RTVSPropertyOp38
 70
     1
102
RTVSPropertyOp39
 70
     1
102
RTVSPropertyOp40
 70
     1
102
RTVSPropertyOp41
 70
     1
102
RTVSPropertyOp42
 70
     1
102
RTVSPropertyOp43
 70
     1
102
RTVSPropertyOp44
 70
     1
102
RTVSPropertyOp45
 70
     1
102
RTVSPropertyOp46
 70
     1
102
RTVSPropertyOp47
 70
     1
102
RTVSPropertyOp48
 70
     1
102
RTVSPropertyOp49
 70
     1
102
RTVSPropertyOp50
 70
     1
102
RTVSPropertyOp51
 70
     0
102
RTVSPropertyOp52
 70
     0
102
RTVSPropertyOp53
 70
     1
102
RTVSPropertyOp54
 70
     1
102
RTVSPropertyOp55
 70
     1
102
RTVSPropertyOp56
 70
     1
102
RTVSPropertyOp57
 70
     1
102
RTVSPropertyOp58
 70
     1
102
RTVSPropertyOp59
 70
     1
102
RTVSPropertyOp60
 70
     1
102
RTVSPropertyOp61
 70
     1
102
RTVSPropertyOp62
 70
     1
  0
XRECORD
  5
F65
102
{ACAD_REACTORS
330
F64
102
}
330
F64
100
AcDbXrecord
280
     1
102
RTVSPost2010Prop28
280
     0
102
RTVSPost2010PropOp28
 70
     1
102
RTVSPost2010Prop29
280
     1
102
RTVSPost2010PropOp29
 70
     1
102
RTVSPost2010Prop30
280
     1
102
RTVSPost2010PropOp30
 70
     1
102
RTVSPost2010Prop31
280
     0
102
RTVSPost2010PropOp31
 70
     1
102
RTVSPost2010Prop32
280
     0
102
RTVSPost2010PropOp32
 70
     1
102
RTVSPost2010Prop33
280
     0
102
RTVSPost2010PropOp33
 70
     1
102
RTVSPost2010Prop34
280
     0
102
RTVSPost2010PropOp34
 70
     1
102
RTVSPost2010Prop35
280
     0
102
RTVSPost2010PropOp35
 70
     1
102
RTVSPost2010Prop36
280
     0
102
RTVSPost2010PropOp36
 70
     1
102
RTVSPost2010Prop37
 90
       50
102
RTVSPost2010PropOp37
 70
     1
102
RTVSPost2010Prop38
140
0.0
102
RTVSPost2010PropOp38
 70
     1
102
RTVSPost2010Prop39
140
1.0
102
RTVSPost2010PropOp39
 70
     1
102
RTVSPost2010Prop40
 90
        0
102
RTVSPost2010PropOp40
 70
     1
102
RTVSPost2010Prop41ColorIndex
 90
       18
102
RTVSPost2010Prop41ColorRGB
 90
        0
102
RTVSPost2010PropOp41
 70
     1
102
RTVSPost2010Prop42
 90
       50
102
RTVSPost2010PropOp42
 70
     1
102
RTVSPost2010Prop43
 90
        3
102
RTVSPost2010PropOp43
 70
     1
102
RTVSPost2010Prop44ColorIndex
 90
        5
102
RTVSPost2010Prop44ColorRGB
 90
      255
102
RTVSPost2010PropOp44
 70
     1
102
RTVSPost2010Prop45
280
     0
102
RTVSPost2010PropOp45
 70
     1
102
RTVSPost2010Prop46
 90
       50
102
RTVSPost2010PropOp46
 70
     1
102
RTVSPost2010Prop47
 90
       50
102
RTVSPost2010PropOp47
 70
     1
102
RTVSPost2010Prop48
 90
       50
102
RTVSPost2010PropOp48
 70
     1
102
RTVSPost2010Prop49
280
     0
102
RTVSPost2010PropOp49
 70
     1
102
RTVSPost2010Prop50
 90
       50
102
RTVSPost2010PropOp50
 70
     1
102
RTVSPost2010Prop51ColorIndex
 90
      256
102
RTVSPost2010Prop51ColorRGB
 90
-16777216
102
RTVSPost2010PropOp51
 70
     0
102
RTVSPost2010Prop52
140
1.0
102
RTVSPost2010PropOp52
 70
     0
102
RTVSPost2010Prop53
 90
        2
102
RTVSPost2010PropOp53
 70
     1
102
RTVSPost2010Prop54
  1
strokes_ogs.tif
102
RTVSPost2010PropOp54
 70
     1
102
RTVSPost2010Prop55
280
     0
102
RTVSPost2010PropOp55
 70
     1
102
RTVSPost2010Prop56
140
1.0
102
RTVSPost2010PropOp56
 70
     1
102
RTVSPost2010Prop57
140
1.0
102
RTVSPost2010PropOp57
 70
     1
102
RTVSPropertyOp0
 70
     1
102
RTVSPropertyOp1
 70
     1
102
RTVSPropertyOp2
 70
     1
102
RTVSPropertyOp3
 70
     1
102
RTVSPropertyOp4
 70
     1
102
RTVSPropertyOp5
 70
     1
102
RTVSPropertyOp6
 70
     1
102
RTVSPropertyOp7
 70
     1
102
RTVSPropertyOp8
 70
     1
102
RTVSPropertyOp9
 70
     1
102
RTVSPropertyOp10
 70
     1
102
RTVSPropertyOp11
 70
     1
102
RTVSPropertyOp12
 70
     1
102
RTVSPropertyOp13
 70
     1
102
RTVSPropertyOp14
 70
     1
102
RTVSPropertyOp15
 70
     1
102
RTVSPropertyOp16
 70
     1
102
RTVSPropertyOp17
 70
     1
102
RTVSPropertyOp18
 70
     1
102
RTVSPropertyOp19
 70
     1
102
RTVSPropertyOp20
 70
     1
102
RTVSPropertyOp21
 70
     1
102
RTVSPropertyOp22
 70
     1
102
RTVSPropertyOp23
 70
     1
102
RTVSPropertyOp24
 70
     1
102
RTVSPropertyOp25
 70
     1
102
RTVSPropertyOp26
 70
     1
102
RTVSPropertyOp27
 70
     1
102
RTVSPropertyOp28
 70
     1
102
RTVSPropertyOp29
 70
     1
102
RTVSPropertyOp30
 70
     1
102
RTVSPropertyOp31
 70
     1
102
RTVSPropertyOp32
 70
     1
102
RTVSPropertyOp33
 70
     1
102
RTVSPropertyOp34
 70
     1
102
RTVSPropertyOp35
 70
     1
102
RTVSPropertyOp36
 70
     1
102
RTVSPropertyOp37
 70
     1
102
RTVSPropertyOp38
 70
     1
102
RTVSPropertyOp39
 70
     1
102
RTVSPropertyOp40
 70
     1
102
RTVSPropertyOp41
 70
     1
102
RTVSPropertyOp42
 70
     1
102
RTVSPropertyOp43
 70
     1
102
RTVSPropertyOp44
 70
     1
102
RTVSPropertyOp45
 70
     1
102
RTVSPropertyOp46
 70
     1
102
RTVSPropertyOp47
 70
     1
102
RTVSPropertyOp48
 70
     1
102
RTVSPropertyOp49
 70
     1
102
RTVSPropertyOp50
 70
     1
102
RTVSPropertyOp51
 70
     0
102
RTVSPropertyOp52
 70
     0
102
RTVSPropertyOp53
 70
     1
102
RTVSPropertyOp54
 70
     1
102
RTVSPropertyOp55
 70
     1
102
RTVSPropertyOp56
 70
     1
102
RTVSPropertyOp57
 70
     1
102
RTVSPropertyOp58
 70
     1
102
RTVSPropertyOp59
 70
     1
102
RTVSPropertyOp60
 70
     1
102
RTVSPropertyOp61
 70
     1
102
RTVSPropertyOp62
 70
     1
  0
XRECORD
  5
F73
102
{ACAD_REACTORS
330
F72
102
}
330
F72
100
AcDbXrecord
280
     1
102
RTVSPost2010Prop28
280
     0
102
RTVSPost2010PropOp28
 70
     1
102
RTVSPost2010Prop29
280
     1
102
RTVSPost2010PropOp29
 70
     1
102
RTVSPost2010Prop30
280
     1
102
RTVSPost2010PropOp30
 70
     1
102
RTVSPost2010Prop31
280
     0
102
RTVSPost2010PropOp31
 70
     1
102
RTVSPost2010Prop32
280
     0
102
RTVSPost2010PropOp32
 70
     1
102
RTVSPost2010Prop33
280
     0
102
RTVSPost2010PropOp33
 70
     1
102
RTVSPost2010Prop34
280
     0
102
RTVSPost2010PropOp34
 70
     1
102
RTVSPost2010Prop35
280
     0
102
RTVSPost2010PropOp35
 70
     1
102
RTVSPost2010Prop36
280
     0
102
RTVSPost2010PropOp36
 70
     1
102
RTVSPost2010Prop37
 90
       50
102
RTVSPost2010PropOp37
 70
     1
102
RTVSPost2010Prop38
140
0.0
102
RTVSPost2010PropOp38
 70
     1
102
RTVSPost2010Prop39
140
1.0
102
RTVSPost2010PropOp39
 70
     1
102
RTVSPost2010Prop40
 90
        0
102
RTVSPost2010PropOp40
 70
     1
102
RTVSPost2010Prop41ColorIndex
 90
       18
102
RTVSPost2010Prop41ColorRGB
 90
        0
102
RTVSPost2010PropOp41
 70
     1
102
RTVSPost2010Prop42
 90
       50
102
RTVSPost2010PropOp42
 70
     1
102
RTVSPost2010Prop43
 90
        3
102
RTVSPost2010PropOp43
 70
     1
102
RTVSPost2010Prop44ColorIndex
 90
        5
102
RTVSPost2010Prop44ColorRGB
 90
      255
102
RTVSPost2010PropOp44
 70
     1
102
RTVSPost2010Prop45
280
     0
102
RTVSPost2010PropOp45
 70
     1
102
RTVSPost2010Prop46
 90
       50
102
RTVSPost2010PropOp46
 70
     1
102
RTVSPost2010Prop47
 90
       50
102
RTVSPost2010PropOp47
 70
     1
102
RTVSPost2010Prop48
 90
       50
102
RTVSPost2010PropOp48
 70
     1
102
RTVSPost2010Prop49
280
     0
102
RTVSPost2010PropOp49
 70
     1
102
RTVSPost2010Prop50
 90
       50
102
RTVSPost2010PropOp50
 70
     1
102
RTVSPost2010Prop51ColorIndex
 90
      256
102
RTVSPost2010Prop51ColorRGB
 90
-16777216
102
RTVSPost2010PropOp51
 70
     0
102
RTVSPost2010Prop52
140
1.0
102
RTVSPost2010PropOp52
 70
     0
102
RTVSPost2010Prop53
 90
        2
102
RTVSPost2010PropOp53
 70
     1
102
RTVSPost2010Prop54
  1
strokes_ogs.tif
102
RTVSPost2010PropOp54
 70
     1
102
RTVSPost2010Prop55
280
     0
102
RTVSPost2010PropOp55
 70
     1
102
RTVSPost2010Prop56
140
1.0
102
RTVSPost2010PropOp56
 70
     1
102
RTVSPost2010Prop57
140
1.0
102
RTVSPost2010PropOp57
 70
     1
102
RTVSPropertyOp0
 70
     1
102
RTVSPropertyOp1
 70
     1
102
RTVSPropertyOp2
 70
     1
102
RTVSPropertyOp3
 70
     1
102
RTVSPropertyOp4
 70
     1
102
RTVSPropertyOp5
 70
     1
102
RTVSPropertyOp6
 70
     1
102
RTVSPropertyOp7
 70
     1
102
RTVSPropertyOp8
 70
     1
102
RTVSPropertyOp9
 70
     1
102
RTVSPropertyOp10
 70
     1
102
RTVSPropertyOp11
 70
     1
102
RTVSPropertyOp12
 70
     1
102
RTVSPropertyOp13
 70
     1
102
RTVSPropertyOp14
 70
     1
102
RTVSPropertyOp15
 70
     1
102
RTVSPropertyOp16
 70
     1
102
RTVSPropertyOp17
 70
     1
102
RTVSPropertyOp18
 70
     1
102
RTVSPropertyOp19
 70
     1
102
RTVSPropertyOp20
 70
     1
102
RTVSPropertyOp21
 70
     1
102
RTVSPropertyOp22
 70
     1
102
RTVSPropertyOp23
 70
     1
102
RTVSPropertyOp24
 70
     1
102
RTVSPropertyOp25
 70
     1
102
RTVSPropertyOp26
 70
     1
102
RTVSPropertyOp27
 70
     1
102
RTVSPropertyOp28
 70
     1
102
RTVSPropertyOp29
 70
     1
102
RTVSPropertyOp30
 70
     1
102
RTVSPropertyOp31
 70
     1
102
RTVSPropertyOp32
 70
     1
102
RTVSPropertyOp33
 70
     1
102
RTVSPropertyOp34
 70
     1
102
RTVSPropertyOp35
 70
     1
102
RTVSPropertyOp36
 70
     1
102
RTVSPropertyOp37
 70
     1
102
RTVSPropertyOp38
 70
     1
102
RTVSPropertyOp39
 70
     1
102
RTVSPropertyOp40
 70
     1
102
RTVSPropertyOp41
 70
     1
102
RTVSPropertyOp42
 70
     1
102
RTVSPropertyOp43
 70
     1
102
RTVSPropertyOp44
 70
     1
102
RTVSPropertyOp45
 70
     1
102
RTVSPropertyOp46
 70
     1
102
RTVSPropertyOp47
 70
     1
102
RTVSPropertyOp48
 70
     1
102
RTVSPropertyOp49
 70
     1
102
RTVSPropertyOp50
 70
     1
102
RTVSPropertyOp51
 70
     0
102
RTVSPropertyOp52
 70
     0
102
RTVSPropertyOp53
 70
     1
102
RTVSPropertyOp54
 70
     1
102
RTVSPropertyOp55
 70
     1
102
RTVSPropertyOp56
 70
     1
102
RTVSPropertyOp57
 70
     1
102
RTVSPropertyOp58
 70
     1
102
RTVSPropertyOp59
 70
     1
102
RTVSPropertyOp60
 70
     1
102
RTVSPropertyOp61
 70
     1
102
RTVSPropertyOp62
 70
     1
  0
XRECORD
  5
F7B
102
{ACAD_REACTORS
330
F7A
102
}
330
F7A
100
AcDbXrecord
280
     1
102
RTVSPost2010Prop28
280
     0
102
RTVSPost2010PropOp28
 70
     1
102
RTVSPost2010Prop29
280
     1
102
RTVSPost2010PropOp29
 70
     1
102
RTVSPost2010Prop30
280
     1
102
RTVSPost2010PropOp30
 70
     1
102
RTVSPost2010Prop31
280
     0
102
RTVSPost2010PropOp31
 70
     1
102
RTVSPost2010Prop32
280
     0
102
RTVSPost2010PropOp32
 70
     1
102
RTVSPost2010Prop33
280
     0
102
RTVSPost2010PropOp33
 70
     1
102
RTVSPost2010Prop34
280
     0
102
RTVSPost2010PropOp34
 70
     1
102
RTVSPost2010Prop35
280
     0
102
RTVSPost2010PropOp35
 70
     1
102
RTVSPost2010Prop36
280
     0
102
RTVSPost2010PropOp36
 70
     1
102
RTVSPost2010Prop37
 90
       50
102
RTVSPost2010PropOp37
 70
     1
102
RTVSPost2010Prop38
140
0.0
102
RTVSPost2010PropOp38
 70
     1
102
RTVSPost2010Prop39
140
1.0
102
RTVSPost2010PropOp39
 70
     1
102
RTVSPost2010Prop40
 90
        0
102
RTVSPost2010PropOp40
 70
     1
102
RTVSPost2010Prop41ColorIndex
 90
       18
102
RTVSPost2010Prop41ColorRGB
 90
        0
102
RTVSPost2010PropOp41
 70
     1
102
RTVSPost2010Prop42
 90
       50
102
RTVSPost2010PropOp42
 70
     1
102
RTVSPost2010Prop43
 90
        3
102
RTVSPost2010PropOp43
 70
     1
102
RTVSPost2010Prop44ColorIndex
 90
        5
102
RTVSPost2010Prop44ColorRGB
 90
      255
102
RTVSPost2010PropOp44
 70
     1
102
RTVSPost2010Prop45
280
     0
102
RTVSPost2010PropOp45
 70
     1
102
RTVSPost2010Prop46
 90
       50
102
RTVSPost2010PropOp46
 70
     1
102
RTVSPost2010Prop47
 90
       50
102
RTVSPost2010PropOp47
 70
     1
102
RTVSPost2010Prop48
 90
       50
102
RTVSPost2010PropOp48
 70
     1
102
RTVSPost2010Prop49
280
     0
102
RTVSPost2010PropOp49
 70
     1
102
RTVSPost2010Prop50
 90
       50
102
RTVSPost2010PropOp50
 70
     1
102
RTVSPost2010Prop51ColorIndex
 90
      256
102
RTVSPost2010Prop51ColorRGB
 90
-16777216
102
RTVSPost2010PropOp51
 70
     0
102
RTVSPost2010Prop52
140
1.0
102
RTVSPost2010PropOp52
 70
     0
102
RTVSPost2010Prop53
 90
        2
102
RTVSPost2010PropOp53
 70
     1
102
RTVSPost2010Prop54
  1
strokes_ogs.tif
102
RTVSPost2010PropOp54
 70
     1
102
RTVSPost2010Prop55
280
     0
102
RTVSPost2010PropOp55
 70
     1
102
RTVSPost2010Prop56
140
1.0
102
RTVSPost2010PropOp56
 70
     1
102
RTVSPost2010Prop57
140
1.0
102
RTVSPost2010PropOp57
 70
     1
102
RTVSPropertyOp0
 70
     1
102
RTVSPropertyOp1
 70
     1
102
RTVSPropertyOp2
 70
     1
102
RTVSPropertyOp3
 70
     1
102
RTVSPropertyOp4
 70
     1
102
RTVSPropertyOp5
 70
     1
102
RTVSPropertyOp6
 70
     1
102
RTVSPropertyOp7
 70
     1
102
RTVSPropertyOp8
 70
     1
102
RTVSPropertyOp9
 70
     1
102
RTVSPropertyOp10
 70
     1
102
RTVSPropertyOp11
 70
     1
102
RTVSPropertyOp12
 70
     1
102
RTVSPropertyOp13
 70
     1
102
RTVSPropertyOp14
 70
     1
102
RTVSPropertyOp15
 70
     1
102
RTVSPropertyOp16
 70
     1
102
RTVSPropertyOp17
 70
     1
102
RTVSPropertyOp18
 70
     1
102
RTVSPropertyOp19
 70
     1
102
RTVSPropertyOp20
 70
     1
102
RTVSPropertyOp21
 70
     1
102
RTVSPropertyOp22
 70
     1
102
RTVSPropertyOp23
 70
     1
102
RTVSPropertyOp24
 70
     1
102
RTVSPropertyOp25
 70
     1
102
RTVSPropertyOp26
 70
     1
102
RTVSPropertyOp27
 70
     1
102
RTVSPropertyOp28
 70
     1
102
RTVSPropertyOp29
 70
     1
102
RTVSPropertyOp30
 70
     1
102
RTVSPropertyOp31
 70
     1
102
RTVSPropertyOp32
 70
     1
102
RTVSPropertyOp33
 70
     1
102
RTVSPropertyOp34
 70
     1
102
RTVSPropertyOp35
 70
     1
102
RTVSPropertyOp36
 70
     1
102
RTVSPropertyOp37
 70
     1
102
RTVSPropertyOp38
 70
     1
102
RTVSPropertyOp39
 70
     1
102
RTVSPropertyOp40
 70
     1
102
RTVSPropertyOp41
 70
     1
102
RTVSPropertyOp42
 70
     1
102
RTVSPropertyOp43
 70
     1
102
RTVSPropertyOp44
 70
     1
102
RTVSPropertyOp45
 70
     1
102
RTVSPropertyOp46
 70
     1
102
RTVSPropertyOp47
 70
     1
102
RTVSPropertyOp48
 70
     1
102
RTVSPropertyOp49
 70
     1
102
RTVSPropertyOp50
 70
     1
102
RTVSPropertyOp51
 70
     0
102
RTVSPropertyOp52
 70
     0
102
RTVSPropertyOp53
 70
     1
102
RTVSPropertyOp54
 70
     1
102
RTVSPropertyOp55
 70
     1
102
RTVSPropertyOp56
 70
     1
102
RTVSPropertyOp57
 70
     1
102
RTVSPropertyOp58
 70
     1
102
RTVSPropertyOp59
 70
     1
102
RTVSPropertyOp60
 70
     1
102
RTVSPropertyOp61
 70
     1
102
RTVSPropertyOp62
 70
     1
  0
XRECORD
  5
F6D
102
{ACAD_REACTORS
330
F6C
102
}
330
F6C
100
AcDbXrecord
280
     1
102
RTVSPost2010Prop28
280
     0
102
RTVSPost2010PropOp28
 70
     1
102
RTVSPost2010Prop29
280
     1
102
RTVSPost2010PropOp29
 70
     1
102
RTVSPost2010Prop30
280
     1
102
RTVSPost2010PropOp30
 70
     1
102
RTVSPost2010Prop31
280
     0
102
RTVSPost2010PropOp31
 70
     1
102
RTVSPost2010Prop32
280
     0
102
RTVSPost2010PropOp32
 70
     1
102
RTVSPost2010Prop33
280
     0
102
RTVSPost2010PropOp33
 70
     1
102
RTVSPost2010Prop34
280
     0
102
RTVSPost2010PropOp34
 70
     1
102
RTVSPost2010Prop35
280
     0
102
RTVSPost2010PropOp35
 70
     1
102
RTVSPost2010Prop36
280
     0
102
RTVSPost2010PropOp36
 70
     1
102
RTVSPost2010Prop37
 90
       50
102
RTVSPost2010PropOp37
 70
     1
102
RTVSPost2010Prop38
140
0.0
102
RTVSPost2010PropOp38
 70
     1
102
RTVSPost2010Prop39
140
1.0
102
RTVSPost2010PropOp39
 70
     1
102
RTVSPost2010Prop40
 90
        0
102
RTVSPost2010PropOp40
 70
     1
102
RTVSPost2010Prop41ColorIndex
 90
       18
102
RTVSPost2010Prop41ColorRGB
 90
        0
102
RTVSPost2010PropOp41
 70
     1
102
RTVSPost2010Prop42
 90
       50
102
RTVSPost2010PropOp42
 70
     1
102
RTVSPost2010Prop43
 90
        3
102
RTVSPost2010PropOp43
 70
     1
102
RTVSPost2010Prop44ColorIndex
 90
        5
102
RTVSPost2010Prop44ColorRGB
 90
      255
102
RTVSPost2010PropOp44
 70
     1
102
RTVSPost2010Prop45
280
     0
102
RTVSPost2010PropOp45
 70
     1
102
RTVSPost2010Prop46
 90
       50
102
RTVSPost2010PropOp46
 70
     1
102
RTVSPost2010Prop47
 90
       50
102
RTVSPost2010PropOp47
 70
     1
102
RTVSPost2010Prop48
 90
       50
102
RTVSPost2010PropOp48
 70
     1
102
RTVSPost2010Prop49
280
     0
102
RTVSPost2010PropOp49
 70
     1
102
RTVSPost2010Prop50
 90
       50
102
RTVSPost2010PropOp50
 70
     1
102
RTVSPost2010Prop51ColorIndex
 90
      256
102
RTVSPost2010Prop51ColorRGB
 90
-16777216
102
RTVSPost2010PropOp51
 70
     0
102
RTVSPost2010Prop52
140
1.0
102
RTVSPost2010PropOp52
 70
     0
102
RTVSPost2010Prop53
 90
        2
102
RTVSPost2010PropOp53
 70
     1
102
RTVSPost2010Prop54
  1
strokes_ogs.tif
102
RTVSPost2010PropOp54
 70
     1
102
RTVSPost2010Prop55
280
     0
102
RTVSPost2010PropOp55
 70
     1
102
RTVSPost2010Prop56
140
1.0
102
RTVSPost2010PropOp56
 70
     1
102
RTVSPost2010Prop57
140
1.0
102
RTVSPost2010PropOp57
 70
     1
102
RTVSPropertyOp0
 70
     1
102
RTVSPropertyOp1
 70
     1
102
RTVSPropertyOp2
 70
     1
102
RTVSPropertyOp3
 70
     1
102
RTVSPropertyOp4
 70
     1
102
RTVSPropertyOp5
 70
     1
102
RTVSPropertyOp6
 70
     1
102
RTVSPropertyOp7
 70
     1
102
RTVSPropertyOp8
 70
     1
102
RTVSPropertyOp9
 70
     1
102
RTVSPropertyOp10
 70
     1
102
RTVSPropertyOp11
 70
     1
102
RTVSPropertyOp12
 70
     1
102
RTVSPropertyOp13
 70
     1
102
RTVSPropertyOp14
 70
     1
102
RTVSPropertyOp15
 70
     1
102
RTVSPropertyOp16
 70
     1
102
RTVSPropertyOp17
 70
     1
102
RTVSPropertyOp18
 70
     1
102
RTVSPropertyOp19
 70
     1
102
RTVSPropertyOp20
 70
     1
102
RTVSPropertyOp21
 70
     1
102
RTVSPropertyOp22
 70
     1
102
RTVSPropertyOp23
 70
     1
102
RTVSPropertyOp24
 70
     1
102
RTVSPropertyOp25
 70
     1
102
RTVSPropertyOp26
 70
     1
102
RTVSPropertyOp27
 70
     1
102
RTVSPropertyOp28
 70
     1
102
RTVSPropertyOp29
 70
     1
102
RTVSPropertyOp30
 70
     1
102
RTVSPropertyOp31
 70
     1
102
RTVSPropertyOp32
 70
     1
102
RTVSPropertyOp33
 70
     1
102
RTVSPropertyOp34
 70
     1
102
RTVSPropertyOp35
 70
     1
102
RTVSPropertyOp36
 70
     1
102
RTVSPropertyOp37
 70
     1
102
RTVSPropertyOp38
 70
     1
102
RTVSPropertyOp39
 70
     1
102
RTVSPropertyOp40
 70
     1
102
RTVSPropertyOp41
 70
     1
102
RTVSPropertyOp42
 70
     1
102
RTVSPropertyOp43
 70
     1
102
RTVSPropertyOp44
 70
     1
102
RTVSPropertyOp45
 70
     1
102
RTVSPropertyOp46
 70
     1
102
RTVSPropertyOp47
 70
     1
102
RTVSPropertyOp48
 70
     1
102
RTVSPropertyOp49
 70
     1
102
RTVSPropertyOp50
 70
     1
102
RTVSPropertyOp51
 70
     0
102
RTVSPropertyOp52
 70
     0
102
RTVSPropertyOp53
 70
     1
102
RTVSPropertyOp54
 70
     1
102
RTVSPropertyOp55
 70
     1
102
RTVSPropertyOp56
 70
     1
102
RTVSPropertyOp57
 70
     1
102
RTVSPropertyOp58
 70
     1
102
RTVSPropertyOp59
 70
     1
102
RTVSPropertyOp60
 70
     1
102
RTVSPropertyOp61
 70
     1
102
RTVSPropertyOp62
 70
     1
  0
XRECORD
  5
F71
102
{ACAD_REACTORS
330
F70
102
}
330
F70
100
AcDbXrecord
280
     1
102
RTVSPost2010Prop28
280
     0
102
RTVSPost2010PropOp28
 70
     1
102
RTVSPost2010Prop29
280
     1
102
RTVSPost2010PropOp29
 70
     1
102
RTVSPost2010Prop30
280
     1
102
RTVSPost2010PropOp30
 70
     1
102
RTVSPost2010Prop31
280
     0
102
RTVSPost2010PropOp31
 70
     1
102
RTVSPost2010Prop32
280
     0
102
RTVSPost2010PropOp32
 70
     1
102
RTVSPost2010Prop33
280
     0
102
RTVSPost2010PropOp33
 70
     1
102
RTVSPost2010Prop34
280
     0
102
RTVSPost2010PropOp34
 70
     1
102
RTVSPost2010Prop35
280
     0
102
RTVSPost2010PropOp35
 70
     1
102
RTVSPost2010Prop36
280
     0
102
RTVSPost2010PropOp36
 70
     1
102
RTVSPost2010Prop37
 90
       50
102
RTVSPost2010PropOp37
 70
     1
102
RTVSPost2010Prop38
140
0.0
102
RTVSPost2010PropOp38
 70
     1
102
RTVSPost2010Prop39
140
1.0
102
RTVSPost2010PropOp39
 70
     1
102
RTVSPost2010Prop40
 90
        0
102
RTVSPost2010PropOp40
 70
     1
102
RTVSPost2010Prop41ColorIndex
 90
       18
102
RTVSPost2010Prop41ColorRGB
 90
        0
102
RTVSPost2010PropOp41
 70
     1
102
RTVSPost2010Prop42
 90
       50
102
RTVSPost2010PropOp42
 70
     1
102
RTVSPost2010Prop43
 90
        3
102
RTVSPost2010PropOp43
 70
     1
102
RTVSPost2010Prop44ColorIndex
 90
        5
102
RTVSPost2010Prop44ColorRGB
 90
      255
102
RTVSPost2010PropOp44
 70
     1
102
RTVSPost2010Prop45
280
     0
102
RTVSPost2010PropOp45
 70
     1
102
RTVSPost2010Prop46
 90
       50
102
RTVSPost2010PropOp46
 70
     1
102
RTVSPost2010Prop47
 90
       50
102
RTVSPost2010PropOp47
 70
     1
102
RTVSPost2010Prop48
 90
       50
102
RTVSPost2010PropOp48
 70
     1
102
RTVSPost2010Prop49
280
     0
102
RTVSPost2010PropOp49
 70
     1
102
RTVSPost2010Prop50
 90
       50
102
RTVSPost2010PropOp50
 70
     1
102
RTVSPost2010Prop51ColorIndex
 90
      256
102
RTVSPost2010Prop51ColorRGB
 90
-16777216
102
RTVSPost2010PropOp51
 70
     0
102
RTVSPost2010Prop52
140
1.0
102
RTVSPost2010PropOp52
 70
     0
102
RTVSPost2010Prop53
 90
        2
102
RTVSPost2010PropOp53
 70
     1
102
RTVSPost2010Prop54
  1
strokes_ogs.tif
102
RTVSPost2010PropOp54
 70
     1
102
RTVSPost2010Prop55
280
     0
102
RTVSPost2010PropOp55
 70
     1
102
RTVSPost2010Prop56
140
1.0
102
RTVSPost2010PropOp56
 70
     1
102
RTVSPost2010Prop57
140
1.0
102
RTVSPost2010PropOp57
 70
     1
102
RTVSPropertyOp0
 70
     1
102
RTVSPropertyOp1
 70
     1
102
RTVSPropertyOp2
 70
     1
102
RTVSPropertyOp3
 70
     1
102
RTVSPropertyOp4
 70
     1
102
RTVSPropertyOp5
 70
     1
102
RTVSPropertyOp6
 70
     1
102
RTVSPropertyOp7
 70
     1
102
RTVSPropertyOp8
 70
     1
102
RTVSPropertyOp9
 70
     1
102
RTVSPropertyOp10
 70
     1
102
RTVSPropertyOp11
 70
     1
102
RTVSPropertyOp12
 70
     1
102
RTVSPropertyOp13
 70
     1
102
RTVSPropertyOp14
 70
     1
102
RTVSPropertyOp15
 70
     1
102
RTVSPropertyOp16
 70
     1
102
RTVSPropertyOp17
 70
     1
102
RTVSPropertyOp18
 70
     1
102
RTVSPropertyOp19
 70
     1
102
RTVSPropertyOp20
 70
     1
102
RTVSPropertyOp21
 70
     1
102
RTVSPropertyOp22
 70
     1
102
RTVSPropertyOp23
 70
     1
102
RTVSPropertyOp24
 70
     1
102
RTVSPropertyOp25
 70
     1
102
RTVSPropertyOp26
 70
     1
102
RTVSPropertyOp27
 70
     1
102
RTVSPropertyOp28
 70
     1
102
RTVSPropertyOp29
 70
     1
102
RTVSPropertyOp30
 70
     1
102
RTVSPropertyOp31
 70
     1
102
RTVSPropertyOp32
 70
     1
102
RTVSPropertyOp33
 70
     1
102
RTVSPropertyOp34
 70
     1
102
RTVSPropertyOp35
 70
     1
102
RTVSPropertyOp36
 70
     1
102
RTVSPropertyOp37
 70
     1
102
RTVSPropertyOp38
 70
     1
102
RTVSPropertyOp39
 70
     1
102
RTVSPropertyOp40
 70
     1
102
RTVSPropertyOp41
 70
     1
102
RTVSPropertyOp42
 70
     1
102
RTVSPropertyOp43
 70
     1
102
RTVSPropertyOp44
 70
     1
102
RTVSPropertyOp45
 70
     1
102
RTVSPropertyOp46
 70
     1
102
RTVSPropertyOp47
 70
     1
102
RTVSPropertyOp48
 70
     1
102
RTVSPropertyOp49
 70
     1
102
RTVSPropertyOp50
 70
     1
102
RTVSPropertyOp51
 70
     0
102
RTVSPropertyOp52
 70
     0
102
RTVSPropertyOp53
 70
     1
102
RTVSPropertyOp54
 70
     1
102
RTVSPropertyOp55
 70
     1
102
RTVSPropertyOp56
 70
     1
102
RTVSPropertyOp57
 70
     1
102
RTVSPropertyOp58
 70
     1
102
RTVSPropertyOp59
 70
     1
102
RTVSPropertyOp60
 70
     1
102
RTVSPropertyOp61
 70
     1
102
RTVSPropertyOp62
 70
     1
  0
XRECORD
  5
F8B
102
{ACAD_REACTORS
330
F8A
102
}
330
F8A
100
AcDbXrecord
280
     1
102
RTVSPost2010Prop28
280
     0
102
RTVSPost2010PropOp28
 70
     0
102
RTVSPost2010Prop29
280
     1
102
RTVSPost2010PropOp29
 70
     0
102
RTVSPost2010Prop30
280
     1
102
RTVSPost2010PropOp30
 70
     0
102
RTVSPost2010Prop31
280
     0
102
RTVSPost2010PropOp31
 70
     0
102
RTVSPost2010Prop32
280
     0
102
RTVSPost2010PropOp32
 70
     0
102
RTVSPost2010Prop33
280
     0
102
RTVSPost2010PropOp33
 70
     0
102
RTVSPost2010Prop34
280
     0
102
RTVSPost2010PropOp34
 70
     0
102
RTVSPost2010Prop35
280
     0
102
RTVSPost2010PropOp35
 70
     0
102
RTVSPost2010Prop36
280
     0
102
RTVSPost2010PropOp36
 70
     0
102
RTVSPost2010Prop37
 90
       50
102
RTVSPost2010PropOp37
 70
     0
102
RTVSPost2010Prop38
140
0.0
102
RTVSPost2010PropOp38
 70
     0
102
RTVSPost2010Prop39
140
1.0
102
RTVSPost2010PropOp39
 70
     0
102
RTVSPost2010Prop40
 90
        0
102
RTVSPost2010PropOp40
 70
     0
102
RTVSPost2010Prop41ColorIndex
 90
       18
102
RTVSPost2010Prop41ColorRGB
 90
        0
102
RTVSPost2010PropOp41
 70
     0
102
RTVSPost2010Prop42
 90
       50
102
RTVSPost2010PropOp42
 70
     0
102
RTVSPost2010Prop43
 90
        3
102
RTVSPost2010PropOp43
 70
     0
102
RTVSPost2010Prop44ColorIndex
 90
        5
102
RTVSPost2010Prop44ColorRGB
 90
      255
102
RTVSPost2010PropOp44
 70
     0
102
RTVSPost2010Prop45
280
     0
102
RTVSPost2010PropOp45
 70
     0
102
RTVSPost2010Prop46
 90
       50
102
RTVSPost2010PropOp46
 70
     0
102
RTVSPost2010Prop47
 90
       50
102
RTVSPost2010PropOp47
 70
     0
102
RTVSPost2010Prop48
 90
       50
102
RTVSPost2010PropOp48
 70
     0
102
RTVSPost2010Prop49
280
     0
102
RTVSPost2010PropOp49
 70
     0
102
RTVSPost2010Prop50
 90
       50
102
RTVSPost2010PropOp50
 70
     0
102
RTVSPost2010Prop51ColorIndex
 90
      256
102
RTVSPost2010Prop51ColorRGB
 90
-16777216
102
RTVSPost2010PropOp51
 70
     0
102
RTVSPost2010Prop52
140
1.0
102
RTVSPost2010PropOp52
 70
     0
102
RTVSPost2010Prop53
 90
        2
102
RTVSPost2010PropOp53
 70
     0
102
RTVSPost2010Prop54
  1
strokes_ogs.tif
102
RTVSPost2010PropOp54
 70
     0
102
RTVSPost2010Prop55
280
     0
102
RTVSPost2010PropOp55
 70
     0
102
RTVSPost2010Prop56
140
1.0
102
RTVSPost2010PropOp56
 70
     0
102
RTVSPost2010Prop57
140
1.0
102
RTVSPost2010PropOp57
 70
     0
102
RTVSPropertyOp0
 70
     0
102
RTVSPropertyOp1
 70
     0
102
RTVSPropertyOp2
 70
     0
102
RTVSPropertyOp3
 70
     0
102
RTVSPropertyOp4
 70
     0
102
RTVSPropertyOp5
 70
     0
102
RTVSPropertyOp6
 70
     0
102
RTVSPropertyOp7
 70
     0
102
RTVSPropertyOp8
 70
     0
102
RTVSPropertyOp9
 70
     0
102
RTVSPropertyOp10
 70
     0
102
RTVSPropertyOp11
 70
     0
102
RTVSPropertyOp12
 70
     0
102
RTVSPropertyOp13
 70
     0
102
RTVSPropertyOp14
 70
     2
102
RTVSPropertyOp15
 70
     0
102
RTVSPropertyOp16
 70
     0
102
RTVSPropertyOp17
 70
     0
102
RTVSPropertyOp18
 70
     0
102
RTVSPropertyOp19
 70
     0
102
RTVSPropertyOp20
 70
     0
102
RTVSPropertyOp21
 70
     0
102
RTVSPropertyOp22
 70
     0
102
RTVSPropertyOp23
 70
     0
102
RTVSPropertyOp24
 70
     0
102
RTVSPropertyOp25
 70
     0
102
RTVSPropertyOp26
 70
     0
102
RTVSPropertyOp27
 70
     0
102
RTVSPropertyOp28
 70
     0
102
RTVSPropertyOp29
 70
     0
102
RTVSPropertyOp30
 70
     0
102
RTVSPropertyOp31
 70
     0
102
RTVSPropertyOp32
 70
     0
102
RTVSPropertyOp33
 70
     0
102
RTVSPropertyOp34
 70
     0
102
RTVSPropertyOp35
 70
     0
102
RTVSPropertyOp36
 70
     0
102
RTVSPropertyOp37
 70
     0
102
RTVSPropertyOp38
 70
     0
102
RTVSPropertyOp39
 70
     0
102
RTVSPropertyOp40
 70
     0
102
RTVSPropertyOp41
 70
     0
102
RTVSPropertyOp42
 70
     0
102
RTVSPropertyOp43
 70
     0
102
RTVSPropertyOp44
 70
     0
102
RTVSPropertyOp45
 70
     0
102
RTVSPropertyOp46
 70
     0
102
RTVSPropertyOp47
 70
     0
102
RTVSPropertyOp48
 70
     0
102
RTVSPropertyOp49
 70
     0
102
RTVSPropertyOp50
 70
     0
102
RTVSPropertyOp51
 70
     0
102
RTVSPropertyOp52
 70
     0
102
RTVSPropertyOp53
 70
     0
102
RTVSPropertyOp54
 70
     0
102
RTVSPropertyOp55
 70
     0
102
RTVSPropertyOp56
 70
     0
102
RTVSPropertyOp57
 70
     0
102
RTVSPropertyOp58
 70
     0
102
RTVSPropertyOp59
 70
     0
102
RTVSPropertyOp60
 70
     0
102
RTVSPropertyOp61
 70
     0
102
RTVSPropertyOp62
 70
     0
  0
XRECORD
  5
F79
102
{ACAD_REACTORS
330
F78
102
}
330
F78
100
AcDbXrecord
280
     1
102
RTVSPost2010Prop28
280
     0
102
RTVSPost2010PropOp28
 70
     1
102
RTVSPost2010Prop29
280
     1
102
RTVSPost2010PropOp29
 70
     1
102
RTVSPost2010Prop30
280
     1
102
RTVSPost2010PropOp30
 70
     1
102
RTVSPost2010Prop31
280
     0
102
RTVSPost2010PropOp31
 70
     1
102
RTVSPost2010Prop32
280
     0
102
RTVSPost2010PropOp32
 70
     1
102
RTVSPost2010Prop33
280
     0
102
RTVSPost2010PropOp33
 70
     1
102
RTVSPost2010Prop34
280
     0
102
RTVSPost2010PropOp34
 70
     1
102
RTVSPost2010Prop35
280
     0
102
RTVSPost2010PropOp35
 70
     1
102
RTVSPost2010Prop36
280
     0
102
RTVSPost2010PropOp36
 70
     1
102
RTVSPost2010Prop37
 90
       50
102
RTVSPost2010PropOp37
 70
     1
102
RTVSPost2010Prop38
140
0.0
102
RTVSPost2010PropOp38
 70
     1
102
RTVSPost2010Prop39
140
1.0
102
RTVSPost2010PropOp39
 70
     1
102
RTVSPost2010Prop40
 90
        0
102
RTVSPost2010PropOp40
 70
     1
102
RTVSPost2010Prop41ColorIndex
 90
       18
102
RTVSPost2010Prop41ColorRGB
 90
        0
102
RTVSPost2010PropOp41
 70
     1
102
RTVSPost2010Prop42
 90
       50
102
RTVSPost2010PropOp42
 70
     1
102
RTVSPost2010Prop43
 90
        3
102
RTVSPost2010PropOp43
 70
     1
102
RTVSPost2010Prop44ColorIndex
 90
        5
102
RTVSPost2010Prop44ColorRGB
 90
      255
102
RTVSPost2010PropOp44
 70
     1
102
RTVSPost2010Prop45
280
     0
102
RTVSPost2010PropOp45
 70
     1
102
RTVSPost2010Prop46
 90
       50
102
RTVSPost2010PropOp46
 70
     1
102
RTVSPost2010Prop47
 90
       50
102
RTVSPost2010PropOp47
 70
     1
102
RTVSPost2010Prop48
 90
       50
102
RTVSPost2010PropOp48
 70
     1
102
RTVSPost2010Prop49
280
     0
102
RTVSPost2010PropOp49
 70
     1
102
RTVSPost2010Prop50
 90
       50
102
RTVSPost2010PropOp50
 70
     1
102
RTVSPost2010Prop51ColorIndex
 90
      256
102
RTVSPost2010Prop51ColorRGB
 90
-16777216
102
RTVSPost2010PropOp51
 70
     0
102
RTVSPost2010Prop52
140
1.0
102
RTVSPost2010PropOp52
 70
     0
102
RTVSPost2010Prop53
 90
        2
102
RTVSPost2010PropOp53
 70
     1
102
RTVSPost2010Prop54
  1
strokes_ogs.tif
102
RTVSPost2010PropOp54
 70
     1
102
RTVSPost2010Prop55
280
     0
102
RTVSPost2010PropOp55
 70
     1
102
RTVSPost2010Prop56
140
1.0
102
RTVSPost2010PropOp56
 70
     1
102
RTVSPost2010Prop57
140
1.0
102
RTVSPost2010PropOp57
 70
     1
102
RTVSPropertyOp0
 70
     1
102
RTVSPropertyOp1
 70
     1
102
RTVSPropertyOp2
 70
     1
102
RTVSPropertyOp3
 70
     1
102
RTVSPropertyOp4
 70
     1
102
RTVSPropertyOp5
 70
     1
102
RTVSPropertyOp6
 70
     1
102
RTVSPropertyOp7
 70
     1
102
RTVSPropertyOp8
 70
     1
102
RTVSPropertyOp9
 70
     1
102
RTVSPropertyOp10
 70
     1
102
RTVSPropertyOp11
 70
     1
102
RTVSPropertyOp12
 70
     1
102
RTVSPropertyOp13
 70
     1
102
RTVSPropertyOp14
 70
     1
102
RTVSPropertyOp15
 70
     1
102
RTVSPropertyOp16
 70
     1
102
RTVSPropertyOp17
 70
     1
102
RTVSPropertyOp18
 70
     1
102
RTVSPropertyOp19
 70
     1
102
RTVSPropertyOp20
 70
     1
102
RTVSPropertyOp21
 70
     1
102
RTVSPropertyOp22
 70
     1
102
RTVSPropertyOp23
 70
     1
102
RTVSPropertyOp24
 70
     1
102
RTVSPropertyOp25
 70
     1
102
RTVSPropertyOp26
 70
     1
102
RTVSPropertyOp27
 70
     1
102
RTVSPropertyOp28
 70
     1
102
RTVSPropertyOp29
 70
     1
102
RTVSPropertyOp30
 70
     1
102
RTVSPropertyOp31
 70
     1
102
RTVSPropertyOp32
 70
     1
102
RTVSPropertyOp33
 70
     1
102
RTVSPropertyOp34
 70
     1
102
RTVSPropertyOp35
 70
     1
102
RTVSPropertyOp36
 70
     1
102
RTVSPropertyOp37
 70
     1
102
RTVSPropertyOp38
 70
     1
102
RTVSPropertyOp39
 70
     1
102
RTVSPropertyOp40
 70
     1
102
RTVSPropertyOp41
 70
     1
102
RTVSPropertyOp42
 70
     1
102
RTVSPropertyOp43
 70
     1
102
RTVSPropertyOp44
 70
     1
102
RTVSPropertyOp45
 70
     1
102
RTVSPropertyOp46
 70
     1
102
RTVSPropertyOp47
 70
     1
102
RTVSPropertyOp48
 70
     1
102
RTVSPropertyOp49
 70
     1
102
RTVSPropertyOp50
 70
     1
102
RTVSPropertyOp51
 70
     0
102
RTVSPropertyOp52
 70
     0
102
RTVSPropertyOp53
 70
     1
102
RTVSPropertyOp54
 70
     1
102
RTVSPropertyOp55
 70
     1
102
RTVSPropertyOp56
 70
     1
102
RTVSPropertyOp57
 70
     1
102
RTVSPropertyOp58
 70
     1
102
RTVSPropertyOp59
 70
     1
102
RTVSPropertyOp60
 70
     1
102
RTVSPropertyOp61
 70
     1
102
RTVSPropertyOp62
 70
     1
  0
XRECORD
  5
F5D
102
{ACAD_REACTORS
330
F5C
102
}
330
F5C
100
AcDbXrecord
280
     1
102
RTVSPost2010Prop28
280
     0
102
RTVSPost2010PropOp28
 70
     1
102
RTVSPost2010Prop29
280
     1
102
RTVSPost2010PropOp29
 70
     1
102
RTVSPost2010Prop30
280
     1
102
RTVSPost2010PropOp30
 70
     1
102
RTVSPost2010Prop31
280
     0
102
RTVSPost2010PropOp31
 70
     1
102
RTVSPost2010Prop32
280
     0
102
RTVSPost2010PropOp32
 70
     1
102
RTVSPost2010Prop33
280
     0
102
RTVSPost2010PropOp33
 70
     1
102
RTVSPost2010Prop34
280
     0
102
RTVSPost2010PropOp34
 70
     1
102
RTVSPost2010Prop35
280
     0
102
RTVSPost2010PropOp35
 70
     1
102
RTVSPost2010Prop36
280
     0
102
RTVSPost2010PropOp36
 70
     1
102
RTVSPost2010Prop37
 90
       50
102
RTVSPost2010PropOp37
 70
     1
102
RTVSPost2010Prop38
140
0.0
102
RTVSPost2010PropOp38
 70
     1
102
RTVSPost2010Prop39
140
1.0
102
RTVSPost2010PropOp39
 70
     1
102
RTVSPost2010Prop40
 90
        0
102
RTVSPost2010PropOp40
 70
     1
102
RTVSPost2010Prop41ColorIndex
 90
       18
102
RTVSPost2010Prop41ColorRGB
 90
        0
102
RTVSPost2010PropOp41
 70
     1
102
RTVSPost2010Prop42
 90
       50
102
RTVSPost2010PropOp42
 70
     1
102
RTVSPost2010Prop43
 90
        3
102
RTVSPost2010PropOp43
 70
     1
102
RTVSPost2010Prop44ColorIndex
 90
        5
102
RTVSPost2010Prop44ColorRGB
 90
      255
102
RTVSPost2010PropOp44
 70
     1
102
RTVSPost2010Prop45
280
     0
102
RTVSPost2010PropOp45
 70
     1
102
RTVSPost2010Prop46
 90
       50
102
RTVSPost2010PropOp46
 70
     1
102
RTVSPost2010Prop47
 90
       50
102
RTVSPost2010PropOp47
 70
     1
102
RTVSPost2010Prop48
 90
       50
102
RTVSPost2010PropOp48
 70
     1
102
RTVSPost2010Prop49
280
     0
102
RTVSPost2010PropOp49
 70
     1
102
RTVSPost2010Prop50
 90
       50
102
RTVSPost2010PropOp50
 70
     1
102
RTVSPost2010Prop51ColorIndex
 90
      256
102
RTVSPost2010Prop51ColorRGB
 90
-16777216
102
RTVSPost2010PropOp51
 70
     0
102
RTVSPost2010Prop52
140
1.0
102
RTVSPost2010PropOp52
 70
     0
102
RTVSPost2010Prop53
 90
        2
102
RTVSPost2010PropOp53
 70
     1
102
RTVSPost2010Prop54
  1
strokes_ogs.tif
102
RTVSPost2010PropOp54
 70
     1
102
RTVSPost2010Prop55
280
     0
102
RTVSPost2010PropOp55
 70
     1
102
RTVSPost2010Prop56
140
1.0
102
RTVSPost2010PropOp56
 70
     1
102
RTVSPost2010Prop57
140
1.0
102
RTVSPost2010PropOp57
 70
     1
102
RTVSPropertyOp0
 70
     1
102
RTVSPropertyOp1
 70
     1
102
RTVSPropertyOp2
 70
     1
102
RTVSPropertyOp3
 70
     1
102
RTVSPropertyOp4
 70
     1
102
RTVSPropertyOp5
 70
     1
102
RTVSPropertyOp6
 70
     1
102
RTVSPropertyOp7
 70
     1
102
RTVSPropertyOp8
 70
     1
102
RTVSPropertyOp9
 70
     1
102
RTVSPropertyOp10
 70
     1
102
RTVSPropertyOp11
 70
     1
102
RTVSPropertyOp12
 70
     1
102
RTVSPropertyOp13
 70
     1
102
RTVSPropertyOp14
 70
     1
102
RTVSPropertyOp15
 70
     1
102
RTVSPropertyOp16
 70
     1
102
RTVSPropertyOp17
 70
     1
102
RTVSPropertyOp18
 70
     1
102
RTVSPropertyOp19
 70
     1
102
RTVSPropertyOp20
 70
     1
102
RTVSPropertyOp21
 70
     1
102
RTVSPropertyOp22
 70
     1
102
RTVSPropertyOp23
 70
     1
102
RTVSPropertyOp24
 70
     1
102
RTVSPropertyOp25
 70
     1
102
RTVSPropertyOp26
 70
     1
102
RTVSPropertyOp27
 70
     1
102
RTVSPropertyOp28
 70
     1
102
RTVSPropertyOp29
 70
     1
102
RTVSPropertyOp30
 70
     1
102
RTVSPropertyOp31
 70
     1
102
RTVSPropertyOp32
 70
     1
102
RTVSPropertyOp33
 70
     1
102
RTVSPropertyOp34
 70
     1
102
RTVSPropertyOp35
 70
     1
102
RTVSPropertyOp36
 70
     1
102
RTVSPropertyOp37
 70
     1
102
RTVSPropertyOp38
 70
     1
102
RTVSPropertyOp39
 70
     1
102
RTVSPropertyOp40
 70
     1
102
RTVSPropertyOp41
 70
     1
102
RTVSPropertyOp42
 70
     1
102
RTVSPropertyOp43
 70
     1
102
RTVSPropertyOp44
 70
     1
102
RTVSPropertyOp45
 70
     1
102
RTVSPropertyOp46
 70
     1
102
RTVSPropertyOp47
 70
     1
102
RTVSPropertyOp48
 70
     1
102
RTVSPropertyOp49
 70
     1
102
RTVSPropertyOp50
 70
     1
102
RTVSPropertyOp51
 70
     0
102
RTVSPropertyOp52
 70
     0
102
RTVSPropertyOp53
 70
     1
102
RTVSPropertyOp54
 70
     1
102
RTVSPropertyOp55
 70
     1
102
RTVSPropertyOp56
 70
     1
102
RTVSPropertyOp57
 70
     1
102
RTVSPropertyOp58
 70
     1
102
RTVSPropertyOp59
 70
     1
102
RTVSPropertyOp60
 70
     1
102
RTVSPropertyOp61
 70
     1
102
RTVSPropertyOp62
 70
     1
  0
XRECORD
  5
F5F
102
{ACAD_REACTORS
330
F5E
102
}
330
F5E
100
AcDbXrecord
280
     1
102
RTVSPost2010Prop28
280
     0
102
RTVSPost2010PropOp28
 70
     1
102
RTVSPost2010Prop29
280
     1
102
RTVSPost2010PropOp29
 70
     1
102
RTVSPost2010Prop30
280
     1
102
RTVSPost2010PropOp30
 70
     1
102
RTVSPost2010Prop31
280
     0
102
RTVSPost2010PropOp31
 70
     1
102
RTVSPost2010Prop32
280
     0
102
RTVSPost2010PropOp32
 70
     1
102
RTVSPost2010Prop33
280
     0
102
RTVSPost2010PropOp33
 70
     1
102
RTVSPost2010Prop34
280
     0
102
RTVSPost2010PropOp34
 70
     1
102
RTVSPost2010Prop35
280
     0
102
RTVSPost2010PropOp35
 70
     1
102
RTVSPost2010Prop36
280
     0
102
RTVSPost2010PropOp36
 70
     1
102
RTVSPost2010Prop37
 90
       50
102
RTVSPost2010PropOp37
 70
     1
102
RTVSPost2010Prop38
140
0.0
102
RTVSPost2010PropOp38
 70
     1
102
RTVSPost2010Prop39
140
1.0
102
RTVSPost2010PropOp39
 70
     1
102
RTVSPost2010Prop40
 90
        0
102
RTVSPost2010PropOp40
 70
     1
102
RTVSPost2010Prop41ColorIndex
 90
       18
102
RTVSPost2010Prop41ColorRGB
 90
        0
102
RTVSPost2010PropOp41
 70
     1
102
RTVSPost2010Prop42
 90
       50
102
RTVSPost2010PropOp42
 70
     1
102
RTVSPost2010Prop43
 90
        3
102
RTVSPost2010PropOp43
 70
     1
102
RTVSPost2010Prop44ColorIndex
 90
        5
102
RTVSPost2010Prop44ColorRGB
 90
      255
102
RTVSPost2010PropOp44
 70
     1
102
RTVSPost2010Prop45
280
     0
102
RTVSPost2010PropOp45
 70
     1
102
RTVSPost2010Prop46
 90
       50
102
RTVSPost2010PropOp46
 70
     1
102
RTVSPost2010Prop47
 90
       50
102
RTVSPost2010PropOp47
 70
     1
102
RTVSPost2010Prop48
 90
       50
102
RTVSPost2010PropOp48
 70
     1
102
RTVSPost2010Prop49
280
     0
102
RTVSPost2010PropOp49
 70
     1
102
RTVSPost2010Prop50
 90
       50
102
RTVSPost2010PropOp50
 70
     1
102
RTVSPost2010Prop51ColorIndex
 90
      256
102
RTVSPost2010Prop51ColorRGB
 90
-16777216
102
RTVSPost2010PropOp51
 70
     0
102
RTVSPost2010Prop52
140
1.0
102
RTVSPost2010PropOp52
 70
     0
102
RTVSPost2010Prop53
 90
        2
102
RTVSPost2010PropOp53
 70
     1
102
RTVSPost2010Prop54
  1
strokes_ogs.tif
102
RTVSPost2010PropOp54
 70
     1
102
RTVSPost2010Prop55
280
     0
102
RTVSPost2010PropOp55
 70
     1
102
RTVSPost2010Prop56
140
1.0
102
RTVSPost2010PropOp56
 70
     1
102
RTVSPost2010Prop57
140
1.0
102
RTVSPost2010PropOp57
 70
     1
102
RTVSPropertyOp0
 70
     1
102
RTVSPropertyOp1
 70
     1
102
RTVSPropertyOp2
 70
     1
102
RTVSPropertyOp3
 70
     1
102
RTVSPropertyOp4
 70
     1
102
RTVSPropertyOp5
 70
     1
102
RTVSPropertyOp6
 70
     1
102
RTVSPropertyOp7
 70
     1
102
RTVSPropertyOp8
 70
     1
102
RTVSPropertyOp9
 70
     1
102
RTVSPropertyOp10
 70
     1
102
RTVSPropertyOp11
 70
     1
102
RTVSPropertyOp12
 70
     1
102
RTVSPropertyOp13
 70
     1
102
RTVSPropertyOp14
 70
     1
102
RTVSPropertyOp15
 70
     1
102
RTVSPropertyOp16
 70
     1
102
RTVSPropertyOp17
 70
     1
102
RTVSPropertyOp18
 70
     1
102
RTVSPropertyOp19
 70
     1
102
RTVSPropertyOp20
 70
     1
102
RTVSPropertyOp21
 70
     1
102
RTVSPropertyOp22
 70
     1
102
RTVSPropertyOp23
 70
     1
102
RTVSPropertyOp24
 70
     1
102
RTVSPropertyOp25
 70
     1
102
RTVSPropertyOp26
 70
     1
102
RTVSPropertyOp27
 70
     1
102
RTVSPropertyOp28
 70
     1
102
RTVSPropertyOp29
 70
     1
102
RTVSPropertyOp30
 70
     1
102
RTVSPropertyOp31
 70
     1
102
RTVSPropertyOp32
 70
     1
102
RTVSPropertyOp33
 70
     1
102
RTVSPropertyOp34
 70
     1
102
RTVSPropertyOp35
 70
     1
102
RTVSPropertyOp36
 70
     1
102
RTVSPropertyOp37
 70
     1
102
RTVSPropertyOp38
 70
     1
102
RTVSPropertyOp39
 70
     1
102
RTVSPropertyOp40
 70
     1
102
RTVSPropertyOp41
 70
     1
102
RTVSPropertyOp42
 70
     1
102
RTVSPropertyOp43
 70
     1
102
RTVSPropertyOp44
 70
     1
102
RTVSPropertyOp45
 70
     1
102
RTVSPropertyOp46
 70
     1
102
RTVSPropertyOp47
 70
     1
102
RTVSPropertyOp48
 70
     1
102
RTVSPropertyOp49
 70
     1
102
RTVSPropertyOp50
 70
     1
102
RTVSPropertyOp51
 70
     0
102
RTVSPropertyOp52
 70
     0
102
RTVSPropertyOp53
 70
     1
102
RTVSPropertyOp54
 70
     1
102
RTVSPropertyOp55
 70
     1
102
RTVSPropertyOp56
 70
     1
102
RTVSPropertyOp57
 70
     1
102
RTVSPropertyOp58
 70
     1
102
RTVSPropertyOp59
 70
     1
102
RTVSPropertyOp60
 70
     1
102
RTVSPropertyOp61
 70
     1
102
RTVSPropertyOp62
 70
     1
  0
XRECORD
  5
F61
102
{ACAD_REACTORS
330
F60
102
}
330
F60
100
AcDbXrecord
280
     1
102
RTVSPost2010Prop28
280
     0
102
RTVSPost2010PropOp28
 70
     1
102
RTVSPost2010Prop29
280
     1
102
RTVSPost2010PropOp29
 70
     1
102
RTVSPost2010Prop30
280
     1
102
RTVSPost2010PropOp30
 70
     1
102
RTVSPost2010Prop31
280
     0
102
RTVSPost2010PropOp31
 70
     1
102
RTVSPost2010Prop32
280
     0
102
RTVSPost2010PropOp32
 70
     1
102
RTVSPost2010Prop33
280
     0
102
RTVSPost2010PropOp33
 70
     1
102
RTVSPost2010Prop34
280
     0
102
RTVSPost2010PropOp34
 70
     1
102
RTVSPost2010Prop35
280
     0
102
RTVSPost2010PropOp35
 70
     1
102
RTVSPost2010Prop36
280
     0
102
RTVSPost2010PropOp36
 70
     1
102
RTVSPost2010Prop37
 90
       50
102
RTVSPost2010PropOp37
 70
     1
102
RTVSPost2010Prop38
140
0.0
102
RTVSPost2010PropOp38
 70
     1
102
RTVSPost2010Prop39
140
1.0
102
RTVSPost2010PropOp39
 70
     1
102
RTVSPost2010Prop40
 90
        0
102
RTVSPost2010PropOp40
 70
     1
102
RTVSPost2010Prop41ColorIndex
 90
       18
102
RTVSPost2010Prop41ColorRGB
 90
        0
102
RTVSPost2010PropOp41
 70
     1
102
RTVSPost2010Prop42
 90
       50
102
RTVSPost2010PropOp42
 70
     1
102
RTVSPost2010Prop43
 90
        3
102
RTVSPost2010PropOp43
 70
     1
102
RTVSPost2010Prop44ColorIndex
 90
        5
102
RTVSPost2010Prop44ColorRGB
 90
      255
102
RTVSPost2010PropOp44
 70
     1
102
RTVSPost2010Prop45
280
     0
102
RTVSPost2010PropOp45
 70
     1
102
RTVSPost2010Prop46
 90
       50
102
RTVSPost2010PropOp46
 70
     1
102
RTVSPost2010Prop47
 90
       50
102
RTVSPost2010PropOp47
 70
     1
102
RTVSPost2010Prop48
 90
       50
102
RTVSPost2010PropOp48
 70
     1
102
RTVSPost2010Prop49
280
     0
102
RTVSPost2010PropOp49
 70
     1
102
RTVSPost2010Prop50
 90
       50
102
RTVSPost2010PropOp50
 70
     1
102
RTVSPost2010Prop51ColorIndex
 90
      256
102
RTVSPost2010Prop51ColorRGB
 90
-16777216
102
RTVSPost2010PropOp51
 70
     0
102
RTVSPost2010Prop52
140
1.0
102
RTVSPost2010PropOp52
 70
     0
102
RTVSPost2010Prop53
 90
        2
102
RTVSPost2010PropOp53
 70
     1
102
RTVSPost2010Prop54
  1
strokes_ogs.tif
102
RTVSPost2010PropOp54
 70
     1
102
RTVSPost2010Prop55
280
     0
102
RTVSPost2010PropOp55
 70
     1
102
RTVSPost2010Prop56
140
1.0
102
RTVSPost2010PropOp56
 70
     1
102
RTVSPost2010Prop57
140
1.0
102
RTVSPost2010PropOp57
 70
     1
102
RTVSPropertyOp0
 70
     1
102
RTVSPropertyOp1
 70
     1
102
RTVSPropertyOp2
 70
     1
102
RTVSPropertyOp3
 70
     1
102
RTVSPropertyOp4
 70
     1
102
RTVSPropertyOp5
 70
     1
102
RTVSPropertyOp6
 70
     1
102
RTVSPropertyOp7
 70
     1
102
RTVSPropertyOp8
 70
     1
102
RTVSPropertyOp9
 70
     1
102
RTVSPropertyOp10
 70
     1
102
RTVSPropertyOp11
 70
     1
102
RTVSPropertyOp12
 70
     1
102
RTVSPropertyOp13
 70
     1
102
RTVSPropertyOp14
 70
     1
102
RTVSPropertyOp15
 70
     1
102
RTVSPropertyOp16
 70
     1
102
RTVSPropertyOp17
 70
     1
102
RTVSPropertyOp18
 70
     1
102
RTVSPropertyOp19
 70
     1
102
RTVSPropertyOp20
 70
     1
102
RTVSPropertyOp21
 70
     1
102
RTVSPropertyOp22
 70
     1
102
RTVSPropertyOp23
 70
     1
102
RTVSPropertyOp24
 70
     1
102
RTVSPropertyOp25
 70
     1
102
RTVSPropertyOp26
 70
     1
102
RTVSPropertyOp27
 70
     1
102
RTVSPropertyOp28
 70
     1
102
RTVSPropertyOp29
 70
     1
102
RTVSPropertyOp30
 70
     1
102
RTVSPropertyOp31
 70
     1
102
RTVSPropertyOp32
 70
     1
102
RTVSPropertyOp33
 70
     1
102
RTVSPropertyOp34
 70
     1
102
RTVSPropertyOp35
 70
     1
102
RTVSPropertyOp36
 70
     1
102
RTVSPropertyOp37
 70
     1
102
RTVSPropertyOp38
 70
     1
102
RTVSPropertyOp39
 70
     1
102
RTVSPropertyOp40
 70
     1
102
RTVSPropertyOp41
 70
     1
102
RTVSPropertyOp42
 70
     1
102
RTVSPropertyOp43
 70
     1
102
RTVSPropertyOp44
 70
     1
102
RTVSPropertyOp45
 70
     1
102
RTVSPropertyOp46
 70
     1
102
RTVSPropertyOp47
 70
     1
102
RTVSPropertyOp48
 70
     1
102
RTVSPropertyOp49
 70
     1
102
RTVSPropertyOp50
 70
     1
102
RTVSPropertyOp51
 70
     0
102
RTVSPropertyOp52
 70
     0
102
RTVSPropertyOp53
 70
     1
102
RTVSPropertyOp54
 70
     1
102
RTVSPropertyOp55
 70
     1
102
RTVSPropertyOp56
 70
     1
102
RTVSPropertyOp57
 70
     1
102
RTVSPropertyOp58
 70
     1
102
RTVSPropertyOp59
 70
     1
102
RTVSPropertyOp60
 70
     1
102
RTVSPropertyOp61
 70
     1
102
RTVSPropertyOp62
 70
     1
  0
XRECORD
  5
F63
102
{ACAD_REACTORS
330
F62
102
}
330
F62
100
AcDbXrecord
280
     1
102
RTVSPost2010Prop28
280
     0
102
RTVSPost2010PropOp28
 70
     1
102
RTVSPost2010Prop29
280
     1
102
RTVSPost2010PropOp29
 70
     1
102
RTVSPost2010Prop30
280
     1
102
RTVSPost2010PropOp30
 70
     1
102
RTVSPost2010Prop31
280
     0
102
RTVSPost2010PropOp31
 70
     1
102
RTVSPost2010Prop32
280
     0
102
RTVSPost2010PropOp32
 70
     1
102
RTVSPost2010Prop33
280
     0
102
RTVSPost2010PropOp33
 70
     1
102
RTVSPost2010Prop34
280
     0
102
RTVSPost2010PropOp34
 70
     1
102
RTVSPost2010Prop35
280
     0
102
RTVSPost2010PropOp35
 70
     1
102
RTVSPost2010Prop36
280
     0
102
RTVSPost2010PropOp36
 70
     1
102
RTVSPost2010Prop37
 90
       50
102
RTVSPost2010PropOp37
 70
     1
102
RTVSPost2010Prop38
140
0.0
102
RTVSPost2010PropOp38
 70
     1
102
RTVSPost2010Prop39
140
1.0
102
RTVSPost2010PropOp39
 70
     1
102
RTVSPost2010Prop40
 90
        0
102
RTVSPost2010PropOp40
 70
     1
102
RTVSPost2010Prop41ColorIndex
 90
       18
102
RTVSPost2010Prop41ColorRGB
 90
        0
102
RTVSPost2010PropOp41
 70
     1
102
RTVSPost2010Prop42
 90
       50
102
RTVSPost2010PropOp42
 70
     1
102
RTVSPost2010Prop43
 90
        3
102
RTVSPost2010PropOp43
 70
     1
102
RTVSPost2010Prop44ColorIndex
 90
        5
102
RTVSPost2010Prop44ColorRGB
 90
      255
102
RTVSPost2010PropOp44
 70
     1
102
RTVSPost2010Prop45
280
     0
102
RTVSPost2010PropOp45
 70
     1
102
RTVSPost2010Prop46
 90
       50
102
RTVSPost2010PropOp46
 70
     1
102
RTVSPost2010Prop47
 90
       50
102
RTVSPost2010PropOp47
 70
     1
102
RTVSPost2010Prop48
 90
       50
102
RTVSPost2010PropOp48
 70
     1
102
RTVSPost2010Prop49
280
     0
102
RTVSPost2010PropOp49
 70
     1
102
RTVSPost2010Prop50
 90
       50
102
RTVSPost2010PropOp50
 70
     1
102
RTVSPost2010Prop51ColorIndex
 90
      256
102
RTVSPost2010Prop51ColorRGB
 90
-16777216
102
RTVSPost2010PropOp51
 70
     0
102
RTVSPost2010Prop52
140
1.0
102
RTVSPost2010PropOp52
 70
     0
102
RTVSPost2010Prop53
 90
        2
102
RTVSPost2010PropOp53
 70
     1
102
RTVSPost2010Prop54
  1
strokes_ogs.tif
102
RTVSPost2010PropOp54
 70
     1
102
RTVSPost2010Prop55
280
     0
102
RTVSPost2010PropOp55
 70
     1
102
RTVSPost2010Prop56
140
1.0
102
RTVSPost2010PropOp56
 70
     1
102
RTVSPost2010Prop57
140
1.0
102
RTVSPost2010PropOp57
 70
     1
102
RTVSPropertyOp0
 70
     1
102
RTVSPropertyOp1
 70
     1
102
RTVSPropertyOp2
 70
     1
102
RTVSPropertyOp3
 70
     1
102
RTVSPropertyOp4
 70
     1
102
RTVSPropertyOp5
 70
     1
102
RTVSPropertyOp6
 70
     1
102
RTVSPropertyOp7
 70
     1
102
RTVSPropertyOp8
 70
     1
102
RTVSPropertyOp9
 70
     1
102
RTVSPropertyOp10
 70
     1
102
RTVSPropertyOp11
 70
     1
102
RTVSPropertyOp12
 70
     1
102
RTVSPropertyOp13
 70
     1
102
RTVSPropertyOp14
 70
     1
102
RTVSPropertyOp15
 70
     1
102
RTVSPropertyOp16
 70
     1
102
RTVSPropertyOp17
 70
     1
102
RTVSPropertyOp18
 70
     1
102
RTVSPropertyOp19
 70
     1
102
RTVSPropertyOp20
 70
     1
102
RTVSPropertyOp21
 70
     1
102
RTVSPropertyOp22
 70
     1
102
RTVSPropertyOp23
 70
     1
102
RTVSPropertyOp24
 70
     1
102
RTVSPropertyOp25
 70
     1
102
RTVSPropertyOp26
 70
     1
102
RTVSPropertyOp27
 70
     1
102
RTVSPropertyOp28
 70
     1
102
RTVSPropertyOp29
 70
     1
102
RTVSPropertyOp30
 70
     1
102
RTVSPropertyOp31
 70
     1
102
RTVSPropertyOp32
 70
     1
102
RTVSPropertyOp33
 70
     1
102
RTVSPropertyOp34
 70
     1
102
RTVSPropertyOp35
 70
     1
102
RTVSPropertyOp36
 70
     1
102
RTVSPropertyOp37
 70
     1
102
RTVSPropertyOp38
 70
     1
102
RTVSPropertyOp39
 70
     1
102
RTVSPropertyOp40
 70
     1
102
RTVSPropertyOp41
 70
     1
102
RTVSPropertyOp42
 70
     1
102
RTVSPropertyOp43
 70
     1
102
RTVSPropertyOp44
 70
     1
102
RTVSPropertyOp45
 70
     1
102
RTVSPropertyOp46
 70
     1
102
RTVSPropertyOp47
 70
     1
102
RTVSPropertyOp48
 70
     1
102
RTVSPropertyOp49
 70
     1
102
RTVSPropertyOp50
 70
     1
102
RTVSPropertyOp51
 70
     0
102
RTVSPropertyOp52
 70
     0
102
RTVSPropertyOp53
 70
     1
102
RTVSPropertyOp54
 70
     1
102
RTVSPropertyOp55
 70
     1
102
RTVSPropertyOp56
 70
     1
102
RTVSPropertyOp57
 70
     1
102
RTVSPropertyOp58
 70
     1
102
RTVSPropertyOp59
 70
     1
102
RTVSPropertyOp60
 70
     1
102
RTVSPropertyOp61
 70
     1
102
RTVSPropertyOp62
 70
     1
  0
XRECORD
  5
F6B
102
{ACAD_REACTORS
330
F6A
102
}
330
F6A
100
AcDbXrecord
280
     1
102
RTVSPost2010Prop28
280
     0
102
RTVSPost2010PropOp28
 70
     1
102
RTVSPost2010Prop29
280
     1
102
RTVSPost2010PropOp29
 70
     1
102
RTVSPost2010Prop30
280
     1
102
RTVSPost2010PropOp30
 70
     1
102
RTVSPost2010Prop31
280
     0
102
RTVSPost2010PropOp31
 70
     1
102
RTVSPost2010Prop32
280
     0
102
RTVSPost2010PropOp32
 70
     1
102
RTVSPost2010Prop33
280
     0
102
RTVSPost2010PropOp33
 70
     1
102
RTVSPost2010Prop34
280
     0
102
RTVSPost2010PropOp34
 70
     1
102
RTVSPost2010Prop35
280
     0
102
RTVSPost2010PropOp35
 70
     1
102
RTVSPost2010Prop36
280
     0
102
RTVSPost2010PropOp36
 70
     1
102
RTVSPost2010Prop37
 90
       50
102
RTVSPost2010PropOp37
 70
     1
102
RTVSPost2010Prop38
140
0.0
102
RTVSPost2010PropOp38
 70
     1
102
RTVSPost2010Prop39
140
1.0
102
RTVSPost2010PropOp39
 70
     1
102
RTVSPost2010Prop40
 90
        0
102
RTVSPost2010PropOp40
 70
     1
102
RTVSPost2010Prop41ColorIndex
 90
       18
102
RTVSPost2010Prop41ColorRGB
 90
        0
102
RTVSPost2010PropOp41
 70
     1
102
RTVSPost2010Prop42
 90
       50
102
RTVSPost2010PropOp42
 70
     1
102
RTVSPost2010Prop43
 90
        3
102
RTVSPost2010PropOp43
 70
     1
102
RTVSPost2010Prop44ColorIndex
 90
        5
102
RTVSPost2010Prop44ColorRGB
 90
      255
102
RTVSPost2010PropOp44
 70
     1
102
RTVSPost2010Prop45
280
     0
102
RTVSPost2010PropOp45
 70
     1
102
RTVSPost2010Prop46
 90
       50
102
RTVSPost2010PropOp46
 70
     1
102
RTVSPost2010Prop47
 90
       50
102
RTVSPost2010PropOp47
 70
     1
102
RTVSPost2010Prop48
 90
       50
102
RTVSPost2010PropOp48
 70
     1
102
RTVSPost2010Prop49
280
     0
102
RTVSPost2010PropOp49
 70
     1
102
RTVSPost2010Prop50
 90
       50
102
RTVSPost2010PropOp50
 70
     1
102
RTVSPost2010Prop51ColorIndex
 90
      256
102
RTVSPost2010Prop51ColorRGB
 90
-16777216
102
RTVSPost2010PropOp51
 70
     0
102
RTVSPost2010Prop52
140
1.0
102
RTVSPost2010PropOp52
 70
     0
102
RTVSPost2010Prop53
 90
        2
102
RTVSPost2010PropOp53
 70
     1
102
RTVSPost2010Prop54
  1
strokes_ogs.tif
102
RTVSPost2010PropOp54
 70
     1
102
RTVSPost2010Prop55
280
     0
102
RTVSPost2010PropOp55
 70
     1
102
RTVSPost2010Prop56
140
1.0
102
RTVSPost2010PropOp56
 70
     1
102
RTVSPost2010Prop57
140
1.0
102
RTVSPost2010PropOp57
 70
     1
102
RTVSPropertyOp0
 70
     1
102
RTVSPropertyOp1
 70
     1
102
RTVSPropertyOp2
 70
     1
102
RTVSPropertyOp3
 70
     1
102
RTVSPropertyOp4
 70
     1
102
RTVSPropertyOp5
 70
     1
102
RTVSPropertyOp6
 70
     1
102
RTVSPropertyOp7
 70
     1
102
RTVSPropertyOp8
 70
     1
102
RTVSPropertyOp9
 70
     1
102
RTVSPropertyOp10
 70
     1
102
RTVSPropertyOp11
 70
     1
102
RTVSPropertyOp12
 70
     1
102
RTVSPropertyOp13
 70
     1
102
RTVSPropertyOp14
 70
     1
102
RTVSPropertyOp15
 70
     1
102
RTVSPropertyOp16
 70
     1
102
RTVSPropertyOp17
 70
     1
102
RTVSPropertyOp18
 70
     1
102
RTVSPropertyOp19
 70
     1
102
RTVSPropertyOp20
 70
     1
102
RTVSPropertyOp21
 70
     1
102
RTVSPropertyOp22
 70
     1
102
RTVSPropertyOp23
 70
     1
102
RTVSPropertyOp24
 70
     1
102
RTVSPropertyOp25
 70
     1
102
RTVSPropertyOp26
 70
     1
102
RTVSPropertyOp27
 70
     1
102
RTVSPropertyOp28
 70
     1
102
RTVSPropertyOp29
 70
     1
102
RTVSPropertyOp30
 70
     1
102
RTVSPropertyOp31
 70
     1
102
RTVSPropertyOp32
 70
     1
102
RTVSPropertyOp33
 70
     1
102
RTVSPropertyOp34
 70
     1
102
RTVSPropertyOp35
 70
     1
102
RTVSPropertyOp36
 70
     1
102
RTVSPropertyOp37
 70
     1
102
RTVSPropertyOp38
 70
     1
102
RTVSPropertyOp39
 70
     1
102
RTVSPropertyOp40
 70
     1
102
RTVSPropertyOp41
 70
     1
102
RTVSPropertyOp42
 70
     1
102
RTVSPropertyOp43
 70
     1
102
RTVSPropertyOp44
 70
     1
102
RTVSPropertyOp45
 70
     1
102
RTVSPropertyOp46
 70
     1
102
RTVSPropertyOp47
 70
     1
102
RTVSPropertyOp48
 70
     1
102
RTVSPropertyOp49
 70
     1
102
RTVSPropertyOp50
 70
     1
102
RTVSPropertyOp51
 70
     0
102
RTVSPropertyOp52
 70
     0
102
RTVSPropertyOp53
 70
     1
102
RTVSPropertyOp54
 70
     1
102
RTVSPropertyOp55
 70
     1
102
RTVSPropertyOp56
 70
     1
102
RTVSPropertyOp57
 70
     1
102
RTVSPropertyOp58
 70
     1
102
RTVSPropertyOp59
 70
     1
102
RTVSPropertyOp60
 70
     1
102
RTVSPropertyOp61
 70
     1
102
RTVSPropertyOp62
 70
     1
  0
XRECORD
  5
F87
102
{ACAD_REACTORS
330
F86
102
}
330
F86
100
AcDbXrecord
280
     1
102
RTVSPost2010Prop28
280
     0
102
RTVSPost2010PropOp28
 70
     0
102
RTVSPost2010Prop29
280
     1
102
RTVSPost2010PropOp29
 70
     0
102
RTVSPost2010Prop30
280
     1
102
RTVSPost2010PropOp30
 70
     0
102
RTVSPost2010Prop31
280
     0
102
RTVSPost2010PropOp31
 70
     0
102
RTVSPost2010Prop32
280
     0
102
RTVSPost2010PropOp32
 70
     0
102
RTVSPost2010Prop33
280
     0
102
RTVSPost2010PropOp33
 70
     0
102
RTVSPost2010Prop34
280
     0
102
RTVSPost2010PropOp34
 70
     0
102
RTVSPost2010Prop35
280
     0
102
RTVSPost2010PropOp35
 70
     0
102
RTVSPost2010Prop36
280
     0
102
RTVSPost2010PropOp36
 70
     0
102
RTVSPost2010Prop37
 90
       50
102
RTVSPost2010PropOp37
 70
     0
102
RTVSPost2010Prop38
140
0.0
102
RTVSPost2010PropOp38
 70
     0
102
RTVSPost2010Prop39
140
1.0
102
RTVSPost2010PropOp39
 70
     0
102
RTVSPost2010Prop40
 90
        0
102
RTVSPost2010PropOp40
 70
     0
102
RTVSPost2010Prop41ColorIndex
 90
       18
102
RTVSPost2010Prop41ColorRGB
 90
        0
102
RTVSPost2010PropOp41
 70
     0
102
RTVSPost2010Prop42
 90
       50
102
RTVSPost2010PropOp42
 70
     0
102
RTVSPost2010Prop43
 90
        3
102
RTVSPost2010PropOp43
 70
     0
102
RTVSPost2010Prop44ColorIndex
 90
        5
102
RTVSPost2010Prop44ColorRGB
 90
      255
102
RTVSPost2010PropOp44
 70
     0
102
RTVSPost2010Prop45
280
     0
102
RTVSPost2010PropOp45
 70
     0
102
RTVSPost2010Prop46
 90
       50
102
RTVSPost2010PropOp46
 70
     0
102
RTVSPost2010Prop47
 90
       50
102
RTVSPost2010PropOp47
 70
     0
102
RTVSPost2010Prop48
 90
       50
102
RTVSPost2010PropOp48
 70
     0
102
RTVSPost2010Prop49
280
     0
102
RTVSPost2010PropOp49
 70
     0
102
RTVSPost2010Prop50
 90
       50
102
RTVSPost2010PropOp50
 70
     0
102
RTVSPost2010Prop51ColorIndex
 90
      256
102
RTVSPost2010Prop51ColorRGB
 90
-16777216
102
RTVSPost2010PropOp51
 70
     0
102
RTVSPost2010Prop52
140
1.0
102
RTVSPost2010PropOp52
 70
     0
102
RTVSPost2010Prop53
 90
        2
102
RTVSPost2010PropOp53
 70
     0
102
RTVSPost2010Prop54
  1
strokes_ogs.tif
102
RTVSPost2010PropOp54
 70
     0
102
RTVSPost2010Prop55
280
     0
102
RTVSPost2010PropOp55
 70
     0
102
RTVSPost2010Prop56
140
1.0
102
RTVSPost2010PropOp56
 70
     0
102
RTVSPost2010Prop57
140
1.0
102
RTVSPost2010PropOp57
 70
     0
102
RTVSPropertyOp0
 70
     0
102
RTVSPropertyOp1
 70
     0
102
RTVSPropertyOp2
 70
     0
102
RTVSPropertyOp3
 70
     0
102
RTVSPropertyOp4
 70
     0
102
RTVSPropertyOp5
 70
     0
102
RTVSPropertyOp6
 70
     0
102
RTVSPropertyOp7
 70
     0
102
RTVSPropertyOp8
 70
     0
102
RTVSPropertyOp9
 70
     0
102
RTVSPropertyOp10
 70
     0
102
RTVSPropertyOp11
 70
     0
102
RTVSPropertyOp12
 70
     0
102
RTVSPropertyOp13
 70
     0
102
RTVSPropertyOp14
 70
     2
102
RTVSPropertyOp15
 70
     0
102
RTVSPropertyOp16
 70
     0
102
RTVSPropertyOp17
 70
     0
102
RTVSPropertyOp18
 70
     0
102
RTVSPropertyOp19
 70
     0
102
RTVSPropertyOp20
 70
     0
102
RTVSPropertyOp21
 70
     0
102
RTVSPropertyOp22
 70
     0
102
RTVSPropertyOp23
 70
     0
102
RTVSPropertyOp24
 70
     0
102
RTVSPropertyOp25
 70
     0
102
RTVSPropertyOp26
 70
     0
102
RTVSPropertyOp27
 70
     0
102
RTVSPropertyOp28
 70
     0
102
RTVSPropertyOp29
 70
     0
102
RTVSPropertyOp30
 70
     0
102
RTVSPropertyOp31
 70
     0
102
RTVSPropertyOp32
 70
     0
102
RTVSPropertyOp33
 70
     0
102
RTVSPropertyOp34
 70
     0
102
RTVSPropertyOp35
 70
     0
102
RTVSPropertyOp36
 70
     0
102
RTVSPropertyOp37
 70
     0
102
RTVSPropertyOp38
 70
     0
102
RTVSPropertyOp39
 70
     0
102
RTVSPropertyOp40
 70
     0
102
RTVSPropertyOp41
 70
     0
102
RTVSPropertyOp42
 70
     0
102
RTVSPropertyOp43
 70
     0
102
RTVSPropertyOp44
 70
     0
102
RTVSPropertyOp45
 70
     0
102
RTVSPropertyOp46
 70
     0
102
RTVSPropertyOp47
 70
     0
102
RTVSPropertyOp48
 70
     0
102
RTVSPropertyOp49
 70
     0
102
RTVSPropertyOp50
 70
     0
102
RTVSPropertyOp51
 70
     0
102
RTVSPropertyOp52
 70
     0
102
RTVSPropertyOp53
 70
     0
102
RTVSPropertyOp54
 70
     0
102
RTVSPropertyOp55
 70
     0
102
RTVSPropertyOp56
 70
     0
102
RTVSPropertyOp57
 70
     0
102
RTVSPropertyOp58
 70
     0
102
RTVSPropertyOp59
 70
     0
102
RTVSPropertyOp60
 70
     0
102
RTVSPropertyOp61
 70
     0
102
RTVSPropertyOp62
 70
     0
  0
XRECORD
  5
F77
102
{ACAD_REACTORS
330
F76
102
}
330
F76
100
AcDbXrecord
280
     1
102
RTVSPost2010Prop28
280
     0
102
RTVSPost2010PropOp28
 70
     1
102
RTVSPost2010Prop29
280
     1
102
RTVSPost2010PropOp29
 70
     1
102
RTVSPost2010Prop30
280
     1
102
RTVSPost2010PropOp30
 70
     1
102
RTVSPost2010Prop31
280
     0
102
RTVSPost2010PropOp31
 70
     1
102
RTVSPost2010Prop32
280
     0
102
RTVSPost2010PropOp32
 70
     1
102
RTVSPost2010Prop33
280
     0
102
RTVSPost2010PropOp33
 70
     1
102
RTVSPost2010Prop34
280
     0
102
RTVSPost2010PropOp34
 70
     1
102
RTVSPost2010Prop35
280
     0
102
RTVSPost2010PropOp35
 70
     1
102
RTVSPost2010Prop36
280
     0
102
RTVSPost2010PropOp36
 70
     1
102
RTVSPost2010Prop37
 90
       50
102
RTVSPost2010PropOp37
 70
     1
102
RTVSPost2010Prop38
140
0.0
102
RTVSPost2010PropOp38
 70
     1
102
RTVSPost2010Prop39
140
1.0
102
RTVSPost2010PropOp39
 70
     1
102
RTVSPost2010Prop40
 90
        0
102
RTVSPost2010PropOp40
 70
     1
102
RTVSPost2010Prop41ColorIndex
 90
       18
102
RTVSPost2010Prop41ColorRGB
 90
        0
102
RTVSPost2010PropOp41
 70
     1
102
RTVSPost2010Prop42
 90
       50
102
RTVSPost2010PropOp42
 70
     1
102
RTVSPost2010Prop43
 90
        3
102
RTVSPost2010PropOp43
 70
     1
102
RTVSPost2010Prop44ColorIndex
 90
        5
102
RTVSPost2010Prop44ColorRGB
 90
      255
102
RTVSPost2010PropOp44
 70
     1
102
RTVSPost2010Prop45
280
     0
102
RTVSPost2010PropOp45
 70
     1
102
RTVSPost2010Prop46
 90
       50
102
RTVSPost2010PropOp46
 70
     1
102
RTVSPost2010Prop47
 90
       50
102
RTVSPost2010PropOp47
 70
     1
102
RTVSPost2010Prop48
 90
       50
102
RTVSPost2010PropOp48
 70
     1
102
RTVSPost2010Prop49
280
     0
102
RTVSPost2010PropOp49
 70
     1
102
RTVSPost2010Prop50
 90
       50
102
RTVSPost2010PropOp50
 70
     1
102
RTVSPost2010Prop51ColorIndex
 90
      256
102
RTVSPost2010Prop51ColorRGB
 90
-16777216
102
RTVSPost2010PropOp51
 70
     0
102
RTVSPost2010Prop52
140
1.0
102
RTVSPost2010PropOp52
 70
     0
102
RTVSPost2010Prop53
 90
        2
102
RTVSPost2010PropOp53
 70
     1
102
RTVSPost2010Prop54
  1
strokes_ogs.tif
102
RTVSPost2010PropOp54
 70
     1
102
RTVSPost2010Prop55
280
     0
102
RTVSPost2010PropOp55
 70
     1
102
RTVSPost2010Prop56
140
1.0
102
RTVSPost2010PropOp56
 70
     1
102
RTVSPost2010Prop57
140
1.0
102
RTVSPost2010PropOp57
 70
     1
102
RTVSPropertyOp0
 70
     1
102
RTVSPropertyOp1
 70
     1
102
RTVSPropertyOp2
 70
     1
102
RTVSPropertyOp3
 70
     1
102
RTVSPropertyOp4
 70
     1
102
RTVSPropertyOp5
 70
     1
102
RTVSPropertyOp6
 70
     1
102
RTVSPropertyOp7
 70
     1
102
RTVSPropertyOp8
 70
     1
102
RTVSPropertyOp9
 70
     1
102
RTVSPropertyOp10
 70
     1
102
RTVSPropertyOp11
 70
     1
102
RTVSPropertyOp12
 70
     1
102
RTVSPropertyOp13
 70
     1
102
RTVSPropertyOp14
 70
     1
102
RTVSPropertyOp15
 70
     1
102
RTVSPropertyOp16
 70
     1
102
RTVSPropertyOp17
 70
     1
102
RTVSPropertyOp18
 70
     1
102
RTVSPropertyOp19
 70
     1
102
RTVSPropertyOp20
 70
     1
102
RTVSPropertyOp21
 70
     1
102
RTVSPropertyOp22
 70
     1
102
RTVSPropertyOp23
 70
     1
102
RTVSPropertyOp24
 70
     1
102
RTVSPropertyOp25
 70
     1
102
RTVSPropertyOp26
 70
     1
102
RTVSPropertyOp27
 70
     1
102
RTVSPropertyOp28
 70
     1
102
RTVSPropertyOp29
 70
     1
102
RTVSPropertyOp30
 70
     1
102
RTVSPropertyOp31
 70
     1
102
RTVSPropertyOp32
 70
     1
102
RTVSPropertyOp33
 70
     1
102
RTVSPropertyOp34
 70
     1
102
RTVSPropertyOp35
 70
     1
102
RTVSPropertyOp36
 70
     1
102
RTVSPropertyOp37
 70
     1
102
RTVSPropertyOp38
 70
     1
102
RTVSPropertyOp39
 70
     1
102
RTVSPropertyOp40
 70
     1
102
RTVSPropertyOp41
 70
     1
102
RTVSPropertyOp42
 70
     1
102
RTVSPropertyOp43
 70
     1
102
RTVSPropertyOp44
 70
     1
102
RTVSPropertyOp45
 70
     1
102
RTVSPropertyOp46
 70
     1
102
RTVSPropertyOp47
 70
     1
102
RTVSPropertyOp48
 70
     1
102
RTVSPropertyOp49
 70
     1
102
RTVSPropertyOp50
 70
     1
102
RTVSPropertyOp51
 70
     0
102
RTVSPropertyOp52
 70
     0
102
RTVSPropertyOp53
 70
     1
102
RTVSPropertyOp54
 70
     1
102
RTVSPropertyOp55
 70
     1
102
RTVSPropertyOp56
 70
     1
102
RTVSPropertyOp57
 70
     1
102
RTVSPropertyOp58
 70
     1
102
RTVSPropertyOp59
 70
     1
102
RTVSPropertyOp60
 70
     1
102
RTVSPropertyOp61
 70
     1
102
RTVSPropertyOp62
 70
     1
  0
XRECORD
  5
F89
102
{ACAD_REACTORS
330
F88
102
}
330
F88
100
AcDbXrecord
280
     1
102
RTVSPost2010Prop28
280
     0
102
RTVSPost2010PropOp28
 70
     0
102
RTVSPost2010Prop29
280
     1
102
RTVSPost2010PropOp29
 70
     0
102
RTVSPost2010Prop30
280
     1
102
RTVSPost2010PropOp30
 70
     0
102
RTVSPost2010Prop31
280
     0
102
RTVSPost2010PropOp31
 70
     0
102
RTVSPost2010Prop32
280
     0
102
RTVSPost2010PropOp32
 70
     0
102
RTVSPost2010Prop33
280
     0
102
RTVSPost2010PropOp33
 70
     0
102
RTVSPost2010Prop34
280
     0
102
RTVSPost2010PropOp34
 70
     0
102
RTVSPost2010Prop35
280
     0
102
RTVSPost2010PropOp35
 70
     0
102
RTVSPost2010Prop36
280
     0
102
RTVSPost2010PropOp36
 70
     0
102
RTVSPost2010Prop37
 90
       50
102
RTVSPost2010PropOp37
 70
     0
102
RTVSPost2010Prop38
140
0.0
102
RTVSPost2010PropOp38
 70
     0
102
RTVSPost2010Prop39
140
1.0
102
RTVSPost2010PropOp39
 70
     0
102
RTVSPost2010Prop40
 90
        0
102
RTVSPost2010PropOp40
 70
     0
102
RTVSPost2010Prop41ColorIndex
 90
       18
102
RTVSPost2010Prop41ColorRGB
 90
        0
102
RTVSPost2010PropOp41
 70
     0
102
RTVSPost2010Prop42
 90
       50
102
RTVSPost2010PropOp42
 70
     0
102
RTVSPost2010Prop43
 90
        3
102
RTVSPost2010PropOp43
 70
     0
102
RTVSPost2010Prop44ColorIndex
 90
        5
102
RTVSPost2010Prop44ColorRGB
 90
      255
102
RTVSPost2010PropOp44
 70
     0
102
RTVSPost2010Prop45
280
     0
102
RTVSPost2010PropOp45
 70
     0
102
RTVSPost2010Prop46
 90
       50
102
RTVSPost2010PropOp46
 70
     0
102
RTVSPost2010Prop47
 90
       50
102
RTVSPost2010PropOp47
 70
     0
102
RTVSPost2010Prop48
 90
       50
102
RTVSPost2010PropOp48
 70
     0
102
RTVSPost2010Prop49
280
     0
102
RTVSPost2010PropOp49
 70
     0
102
RTVSPost2010Prop50
 90
       50
102
RTVSPost2010PropOp50
 70
     0
102
RTVSPost2010Prop51ColorIndex
 90
      256
102
RTVSPost2010Prop51ColorRGB
 90
-16777216
102
RTVSPost2010PropOp51
 70
     0
102
RTVSPost2010Prop52
140
1.0
102
RTVSPost2010PropOp52
 70
     0
102
RTVSPost2010Prop53
 90
        2
102
RTVSPost2010PropOp53
 70
     0
102
RTVSPost2010Prop54
  1
strokes_ogs.tif
102
RTVSPost2010PropOp54
 70
     0
102
RTVSPost2010Prop55
280
     0
102
RTVSPost2010PropOp55
 70
     0
102
RTVSPost2010Prop56
140
1.0
102
RTVSPost2010PropOp56
 70
     0
102
RTVSPost2010Prop57
140
1.0
102
RTVSPost2010PropOp57
 70
     0
102
RTVSPropertyOp0
 70
     0
102
RTVSPropertyOp1
 70
     0
102
RTVSPropertyOp2
 70
     0
102
RTVSPropertyOp3
 70
     0
102
RTVSPropertyOp4
 70
     0
102
RTVSPropertyOp5
 70
     0
102
RTVSPropertyOp6
 70
     0
102
RTVSPropertyOp7
 70
     0
102
RTVSPropertyOp8
 70
     0
102
RTVSPropertyOp9
 70
     0
102
RTVSPropertyOp10
 70
     0
102
RTVSPropertyOp11
 70
     0
102
RTVSPropertyOp12
 70
     0
102
RTVSPropertyOp13
 70
     0
102
RTVSPropertyOp14
 70
     2
102
RTVSPropertyOp15
 70
     0
102
RTVSPropertyOp16
 70
     0
102
RTVSPropertyOp17
 70
     0
102
RTVSPropertyOp18
 70
     0
102
RTVSPropertyOp19
 70
     0
102
RTVSPropertyOp20
 70
     0
102
RTVSPropertyOp21
 70
     0
102
RTVSPropertyOp22
 70
     0
102
RTVSPropertyOp23
 70
     0
102
RTVSPropertyOp24
 70
     0
102
RTVSPropertyOp25
 70
     0
102
RTVSPropertyOp26
 70
     0
102
RTVSPropertyOp27
 70
     0
102
RTVSPropertyOp28
 70
     0
102
RTVSPropertyOp29
 70
     0
102
RTVSPropertyOp30
 70
     0
102
RTVSPropertyOp31
 70
     0
102
RTVSPropertyOp32
 70
     0
102
RTVSPropertyOp33
 70
     0
102
RTVSPropertyOp34
 70
     0
102
RTVSPropertyOp35
 70
     0
102
RTVSPropertyOp36
 70
     0
102
RTVSPropertyOp37
 70
     0
102
RTVSPropertyOp38
 70
     0
102
RTVSPropertyOp39
 70
     0
102
RTVSPropertyOp40
 70
     0
102
RTVSPropertyOp41
 70
     0
102
RTVSPropertyOp42
 70
     0
102
RTVSPropertyOp43
 70
     0
102
RTVSPropertyOp44
 70
     0
102
RTVSPropertyOp45
 70
     0
102
RTVSPropertyOp46
 70
     0
102
RTVSPropertyOp47
 70
     0
102
RTVSPropertyOp48
 70
     0
102
RTVSPropertyOp49
 70
     0
102
RTVSPropertyOp50
 70
     0
102
RTVSPropertyOp51
 70
     0
102
RTVSPropertyOp52
 70
     0
102
RTVSPropertyOp53
 70
     0
102
RTVSPropertyOp54
 70
     0
102
RTVSPropertyOp55
 70
     0
102
RTVSPropertyOp56
 70
     0
102
RTVSPropertyOp57
 70
     0
102
RTVSPropertyOp58
 70
     0
102
RTVSPropertyOp59
 70
     0
102
RTVSPropertyOp60
 70
     0
102
RTVSPropertyOp61
 70
     0
102
RTVSPropertyOp62
 70
     0
  0
XRECORD
  5
F6F
102
{ACAD_REACTORS
330
F6E
102
}
330
F6E
100
AcDbXrecord
280
     1
102
RTVSPost2010Prop28
280
     0
102
RTVSPost2010PropOp28
 70
     1
102
RTVSPost2010Prop29
280
     1
102
RTVSPost2010PropOp29
 70
     1
102
RTVSPost2010Prop30
280
     1
102
RTVSPost2010PropOp30
 70
     1
102
RTVSPost2010Prop31
280
     0
102
RTVSPost2010PropOp31
 70
     1
102
RTVSPost2010Prop32
280
     0
102
RTVSPost2010PropOp32
 70
     1
102
RTVSPost2010Prop33
280
     0
102
RTVSPost2010PropOp33
 70
     1
102
RTVSPost2010Prop34
280
     0
102
RTVSPost2010PropOp34
 70
     1
102
RTVSPost2010Prop35
280
     0
102
RTVSPost2010PropOp35
 70
     1
102
RTVSPost2010Prop36
280
     0
102
RTVSPost2010PropOp36
 70
     1
102
RTVSPost2010Prop37
 90
       50
102
RTVSPost2010PropOp37
 70
     1
102
RTVSPost2010Prop38
140
0.0
102
RTVSPost2010PropOp38
 70
     1
102
RTVSPost2010Prop39
140
1.0
102
RTVSPost2010PropOp39
 70
     1
102
RTVSPost2010Prop40
 90
        0
102
RTVSPost2010PropOp40
 70
     1
102
RTVSPost2010Prop41ColorIndex
 90
       18
102
RTVSPost2010Prop41ColorRGB
 90
        0
102
RTVSPost2010PropOp41
 70
     1
102
RTVSPost2010Prop42
 90
       50
102
RTVSPost2010PropOp42
 70
     1
102
RTVSPost2010Prop43
 90
        3
102
RTVSPost2010PropOp43
 70
     1
102
RTVSPost2010Prop44ColorIndex
 90
        5
102
RTVSPost2010Prop44ColorRGB
 90
      255
102
RTVSPost2010PropOp44
 70
     1
102
RTVSPost2010Prop45
280
     0
102
RTVSPost2010PropOp45
 70
     1
102
RTVSPost2010Prop46
 90
       50
102
RTVSPost2010PropOp46
 70
     1
102
RTVSPost2010Prop47
 90
       50
102
RTVSPost2010PropOp47
 70
     1
102
RTVSPost2010Prop48
 90
       50
102
RTVSPost2010PropOp48
 70
     1
102
RTVSPost2010Prop49
280
     0
102
RTVSPost2010PropOp49
 70
     1
102
RTVSPost2010Prop50
 90
       50
102
RTVSPost2010PropOp50
 70
     1
102
RTVSPost2010Prop51ColorIndex
 90
      256
102
RTVSPost2010Prop51ColorRGB
 90
-16777216
102
RTVSPost2010PropOp51
 70
     0
102
RTVSPost2010Prop52
140
1.0
102
RTVSPost2010PropOp52
 70
     0
102
RTVSPost2010Prop53
 90
        2
102
RTVSPost2010PropOp53
 70
     1
102
RTVSPost2010Prop54
  1
strokes_ogs.tif
102
RTVSPost2010PropOp54
 70
     1
102
RTVSPost2010Prop55
280
     0
102
RTVSPost2010PropOp55
 70
     1
102
RTVSPost2010Prop56
140
1.0
102
RTVSPost2010PropOp56
 70
     1
102
RTVSPost2010Prop57
140
1.0
102
RTVSPost2010PropOp57
 70
     1
102
RTVSPropertyOp0
 70
     1
102
RTVSPropertyOp1
 70
     1
102
RTVSPropertyOp2
 70
     1
102
RTVSPropertyOp3
 70
     1
102
RTVSPropertyOp4
 70
     1
102
RTVSPropertyOp5
 70
     1
102
RTVSPropertyOp6
 70
     1
102
RTVSPropertyOp7
 70
     1
102
RTVSPropertyOp8
 70
     1
102
RTVSPropertyOp9
 70
     1
102
RTVSPropertyOp10
 70
     1
102
RTVSPropertyOp11
 70
     1
102
RTVSPropertyOp12
 70
     1
102
RTVSPropertyOp13
 70
     1
102
RTVSPropertyOp14
 70
     1
102
RTVSPropertyOp15
 70
     1
102
RTVSPropertyOp16
 70
     1
102
RTVSPropertyOp17
 70
     1
102
RTVSPropertyOp18
 70
     1
102
RTVSPropertyOp19
 70
     1
102
RTVSPropertyOp20
 70
     1
102
RTVSPropertyOp21
 70
     1
102
RTVSPropertyOp22
 70
     1
102
RTVSPropertyOp23
 70
     1
102
RTVSPropertyOp24
 70
     1
102
RTVSPropertyOp25
 70
     1
102
RTVSPropertyOp26
 70
     1
102
RTVSPropertyOp27
 70
     1
102
RTVSPropertyOp28
 70
     1
102
RTVSPropertyOp29
 70
     1
102
RTVSPropertyOp30
 70
     1
102
RTVSPropertyOp31
 70
     1
102
RTVSPropertyOp32
 70
     1
102
RTVSPropertyOp33
 70
     1
102
RTVSPropertyOp34
 70
     1
102
RTVSPropertyOp35
 70
     1
102
RTVSPropertyOp36
 70
     1
102
RTVSPropertyOp37
 70
     1
102
RTVSPropertyOp38
 70
     1
102
RTVSPropertyOp39
 70
     1
102
RTVSPropertyOp40
 70
     1
102
RTVSPropertyOp41
 70
     1
102
RTVSPropertyOp42
 70
     1
102
RTVSPropertyOp43
 70
     1
102
RTVSPropertyOp44
 70
     1
102
RTVSPropertyOp45
 70
     1
102
RTVSPropertyOp46
 70
     1
102
RTVSPropertyOp47
 70
     1
102
RTVSPropertyOp48
 70
     1
102
RTVSPropertyOp49
 70
     1
102
RTVSPropertyOp50
 70
     1
102
RTVSPropertyOp51
 70
     0
102
RTVSPropertyOp52
 70
     0
102
RTVSPropertyOp53
 70
     1
102
RTVSPropertyOp54
 70
     1
102
RTVSPropertyOp55
 70
     1
102
RTVSPropertyOp56
 70
     1
102
RTVSPropertyOp57
 70
     1
102
RTVSPropertyOp58
 70
     1
102
RTVSPropertyOp59
 70
     1
102
RTVSPropertyOp60
 70
     1
102
RTVSPropertyOp61
 70
     1
102
RTVSPropertyOp62
 70
     1
  0
XRECORD
  5
F85
102
{ACAD_REACTORS
330
F84
102
}
330
F84
100
AcDbXrecord
280
     1
102
RTVSPost2010Prop28
280
     0
102
RTVSPost2010PropOp28
 70
     1
102
RTVSPost2010Prop29
280
     1
102
RTVSPost2010PropOp29
 70
     1
102
RTVSPost2010Prop30
280
     1
102
RTVSPost2010PropOp30
 70
     1
102
RTVSPost2010Prop31
280
     0
102
RTVSPost2010PropOp31
 70
     1
102
RTVSPost2010Prop32
280
     0
102
RTVSPost2010PropOp32
 70
     1
102
RTVSPost2010Prop33
280
     0
102
RTVSPost2010PropOp33
 70
     1
102
RTVSPost2010Prop34
280
     0
102
RTVSPost2010PropOp34
 70
     1
102
RTVSPost2010Prop35
280
     0
102
RTVSPost2010PropOp35
 70
     1
102
RTVSPost2010Prop36
280
     0
102
RTVSPost2010PropOp36
 70
     1
102
RTVSPost2010Prop37
 90
       50
102
RTVSPost2010PropOp37
 70
     1
102
RTVSPost2010Prop38
140
0.0
102
RTVSPost2010PropOp38
 70
     1
102
RTVSPost2010Prop39
140
1.0
102
RTVSPost2010PropOp39
 70
     1
102
RTVSPost2010Prop40
 90
        0
102
RTVSPost2010PropOp40
 70
     1
102
RTVSPost2010Prop41ColorIndex
 90
       18
102
RTVSPost2010Prop41ColorRGB
 90
        0
102
RTVSPost2010PropOp41
 70
     1
102
RTVSPost2010Prop42
 90
       50
102
RTVSPost2010PropOp42
 70
     1
102
RTVSPost2010Prop43
 90
        3
102
RTVSPost2010PropOp43
 70
     1
102
RTVSPost2010Prop44ColorIndex
 90
        5
102
RTVSPost2010Prop44ColorRGB
 90
      255
102
RTVSPost2010PropOp44
 70
     1
102
RTVSPost2010Prop45
280
     0
102
RTVSPost2010PropOp45
 70
     1
102
RTVSPost2010Prop46
 90
       50
102
RTVSPost2010PropOp46
 70
     1
102
RTVSPost2010Prop47
 90
       50
102
RTVSPost2010PropOp47
 70
     1
102
RTVSPost2010Prop48
 90
       50
102
RTVSPost2010PropOp48
 70
     1
102
RTVSPost2010Prop49
280
     0
102
RTVSPost2010PropOp49
 70
     1
102
RTVSPost2010Prop50
 90
       50
102
RTVSPost2010PropOp50
 70
     1
102
RTVSPost2010Prop51ColorIndex
 90
      256
102
RTVSPost2010Prop51ColorRGB
 90
-16777216
102
RTVSPost2010PropOp51
 70
     0
102
RTVSPost2010Prop52
140
1.0
102
RTVSPost2010PropOp52
 70
     0
102
RTVSPost2010Prop53
 90
        2
102
RTVSPost2010PropOp53
 70
     1
102
RTVSPost2010Prop54
  1
strokes_ogs.tif
102
RTVSPost2010PropOp54
 70
     1
102
RTVSPost2010Prop55
280
     0
102
RTVSPost2010PropOp55
 70
     1
102
RTVSPost2010Prop56
140
1.0
102
RTVSPost2010PropOp56
 70
     1
102
RTVSPost2010Prop57
140
1.0
102
RTVSPost2010PropOp57
 70
     1
102
RTVSPropertyOp0
 70
     1
102
RTVSPropertyOp1
 70
     1
102
RTVSPropertyOp2
 70
     1
102
RTVSPropertyOp3
 70
     1
102
RTVSPropertyOp4
 70
     1
102
RTVSPropertyOp5
 70
     1
102
RTVSPropertyOp6
 70
     1
102
RTVSPropertyOp7
 70
     1
102
RTVSPropertyOp8
 70
     1
102
RTVSPropertyOp9
 70
     1
102
RTVSPropertyOp10
 70
     1
102
RTVSPropertyOp11
 70
     1
102
RTVSPropertyOp12
 70
     1
102
RTVSPropertyOp13
 70
     1
102
RTVSPropertyOp14
 70
     1
102
RTVSPropertyOp15
 70
     1
102
RTVSPropertyOp16
 70
     1
102
RTVSPropertyOp17
 70
     1
102
RTVSPropertyOp18
 70
     1
102
RTVSPropertyOp19
 70
     1
102
RTVSPropertyOp20
 70
     1
102
RTVSPropertyOp21
 70
     1
102
RTVSPropertyOp22
 70
     1
102
RTVSPropertyOp23
 70
     1
102
RTVSPropertyOp24
 70
     1
102
RTVSPropertyOp25
 70
     1
102
RTVSPropertyOp26
 70
     1
102
RTVSPropertyOp27
 70
     1
102
RTVSPropertyOp28
 70
     1
102
RTVSPropertyOp29
 70
     1
102
RTVSPropertyOp30
 70
     1
102
RTVSPropertyOp31
 70
     1
102
RTVSPropertyOp32
 70
     1
102
RTVSPropertyOp33
 70
     1
102
RTVSPropertyOp34
 70
     1
102
RTVSPropertyOp35
 70
     1
102
RTVSPropertyOp36
 70
     1
102
RTVSPropertyOp37
 70
     1
102
RTVSPropertyOp38
 70
     1
102
RTVSPropertyOp39
 70
     1
102
RTVSPropertyOp40
 70
     1
102
RTVSPropertyOp41
 70
     1
102
RTVSPropertyOp42
 70
     1
102
RTVSPropertyOp43
 70
     1
102
RTVSPropertyOp44
 70
     1
102
RTVSPropertyOp45
 70
     1
102
RTVSPropertyOp46
 70
     1
102
RTVSPropertyOp47
 70
     1
102
RTVSPropertyOp48
 70
     1
102
RTVSPropertyOp49
 70
     1
102
RTVSPropertyOp50
 70
     1
102
RTVSPropertyOp51
 70
     0
102
RTVSPropertyOp52
 70
     0
102
RTVSPropertyOp53
 70
     1
102
RTVSPropertyOp54
 70
     1
102
RTVSPropertyOp55
 70
     1
102
RTVSPropertyOp56
 70
     1
102
RTVSPropertyOp57
 70
     1
102
RTVSPropertyOp58
 70
     1
102
RTVSPropertyOp59
 70
     1
102
RTVSPropertyOp60
 70
     1
102
RTVSPropertyOp61
 70
     1
102
RTVSPropertyOp62
 70
     1
  0
XRECORD
  5
F83
102
{ACAD_REACTORS
330
F82
102
}
330
F82
100
AcDbXrecord
280
     1
102
RTVSPost2010Prop28
280
     0
102
RTVSPost2010PropOp28
 70
     1
102
RTVSPost2010Prop29
280
     1
102
RTVSPost2010PropOp29
 70
     1
102
RTVSPost2010Prop30
280
     1
102
RTVSPost2010PropOp30
 70
     1
102
RTVSPost2010Prop31
280
     0
102
RTVSPost2010PropOp31
 70
     1
102
RTVSPost2010Prop32
280
     0
102
RTVSPost2010PropOp32
 70
     1
102
RTVSPost2010Prop33
280
     0
102
RTVSPost2010PropOp33
 70
     1
102
RTVSPost2010Prop34
280
     0
102
RTVSPost2010PropOp34
 70
     1
102
RTVSPost2010Prop35
280
     0
102
RTVSPost2010PropOp35
 70
     1
102
RTVSPost2010Prop36
280
     0
102
RTVSPost2010PropOp36
 70
     1
102
RTVSPost2010Prop37
 90
       50
102
RTVSPost2010PropOp37
 70
     1
102
RTVSPost2010Prop38
140
0.0
102
RTVSPost2010PropOp38
 70
     1
102
RTVSPost2010Prop39
140
1.0
102
RTVSPost2010PropOp39
 70
     1
102
RTVSPost2010Prop40
 90
        0
102
RTVSPost2010PropOp40
 70
     1
102
RTVSPost2010Prop41ColorIndex
 90
       18
102
RTVSPost2010Prop41ColorRGB
 90
        0
102
RTVSPost2010PropOp41
 70
     1
102
RTVSPost2010Prop42
 90
       50
102
RTVSPost2010PropOp42
 70
     1
102
RTVSPost2010Prop43
 90
        3
102
RTVSPost2010PropOp43
 70
     1
102
RTVSPost2010Prop44ColorIndex
 90
        5
102
RTVSPost2010Prop44ColorRGB
 90
      255
102
RTVSPost2010PropOp44
 70
     1
102
RTVSPost2010Prop45
280
     0
102
RTVSPost2010PropOp45
 70
     1
102
RTVSPost2010Prop46
 90
       50
102
RTVSPost2010PropOp46
 70
     1
102
RTVSPost2010Prop47
 90
       50
102
RTVSPost2010PropOp47
 70
     1
102
RTVSPost2010Prop48
 90
       50
102
RTVSPost2010PropOp48
 70
     1
102
RTVSPost2010Prop49
280
     0
102
RTVSPost2010PropOp49
 70
     1
102
RTVSPost2010Prop50
 90
       50
102
RTVSPost2010PropOp50
 70
     1
102
RTVSPost2010Prop51ColorIndex
 90
      256
102
RTVSPost2010Prop51ColorRGB
 90
-16777216
102
RTVSPost2010PropOp51
 70
     0
102
RTVSPost2010Prop52
140
1.0
102
RTVSPost2010PropOp52
 70
     0
102
RTVSPost2010Prop53
 90
        2
102
RTVSPost2010PropOp53
 70
     1
102
RTVSPost2010Prop54
  1
strokes_ogs.tif
102
RTVSPost2010PropOp54
 70
     1
102
RTVSPost2010Prop55
280
     0
102
RTVSPost2010PropOp55
 70
     1
102
RTVSPost2010Prop56
140
1.0
102
RTVSPost2010PropOp56
 70
     1
102
RTVSPost2010Prop57
140
1.0
102
RTVSPost2010PropOp57
 70
     1
102
RTVSPropertyOp0
 70
     1
102
RTVSPropertyOp1
 70
     1
102
RTVSPropertyOp2
 70
     1
102
RTVSPropertyOp3
 70
     1
102
RTVSPropertyOp4
 70
     1
102
RTVSPropertyOp5
 70
     1
102
RTVSPropertyOp6
 70
     1
102
RTVSPropertyOp7
 70
     1
102
RTVSPropertyOp8
 70
     1
102
RTVSPropertyOp9
 70
     1
102
RTVSPropertyOp10
 70
     1
102
RTVSPropertyOp11
 70
     1
102
RTVSPropertyOp12
 70
     1
102
RTVSPropertyOp13
 70
     1
102
RTVSPropertyOp14
 70
     1
102
RTVSPropertyOp15
 70
     1
102
RTVSPropertyOp16
 70
     1
102
RTVSPropertyOp17
 70
     1
102
RTVSPropertyOp18
 70
     1
102
RTVSPropertyOp19
 70
     1
102
RTVSPropertyOp20
 70
     1
102
RTVSPropertyOp21
 70
     1
102
RTVSPropertyOp22
 70
     1
102
RTVSPropertyOp23
 70
     1
102
RTVSPropertyOp24
 70
     1
102
RTVSPropertyOp25
 70
     1
102
RTVSPropertyOp26
 70
     1
102
RTVSPropertyOp27
 70
     1
102
RTVSPropertyOp28
 70
     1
102
RTVSPropertyOp29
 70
     1
102
RTVSPropertyOp30
 70
     1
102
RTVSPropertyOp31
 70
     1
102
RTVSPropertyOp32
 70
     1
102
RTVSPropertyOp33
 70
     1
102
RTVSPropertyOp34
 70
     1
102
RTVSPropertyOp35
 70
     1
102
RTVSPropertyOp36
 70
     1
102
RTVSPropertyOp37
 70
     1
102
RTVSPropertyOp38
 70
     1
102
RTVSPropertyOp39
 70
     1
102
RTVSPropertyOp40
 70
     1
102
RTVSPropertyOp41
 70
     1
102
RTVSPropertyOp42
 70
     1
102
RTVSPropertyOp43
 70
     1
102
RTVSPropertyOp44
 70
     1
102
RTVSPropertyOp45
 70
     1
102
RTVSPropertyOp46
 70
     1
102
RTVSPropertyOp47
 70
     1
102
RTVSPropertyOp48
 70
     1
102
RTVSPropertyOp49
 70
     1
102
RTVSPropertyOp50
 70
     1
102
RTVSPropertyOp51
 70
     0
102
RTVSPropertyOp52
 70
     0
102
RTVSPropertyOp53
 70
     1
102
RTVSPropertyOp54
 70
     1
102
RTVSPropertyOp55
 70
     1
102
RTVSPropertyOp56
 70
     1
102
RTVSPropertyOp57
 70
     1
102
RTVSPropertyOp58
 70
     1
102
RTVSPropertyOp59
 70
     1
102
RTVSPropertyOp60
 70
     1
102
RTVSPropertyOp61
 70
     1
102
RTVSPropertyOp62
 70
     1
  0
XRECORD
  5
F7D
102
{ACAD_REACTORS
330
F7C
102
}
330
F7C
100
AcDbXrecord
280
     1
102
RTVSPost2010Prop28
280
     0
102
RTVSPost2010PropOp28
 70
     1
102
RTVSPost2010Prop29
280
     1
102
RTVSPost2010PropOp29
 70
     1
102
RTVSPost2010Prop30
280
     1
102
RTVSPost2010PropOp30
 70
     1
102
RTVSPost2010Prop31
280
     0
102
RTVSPost2010PropOp31
 70
     1
102
RTVSPost2010Prop32
280
     0
102
RTVSPost2010PropOp32
 70
     1
102
RTVSPost2010Prop33
280
     0
102
RTVSPost2010PropOp33
 70
     1
102
RTVSPost2010Prop34
280
     0
102
RTVSPost2010PropOp34
 70
     1
102
RTVSPost2010Prop35
280
     0
102
RTVSPost2010PropOp35
 70
     1
102
RTVSPost2010Prop36
280
     0
102
RTVSPost2010PropOp36
 70
     1
102
RTVSPost2010Prop37
 90
       50
102
RTVSPost2010PropOp37
 70
     1
102
RTVSPost2010Prop38
140
0.0
102
RTVSPost2010PropOp38
 70
     1
102
RTVSPost2010Prop39
140
1.0
102
RTVSPost2010PropOp39
 70
     1
102
RTVSPost2010Prop40
 90
        0
102
RTVSPost2010PropOp40
 70
     1
102
RTVSPost2010Prop41ColorIndex
 90
       18
102
RTVSPost2010Prop41ColorRGB
 90
        0
102
RTVSPost2010PropOp41
 70
     1
102
RTVSPost2010Prop42
 90
       50
102
RTVSPost2010PropOp42
 70
     1
102
RTVSPost2010Prop43
 90
        3
102
RTVSPost2010PropOp43
 70
     1
102
RTVSPost2010Prop44ColorIndex
 90
        5
102
RTVSPost2010Prop44ColorRGB
 90
      255
102
RTVSPost2010PropOp44
 70
     1
102
RTVSPost2010Prop45
280
     0
102
RTVSPost2010PropOp45
 70
     1
102
RTVSPost2010Prop46
 90
       50
102
RTVSPost2010PropOp46
 70
     1
102
RTVSPost2010Prop47
 90
       50
102
RTVSPost2010PropOp47
 70
     1
102
RTVSPost2010Prop48
 90
       50
102
RTVSPost2010PropOp48
 70
     1
102
RTVSPost2010Prop49
280
     0
102
RTVSPost2010PropOp49
 70
     1
102
RTVSPost2010Prop50
 90
       50
102
RTVSPost2010PropOp50
 70
     1
102
RTVSPost2010Prop51ColorIndex
 90
      256
102
RTVSPost2010Prop51ColorRGB
 90
-16777216
102
RTVSPost2010PropOp51
 70
     0
102
RTVSPost2010Prop52
140
1.0
102
RTVSPost2010PropOp52
 70
     0
102
RTVSPost2010Prop53
 90
        2
102
RTVSPost2010PropOp53
 70
     1
102
RTVSPost2010Prop54
  1
strokes_ogs.tif
102
RTVSPost2010PropOp54
 70
     1
102
RTVSPost2010Prop55
280
     0
102
RTVSPost2010PropOp55
 70
     1
102
RTVSPost2010Prop56
140
1.0
102
RTVSPost2010PropOp56
 70
     1
102
RTVSPost2010Prop57
140
1.0
102
RTVSPost2010PropOp57
 70
     1
102
RTVSPropertyOp0
 70
     1
102
RTVSPropertyOp1
 70
     1
102
RTVSPropertyOp2
 70
     1
102
RTVSPropertyOp3
 70
     1
102
RTVSPropertyOp4
 70
     1
102
RTVSPropertyOp5
 70
     1
102
RTVSPropertyOp6
 70
     1
102
RTVSPropertyOp7
 70
     1
102
RTVSPropertyOp8
 70
     1
102
RTVSPropertyOp9
 70
     1
102
RTVSPropertyOp10
 70
     1
102
RTVSPropertyOp11
 70
     1
102
RTVSPropertyOp12
 70
     1
102
RTVSPropertyOp13
 70
     1
102
RTVSPropertyOp14
 70
     1
102
RTVSPropertyOp15
 70
     1
102
RTVSPropertyOp16
 70
     1
102
RTVSPropertyOp17
 70
     1
102
RTVSPropertyOp18
 70
     1
102
RTVSPropertyOp19
 70
     1
102
RTVSPropertyOp20
 70
     1
102
RTVSPropertyOp21
 70
     1
102
RTVSPropertyOp22
 70
     1
102
RTVSPropertyOp23
 70
     1
102
RTVSPropertyOp24
 70
     1
102
RTVSPropertyOp25
 70
     1
102
RTVSPropertyOp26
 70
     1
102
RTVSPropertyOp27
 70
     1
102
RTVSPropertyOp28
 70
     1
102
RTVSPropertyOp29
 70
     1
102
RTVSPropertyOp30
 70
     1
102
RTVSPropertyOp31
 70
     1
102
RTVSPropertyOp32
 70
     1
102
RTVSPropertyOp33
 70
     1
102
RTVSPropertyOp34
 70
     1
102
RTVSPropertyOp35
 70
     1
102
RTVSPropertyOp36
 70
     1
102
RTVSPropertyOp37
 70
     1
102
RTVSPropertyOp38
 70
     1
102
RTVSPropertyOp39
 70
     1
102
RTVSPropertyOp40
 70
     1
102
RTVSPropertyOp41
 70
     1
102
RTVSPropertyOp42
 70
     1
102
RTVSPropertyOp43
 70
     1
102
RTVSPropertyOp44
 70
     1
102
RTVSPropertyOp45
 70
     1
102
RTVSPropertyOp46
 70
     1
102
RTVSPropertyOp47
 70
     1
102
RTVSPropertyOp48
 70
     1
102
RTVSPropertyOp49
 70
     1
102
RTVSPropertyOp50
 70
     1
102
RTVSPropertyOp51
 70
     0
102
RTVSPropertyOp52
 70
     0
102
RTVSPropertyOp53
 70
     1
102
RTVSPropertyOp54
 70
     1
102
RTVSPropertyOp55
 70
     1
102
RTVSPropertyOp56
 70
     1
102
RTVSPropertyOp57
 70
     1
102
RTVSPropertyOp58
 70
     1
102
RTVSPropertyOp59
 70
     1
102
RTVSPropertyOp60
 70
     1
102
RTVSPropertyOp61
 70
     1
102
RTVSPropertyOp62
 70
     1
  0
XRECORD
  5
F7F
102
{ACAD_REACTORS
330
F7E
102
}
330
F7E
100
AcDbXrecord
280
     1
102
RTVSPost2010Prop28
280
     0
102
RTVSPost2010PropOp28
 70
     1
102
RTVSPost2010Prop29
280
     1
102
RTVSPost2010PropOp29
 70
     1
102
RTVSPost2010Prop30
280
     1
102
RTVSPost2010PropOp30
 70
     1
102
RTVSPost2010Prop31
280
     0
102
RTVSPost2010PropOp31
 70
     1
102
RTVSPost2010Prop32
280
     0
102
RTVSPost2010PropOp32
 70
     1
102
RTVSPost2010Prop33
280
     0
102
RTVSPost2010PropOp33
 70
     1
102
RTVSPost2010Prop34
280
     0
102
RTVSPost2010PropOp34
 70
     1
102
RTVSPost2010Prop35
280
     0
102
RTVSPost2010PropOp35
 70
     1
102
RTVSPost2010Prop36
280
     0
102
RTVSPost2010PropOp36
 70
     1
102
RTVSPost2010Prop37
 90
       50
102
RTVSPost2010PropOp37
 70
     1
102
RTVSPost2010Prop38
140
0.0
102
RTVSPost2010PropOp38
 70
     1
102
RTVSPost2010Prop39
140
1.0
102
RTVSPost2010PropOp39
 70
     1
102
RTVSPost2010Prop40
 90
        0
102
RTVSPost2010PropOp40
 70
     1
102
RTVSPost2010Prop41ColorIndex
 90
       18
102
RTVSPost2010Prop41ColorRGB
 90
        0
102
RTVSPost2010PropOp41
 70
     1
102
RTVSPost2010Prop42
 90
       50
102
RTVSPost2010PropOp42
 70
     1
102
RTVSPost2010Prop43
 90
        3
102
RTVSPost2010PropOp43
 70
     1
102
RTVSPost2010Prop44ColorIndex
 90
        5
102
RTVSPost2010Prop44ColorRGB
 90
      255
102
RTVSPost2010PropOp44
 70
     1
102
RTVSPost2010Prop45
280
     0
102
RTVSPost2010PropOp45
 70
     1
102
RTVSPost2010Prop46
 90
       50
102
RTVSPost2010PropOp46
 70
     1
102
RTVSPost2010Prop47
 90
       50
102
RTVSPost2010PropOp47
 70
     1
102
RTVSPost2010Prop48
 90
       50
102
RTVSPost2010PropOp48
 70
     1
102
RTVSPost2010Prop49
280
     0
102
RTVSPost2010PropOp49
 70
     1
102
RTVSPost2010Prop50
 90
       50
102
RTVSPost2010PropOp50
 70
     1
102
RTVSPost2010Prop51ColorIndex
 90
      256
102
RTVSPost2010Prop51ColorRGB
 90
-16777216
102
RTVSPost2010PropOp51
 70
     0
102
RTVSPost2010Prop52
140
1.0
102
RTVSPost2010PropOp52
 70
     0
102
RTVSPost2010Prop53
 90
        2
102
RTVSPost2010PropOp53
 70
     1
102
RTVSPost2010Prop54
  1
strokes_ogs.tif
102
RTVSPost2010PropOp54
 70
     1
102
RTVSPost2010Prop55
280
     0
102
RTVSPost2010PropOp55
 70
     1
102
RTVSPost2010Prop56
140
1.0
102
RTVSPost2010PropOp56
 70
     1
102
RTVSPost2010Prop57
140
1.0
102
RTVSPost2010PropOp57
 70
     1
102
RTVSPropertyOp0
 70
     1
102
RTVSPropertyOp1
 70
     1
102
RTVSPropertyOp2
 70
     1
102
RTVSPropertyOp3
 70
     1
102
RTVSPropertyOp4
 70
     1
102
RTVSPropertyOp5
 70
     1
102
RTVSPropertyOp6
 70
     1
102
RTVSPropertyOp7
 70
     1
102
RTVSPropertyOp8
 70
     1
102
RTVSPropertyOp9
 70
     1
102
RTVSPropertyOp10
 70
     1
102
RTVSPropertyOp11
 70
     1
102
RTVSPropertyOp12
 70
     1
102
RTVSPropertyOp13
 70
     1
102
RTVSPropertyOp14
 70
     1
102
RTVSPropertyOp15
 70
     1
102
RTVSPropertyOp16
 70
     1
102
RTVSPropertyOp17
 70
     1
102
RTVSPropertyOp18
 70
     1
102
RTVSPropertyOp19
 70
     1
102
RTVSPropertyOp20
 70
     1
102
RTVSPropertyOp21
 70
     1
102
RTVSPropertyOp22
 70
     1
102
RTVSPropertyOp23
 70
     1
102
RTVSPropertyOp24
 70
     1
102
RTVSPropertyOp25
 70
     1
102
RTVSPropertyOp26
 70
     1
102
RTVSPropertyOp27
 70
     1
102
RTVSPropertyOp28
 70
     1
102
RTVSPropertyOp29
 70
     1
102
RTVSPropertyOp30
 70
     1
102
RTVSPropertyOp31
 70
     1
102
RTVSPropertyOp32
 70
     1
102
RTVSPropertyOp33
 70
     1
102
RTVSPropertyOp34
 70
     1
102
RTVSPropertyOp35
 70
     1
102
RTVSPropertyOp36
 70
     1
102
RTVSPropertyOp37
 70
     1
102
RTVSPropertyOp38
 70
     1
102
RTVSPropertyOp39
 70
     1
102
RTVSPropertyOp40
 70
     1
102
RTVSPropertyOp41
 70
     1
102
RTVSPropertyOp42
 70
     1
102
RTVSPropertyOp43
 70
     1
102
RTVSPropertyOp44
 70
     1
102
RTVSPropertyOp45
 70
     1
102
RTVSPropertyOp46
 70
     1
102
RTVSPropertyOp47
 70
     1
102
RTVSPropertyOp48
 70
     1
102
RTVSPropertyOp49
 70
     1
102
RTVSPropertyOp50
 70
     1
102
RTVSPropertyOp51
 70
     0
102
RTVSPropertyOp52
 70
     0
102
RTVSPropertyOp53
 70
     1
102
RTVSPropertyOp54
 70
     1
102
RTVSPropertyOp55
 70
     1
102
RTVSPropertyOp56
 70
     1
102
RTVSPropertyOp57
 70
     1
102
RTVSPropertyOp58
 70
     1
102
RTVSPropertyOp59
 70
     1
102
RTVSPropertyOp60
 70
     1
102
RTVSPropertyOp61
 70
     1
102
RTVSPropertyOp62
 70
     1
  0
XRECORD
  5
F75
102
{ACAD_REACTORS
330
F74
102
}
330
F74
100
AcDbXrecord
280
     1
102
RTVSPost2010Prop28
280
     0
102
RTVSPost2010PropOp28
 70
     1
102
RTVSPost2010Prop29
280
     1
102
RTVSPost2010PropOp29
 70
     1
102
RTVSPost2010Prop30
280
     1
102
RTVSPost2010PropOp30
 70
     1
102
RTVSPost2010Prop31
280
     0
102
RTVSPost2010PropOp31
 70
     1
102
RTVSPost2010Prop32
280
     0
102
RTVSPost2010PropOp32
 70
     1
102
RTVSPost2010Prop33
280
     0
102
RTVSPost2010PropOp33
 70
     1
102
RTVSPost2010Prop34
280
     0
102
RTVSPost2010PropOp34
 70
     1
102
RTVSPost2010Prop35
280
     0
102
RTVSPost2010PropOp35
 70
     1
102
RTVSPost2010Prop36
280
     0
102
RTVSPost2010PropOp36
 70
     1
102
RTVSPost2010Prop37
 90
       50
102
RTVSPost2010PropOp37
 70
     1
102
RTVSPost2010Prop38
140
0.0
102
RTVSPost2010PropOp38
 70
     1
102
RTVSPost2010Prop39
140
1.0
102
RTVSPost2010PropOp39
 70
     1
102
RTVSPost2010Prop40
 90
        0
102
RTVSPost2010PropOp40
 70
     1
102
RTVSPost2010Prop41ColorIndex
 90
       18
102
RTVSPost2010Prop41ColorRGB
 90
        0
102
RTVSPost2010PropOp41
 70
     1
102
RTVSPost2010Prop42
 90
       50
102
RTVSPost2010PropOp42
 70
     1
102
RTVSPost2010Prop43
 90
        3
102
RTVSPost2010PropOp43
 70
     1
102
RTVSPost2010Prop44ColorIndex
 90
        5
102
RTVSPost2010Prop44ColorRGB
 90
      255
102
RTVSPost2010PropOp44
 70
     1
102
RTVSPost2010Prop45
280
     0
102
RTVSPost2010PropOp45
 70
     1
102
RTVSPost2010Prop46
 90
       50
102
RTVSPost2010PropOp46
 70
     1
102
RTVSPost2010Prop47
 90
       50
102
RTVSPost2010PropOp47
 70
     1
102
RTVSPost2010Prop48
 90
       50
102
RTVSPost2010PropOp48
 70
     1
102
RTVSPost2010Prop49
280
     0
102
RTVSPost2010PropOp49
 70
     1
102
RTVSPost2010Prop50
 90
       50
102
RTVSPost2010PropOp50
 70
     1
102
RTVSPost2010Prop51ColorIndex
 90
      256
102
RTVSPost2010Prop51ColorRGB
 90
-16777216
102
RTVSPost2010PropOp51
 70
     0
102
RTVSPost2010Prop52
140
1.0
102
RTVSPost2010PropOp52
 70
     0
102
RTVSPost2010Prop53
 90
        2
102
RTVSPost2010PropOp53
 70
     1
102
RTVSPost2010Prop54
  1
strokes_ogs.tif
102
RTVSPost2010PropOp54
 70
     1
102
RTVSPost2010Prop55
280
     0
102
RTVSPost2010PropOp55
 70
     1
102
RTVSPost2010Prop56
140
1.0
102
RTVSPost2010PropOp56
 70
     1
102
RTVSPost2010Prop57
140
1.0
102
RTVSPost2010PropOp57
 70
     1
102
RTVSPropertyOp0
 70
     1
102
RTVSPropertyOp1
 70
     1
102
RTVSPropertyOp2
 70
     1
102
RTVSPropertyOp3
 70
     1
102
RTVSPropertyOp4
 70
     1
102
RTVSPropertyOp5
 70
     1
102
RTVSPropertyOp6
 70
     1
102
RTVSPropertyOp7
 70
     1
102
RTVSPropertyOp8
 70
     1
102
RTVSPropertyOp9
 70
     1
102
RTVSPropertyOp10
 70
     1
102
RTVSPropertyOp11
 70
     1
102
RTVSPropertyOp12
 70
     1
102
RTVSPropertyOp13
 70
     1
102
RTVSPropertyOp14
 70
     1
102
RTVSPropertyOp15
 70
     1
102
RTVSPropertyOp16
 70
     1
102
RTVSPropertyOp17
 70
     1
102
RTVSPropertyOp18
 70
     1
102
RTVSPropertyOp19
 70
     1
102
RTVSPropertyOp20
 70
     1
102
RTVSPropertyOp21
 70
     1
102
RTVSPropertyOp22
 70
     1
102
RTVSPropertyOp23
 70
     1
102
RTVSPropertyOp24
 70
     1
102
RTVSPropertyOp25
 70
     1
102
RTVSPropertyOp26
 70
     1
102
RTVSPropertyOp27
 70
     1
102
RTVSPropertyOp28
 70
     1
102
RTVSPropertyOp29
 70
     1
102
RTVSPropertyOp30
 70
     1
102
RTVSPropertyOp31
 70
     1
102
RTVSPropertyOp32
 70
     1
102
RTVSPropertyOp33
 70
     1
102
RTVSPropertyOp34
 70
     1
102
RTVSPropertyOp35
 70
     1
102
RTVSPropertyOp36
 70
     1
102
RTVSPropertyOp37
 70
     1
102
RTVSPropertyOp38
 70
     1
102
RTVSPropertyOp39
 70
     1
102
RTVSPropertyOp40
 70
     1
102
RTVSPropertyOp41
 70
     1
102
RTVSPropertyOp42
 70
     1
102
RTVSPropertyOp43
 70
     1
102
RTVSPropertyOp44
 70
     1
102
RTVSPropertyOp45
 70
     1
102
RTVSPropertyOp46
 70
     1
102
RTVSPropertyOp47
 70
     1
102
RTVSPropertyOp48
 70
     1
102
RTVSPropertyOp49
 70
     1
102
RTVSPropertyOp50
 70
     1
102
RTVSPropertyOp51
 70
     0
102
RTVSPropertyOp52
 70
     0
102
RTVSPropertyOp53
 70
     1
102
RTVSPropertyOp54
 70
     1
102
RTVSPropertyOp55
 70
     1
102
RTVSPropertyOp56
 70
     1
102
RTVSPropertyOp57
 70
     1
102
RTVSPropertyOp58
 70
     1
102
RTVSPropertyOp59
 70
     1
102
RTVSPropertyOp60
 70
     1
102
RTVSPropertyOp61
 70
     1
102
RTVSPropertyOp62
 70
     1
  0
XRECORD
  5
F69
102
{ACAD_REACTORS
330
F68
102
}
330
F68
100
AcDbXrecord
280
     1
102
RTVSPost2010Prop28
280
     0
102
RTVSPost2010PropOp28
 70
     1
102
RTVSPost2010Prop29
280
     1
102
RTVSPost2010PropOp29
 70
     1
102
RTVSPost2010Prop30
280
     1
102
RTVSPost2010PropOp30
 70
     1
102
RTVSPost2010Prop31
280
     0
102
RTVSPost2010PropOp31
 70
     1
102
RTVSPost2010Prop32
280
     0
102
RTVSPost2010PropOp32
 70
     1
102
RTVSPost2010Prop33
280
     0
102
RTVSPost2010PropOp33
 70
     1
102
RTVSPost2010Prop34
280
     0
102
RTVSPost2010PropOp34
 70
     1
102
RTVSPost2010Prop35
280
     0
102
RTVSPost2010PropOp35
 70
     1
102
RTVSPost2010Prop36
280
     0
102
RTVSPost2010PropOp36
 70
     1
102
RTVSPost2010Prop37
 90
       50
102
RTVSPost2010PropOp37
 70
     1
102
RTVSPost2010Prop38
140
0.0
102
RTVSPost2010PropOp38
 70
     1
102
RTVSPost2010Prop39
140
1.0
102
RTVSPost2010PropOp39
 70
     1
102
RTVSPost2010Prop40
 90
        0
102
RTVSPost2010PropOp40
 70
     1
102
RTVSPost2010Prop41ColorIndex
 90
       18
102
RTVSPost2010Prop41ColorRGB
 90
        0
102
RTVSPost2010PropOp41
 70
     1
102
RTVSPost2010Prop42
 90
       50
102
RTVSPost2010PropOp42
 70
     1
102
RTVSPost2010Prop43
 90
        3
102
RTVSPost2010PropOp43
 70
     1
102
RTVSPost2010Prop44ColorIndex
 90
        5
102
RTVSPost2010Prop44ColorRGB
 90
      255
102
RTVSPost2010PropOp44
 70
     1
102
RTVSPost2010Prop45
280
     0
102
RTVSPost2010PropOp45
 70
     1
102
RTVSPost2010Prop46
 90
       50
102
RTVSPost2010PropOp46
 70
     1
102
RTVSPost2010Prop47
 90
       50
102
RTVSPost2010PropOp47
 70
     1
102
RTVSPost2010Prop48
 90
       50
102
RTVSPost2010PropOp48
 70
     1
102
RTVSPost2010Prop49
280
     0
102
RTVSPost2010PropOp49
 70
     1
102
RTVSPost2010Prop50
 90
       50
102
RTVSPost2010PropOp50
 70
     1
102
RTVSPost2010Prop51ColorIndex
 90
      256
102
RTVSPost2010Prop51ColorRGB
 90
-16777216
102
RTVSPost2010PropOp51
 70
     0
102
RTVSPost2010Prop52
140
1.0
102
RTVSPost2010PropOp52
 70
     0
102
RTVSPost2010Prop53
 90
        2
102
RTVSPost2010PropOp53
 70
     1
102
RTVSPost2010Prop54
  1
strokes_ogs.tif
102
RTVSPost2010PropOp54
 70
     1
102
RTVSPost2010Prop55
280
     0
102
RTVSPost2010PropOp55
 70
     1
102
RTVSPost2010Prop56
140
1.0
102
RTVSPost2010PropOp56
 70
     1
102
RTVSPost2010Prop57
140
1.0
102
RTVSPost2010PropOp57
 70
     1
102
RTVSPropertyOp0
 70
     1
102
RTVSPropertyOp1
 70
     1
102
RTVSPropertyOp2
 70
     1
102
RTVSPropertyOp3
 70
     1
102
RTVSPropertyOp4
 70
     1
102
RTVSPropertyOp5
 70
     1
102
RTVSPropertyOp6
 70
     1
102
RTVSPropertyOp7
 70
     1
102
RTVSPropertyOp8
 70
     1
102
RTVSPropertyOp9
 70
     1
102
RTVSPropertyOp10
 70
     1
102
RTVSPropertyOp11
 70
     1
102
RTVSPropertyOp12
 70
     1
102
RTVSPropertyOp13
 70
     1
102
RTVSPropertyOp14
 70
     1
102
RTVSPropertyOp15
 70
     1
102
RTVSPropertyOp16
 70
     1
102
RTVSPropertyOp17
 70
     1
102
RTVSPropertyOp18
 70
     1
102
RTVSPropertyOp19
 70
     1
102
RTVSPropertyOp20
 70
     1
102
RTVSPropertyOp21
 70
     1
102
RTVSPropertyOp22
 70
     1
102
RTVSPropertyOp23
 70
     1
102
RTVSPropertyOp24
 70
     1
102
RTVSPropertyOp25
 70
     1
102
RTVSPropertyOp26
 70
     1
102
RTVSPropertyOp27
 70
     1
102
RTVSPropertyOp28
 70
     1
102
RTVSPropertyOp29
 70
     1
102
RTVSPropertyOp30
 70
     1
102
RTVSPropertyOp31
 70
     1
102
RTVSPropertyOp32
 70
     1
102
RTVSPropertyOp33
 70
     1
102
RTVSPropertyOp34
 70
     1
102
RTVSPropertyOp35
 70
     1
102
RTVSPropertyOp36
 70
     1
102
RTVSPropertyOp37
 70
     1
102
RTVSPropertyOp38
 70
     1
102
RTVSPropertyOp39
 70
     1
102
RTVSPropertyOp40
 70
     1
102
RTVSPropertyOp41
 70
     1
102
RTVSPropertyOp42
 70
     1
102
RTVSPropertyOp43
 70
     1
102
RTVSPropertyOp44
 70
     1
102
RTVSPropertyOp45
 70
     1
102
RTVSPropertyOp46
 70
     1
102
RTVSPropertyOp47
 70
     1
102
RTVSPropertyOp48
 70
     1
102
RTVSPropertyOp49
 70
     1
102
RTVSPropertyOp50
 70
     1
102
RTVSPropertyOp51
 70
     0
102
RTVSPropertyOp52
 70
     0
102
RTVSPropertyOp53
 70
     1
102
RTVSPropertyOp54
 70
     1
102
RTVSPropertyOp55
 70
     1
102
RTVSPropertyOp56
 70
     1
102
RTVSPropertyOp57
 70
     1
102
RTVSPropertyOp58
 70
     1
102
RTVSPropertyOp59
 70
     1
102
RTVSPropertyOp60
 70
     1
102
RTVSPropertyOp61
 70
     1
102
RTVSPropertyOp62
 70
     1
  0
XRECORD
  5
F81
102
{ACAD_REACTORS
330
F80
102
}
330
F80
100
AcDbXrecord
280
     1
102
RTVSPost2010Prop28
280
     0
102
RTVSPost2010PropOp28
 70
     1
102
RTVSPost2010Prop29
280
     1
102
RTVSPost2010PropOp29
 70
     1
102
RTVSPost2010Prop30
280
     1
102
RTVSPost2010PropOp30
 70
     1
102
RTVSPost2010Prop31
280
     0
102
RTVSPost2010PropOp31
 70
     1
102
RTVSPost2010Prop32
280
     0
102
RTVSPost2010PropOp32
 70
     1
102
RTVSPost2010Prop33
280
     0
102
RTVSPost2010PropOp33
 70
     1
102
RTVSPost2010Prop34
280
     0
102
RTVSPost2010PropOp34
 70
     1
102
RTVSPost2010Prop35
280
     0
102
RTVSPost2010PropOp35
 70
     1
102
RTVSPost2010Prop36
280
     0
102
RTVSPost2010PropOp36
 70
     1
102
RTVSPost2010Prop37
 90
       50
102
RTVSPost2010PropOp37
 70
     1
102
RTVSPost2010Prop38
140
0.0
102
RTVSPost2010PropOp38
 70
     1
102
RTVSPost2010Prop39
140
1.0
102
RTVSPost2010PropOp39
 70
     1
102
RTVSPost2010Prop40
 90
        0
102
RTVSPost2010PropOp40
 70
     1
102
RTVSPost2010Prop41ColorIndex
 90
       18
102
RTVSPost2010Prop41ColorRGB
 90
        0
102
RTVSPost2010PropOp41
 70
     1
102
RTVSPost2010Prop42
 90
       50
102
RTVSPost2010PropOp42
 70
     1
102
RTVSPost2010Prop43
 90
        3
102
RTVSPost2010PropOp43
 70
     1
102
RTVSPost2010Prop44ColorIndex
 90
        5
102
RTVSPost2010Prop44ColorRGB
 90
      255
102
RTVSPost2010PropOp44
 70
     1
102
RTVSPost2010Prop45
280
     0
102
RTVSPost2010PropOp45
 70
     1
102
RTVSPost2010Prop46
 90
       50
102
RTVSPost2010PropOp46
 70
     1
102
RTVSPost2010Prop47
 90
       50
102
RTVSPost2010PropOp47
 70
     1
102
RTVSPost2010Prop48
 90
       50
102
RTVSPost2010PropOp48
 70
     1
102
RTVSPost2010Prop49
280
     0
102
RTVSPost2010PropOp49
 70
     1
102
RTVSPost2010Prop50
 90
       50
102
RTVSPost2010PropOp50
 70
     1
102
RTVSPost2010Prop51ColorIndex
 90
      256
102
RTVSPost2010Prop51ColorRGB
 90
-16777216
102
RTVSPost2010PropOp51
 70
     0
102
RTVSPost2010Prop52
140
1.0
102
RTVSPost2010PropOp52
 70
     0
102
RTVSPost2010Prop53
 90
        2
102
RTVSPost2010PropOp53
 70
     1
102
RTVSPost2010Prop54
  1
strokes_ogs.tif
102
RTVSPost2010PropOp54
 70
     1
102
RTVSPost2010Prop55
280
     0
102
RTVSPost2010PropOp55
 70
     1
102
RTVSPost2010Prop56
140
1.0
102
RTVSPost2010PropOp56
 70
     1
102
RTVSPost2010Prop57
140
1.0
102
RTVSPost2010PropOp57
 70
     1
102
RTVSPropertyOp0
 70
     1
102
RTVSPropertyOp1
 70
     1
102
RTVSPropertyOp2
 70
     1
102
RTVSPropertyOp3
 70
     1
102
RTVSPropertyOp4
 70
     1
102
RTVSPropertyOp5
 70
     1
102
RTVSPropertyOp6
 70
     1
102
RTVSPropertyOp7
 70
     1
102
RTVSPropertyOp8
 70
     1
102
RTVSPropertyOp9
 70
     1
102
RTVSPropertyOp10
 70
     1
102
RTVSPropertyOp11
 70
     1
102
RTVSPropertyOp12
 70
     1
102
RTVSPropertyOp13
 70
     1
102
RTVSPropertyOp14
 70
     1
102
RTVSPropertyOp15
 70
     1
102
RTVSPropertyOp16
 70
     1
102
RTVSPropertyOp17
 70
     1
102
RTVSPropertyOp18
 70
     1
102
RTVSPropertyOp19
 70
     1
102
RTVSPropertyOp20
 70
     1
102
RTVSPropertyOp21
 70
     1
102
RTVSPropertyOp22
 70
     1
102
RTVSPropertyOp23
 70
     1
102
RTVSPropertyOp24
 70
     1
102
RTVSPropertyOp25
 70
     1
102
RTVSPropertyOp26
 70
     1
102
RTVSPropertyOp27
 70
     1
102
RTVSPropertyOp28
 70
     1
102
RTVSPropertyOp29
 70
     1
102
RTVSPropertyOp30
 70
     1
102
RTVSPropertyOp31
 70
     1
102
RTVSPropertyOp32
 70
     1
102
RTVSPropertyOp33
 70
     1
102
RTVSPropertyOp34
 70
     1
102
RTVSPropertyOp35
 70
     1
102
RTVSPropertyOp36
 70
     1
102
RTVSPropertyOp37
 70
     1
102
RTVSPropertyOp38
 70
     1
102
RTVSPropertyOp39
 70
     1
102
RTVSPropertyOp40
 70
     1
102
RTVSPropertyOp41
 70
     1
102
RTVSPropertyOp42
 70
     1
102
RTVSPropertyOp43
 70
     1
102
RTVSPropertyOp44
 70
     1
102
RTVSPropertyOp45
 70
     1
102
RTVSPropertyOp46
 70
     1
102
RTVSPropertyOp47
 70
     1
102
RTVSPropertyOp48
 70
     1
102
RTVSPropertyOp49
 70
     1
102
RTVSPropertyOp50
 70
     1
102
RTVSPropertyOp51
 70
     0
102
RTVSPropertyOp52
 70
     0
102
RTVSPropertyOp53
 70
     1
102
RTVSPropertyOp54
 70
     1
102
RTVSPropertyOp55
 70
     1
102
RTVSPropertyOp56
 70
     1
102
RTVSPropertyOp57
 70
     1
102
RTVSPropertyOp58
 70
     1
102
RTVSPropertyOp59
 70
     1
102
RTVSPropertyOp60
 70
     1
102
RTVSPropertyOp61
 70
     1
102
RTVSPropertyOp62
 70
     1
  0
ENDSEC
  0
EOF
