  0
SECTION
  2
HEADER
  9
$ACADVER
  1
AC1018
  9
$ACADMAINTVER
 70
   104
  9
$DWGCODEPAGE
  3
ANSI_932
  9
$LASTSAVEDBY
  1
0803015
  9
$INSBASE
 10
0.0
 20
0.0
 30
0.0
  9
$EXTMIN
 10
-0.37369062
 20
-0.74670741
 30
-0.00000002
  9
$EXTMAX
 10
13750.57554181
 20
10000.68999506
 30
0.00000001
  9
$LIMMIN
 10
0.0
 20
0.0
  9
$LIMMAX
 10
420.0
 20
330.0
  9
$ORTHOMODE
 70
     1
  9
$REGENMODE
 70
     1
  9
$FILLMODE
 70
     1
  9
$QTEXTMODE
 70
     0
  9
$MIRRTEXT
 70
     0
  9
$LTSCALE
 40
1.0
  9
$ATTMODE
 70
     1
  9
$TEXTSIZE
 40
0.2
  9
$TRACEWID
 40
0.05
  9
$TEXTSTYLE
  7
STANDARD
  9
$CLAYER
  8
0
  9
$CELTYPE
  6
BYLAYER
  9
$CECOLOR
 62
   256
  9
$CELTSCALE
 40
1.0
  9
$DISPSILH
 70
     1
  9
$DIMSCALE
 40
1.0
  9
$DIMASZ
 40
0.18
  9
$DIMEXO
 40
0.0625
  9
$DIMDLI
 40
0.38
  9
$DIMRND
 40
0.0
  9
$DIMDLE
 40
0.0
  9
$DIMEXE
 40
0.18
  9
$DIMTP
 40
0.0
  9
$DIMTM
 40
0.0
  9
$DIMTXT
 40
0.18
  9
$DIMCEN
 40
0.09
  9
$DIMTSZ
 40
0.0
  9
$DIMTOL
 70
     0
  9
$DIMLIM
 70
     0
  9
$DIMTIH
 70
     1
  9
$DIMTOH
 70
     1
  9
$DIMSE1
 70
     0
  9
$DIMSE2
 70
     0
  9
$DIMTAD
 70
     0
  9
$DIMZIN
 70
     0
  9
$DIMBLK
  1

  9
$DIMASO
 70
     1
  9
$DIMSHO
 70
     0
  9
$DIMPOST
  1

  9
$DIMAPOST
  1

  9
$DIMALT
 70
     0
  9
$DIMALTD
 70
     2
  9
$DIMALTF
 40
25.4
  9
$DIMLFAC
 40
1.0
  9
$DIMTOFL
 70
     0
  9
$DIMTVP
 40
0.0
  9
$DIMTIX
 70
     0
  9
$DIMSOXD
 70
     0
  9
$DIMSAH
 70
     0
  9
$DIMBLK1
  1

  9
$DIMBLK2
  1

  9
$DIMSTYLE
  2
STANDARD
  9
$DIMCLRD
 70
     0
  9
$DIMCLRE
 70
     0
  9
$DIMCLRT
 70
     0
  9
$DIMTFAC
 40
1.0
  9
$DIMGAP
 40
0.09
  9
$DIMJUST
 70
     0
  9
$DIMSD1
 70
     0
  9
$DIMSD2
 70
     0
  9
$DIMTOLJ
 70
     1
  9
$DIMTZIN
 70
     0
  9
$DIMALTZ
 70
     0
  9
$DIMALTTZ
 70
     0
  9
$DIMUPT
 70
     0
  9
$DIMDEC
 70
     4
  9
$DIMTDEC
 70
     4
  9
$DIMALTU
 70
     2
  9
$DIMALTTD
 70
     2
  9
$DIMTXSTY
  7
STANDARD
  9
$DIMAUNIT
 70
     0
  9
$DIMADEC
 70
     0
  9
$DIMALTRND
 40
0.0
  9
$DIMAZIN
 70
     0
  9
$DIMDSEP
 70
    46
  9
$DIMATFIT
 70
     3
  9
$DIMFRAC
 70
     0
  9
$DIMLDRBLK
  1

  9
$DIMLUNIT
 70
     2
  9
$DIMLWD
 70
    -2
  9
$DIMLWE
 70
    -2
  9
$DIMTMOVE
 70
     2
  9
$LUNITS
 70
     2
  9
$LUPREC
 70
     4
  9
$SKETCHINC
 40
0.1
  9
$FILLETRAD
 40
1.0
  9
$AUNITS
 70
     0
  9
$AUPREC
 70
     0
  9
$MENU
  1
acad
  9
$ELEVATION
 40
0.0
  9
$PELEVATION
 40
0.0
  9
$THICKNESS
 40
0.0
  9
$LIMCHECK
 70
     0
  9
$CHAMFERA
 40
0.0
  9
$CHAMFERB
 40
0.0
  9
$CHAMFERC
 40
0.0
  9
$CHAMFERD
 40
0.0
  9
$SKPOLY
 70
     0
  9
$TDCREATE
 40
2452970.385810186
  9
$TDUCREATE
 40
2452970.010810185
  9
$TDUPDATE
 40
2459629.492662037
  9
$TDUUPDATE
 40
2459629.117662037
  9
$TDINDWG
 40
0.0336571759
  9
$TDUSRTIMER
 40
0.0336571759
  9
$USRTIMER
 70
     1
  9
$ANGBASE
 50
0.0
  9
$ANGDIR
 70
     0
  9
$PDMODE
 70
     0
  9
$PDSIZE
 40
0.0
  9
$PLINEWID
 40
0.0
  9
$SPLFRAME
 70
     0
  9
$SPLINETYPE
 70
     6
  9
$SPLINESEGS
 70
     8
  9
$HANDSEED
  5
E2B
  9
$SURFTAB1
 70
     6
  9
$SURFTAB2
 70
     6
  9
$SURFTYPE
 70
     6
  9
$SURFU
 70
     6
  9
$SURFV
 70
     6
  9
$UCSBASE
  2

  9
$UCSNAME
  2

  9
$UCSORG
 10
0.0
 20
0.0
 30
0.0
  9
$UCSXDIR
 10
1.0
 20
0.0
 30
0.0
  9
$UCSYDIR
 10
0.0
 20
1.0
 30
0.0
  9
$UCSORTHOREF
  2

  9
$UCSORTHOVIEW
 70
     0
  9
$UCSORGTOP
 10
0.0
 20
0.0
 30
0.0
  9
$UCSORGBOTTOM
 10
0.0
 20
0.0
 30
0.0
  9
$UCSORGLEFT
 10
0.0
 20
0.0
 30
0.0
  9
$UCSORGRIGHT
 10
0.0
 20
0.0
 30
0.0
  9
$UCSORGFRONT
 10
0.0
 20
0.0
 30
0.0
  9
$UCSORGBACK
 10
0.0
 20
0.0
 30
0.0
  9
$PUCSBASE
  2

  9
$PUCSNAME
  2

  9
$PUCSORG
 10
0.0
 20
0.0
 30
0.0
  9
$PUCSXDIR
 10
1.0
 20
0.0
 30
0.0
  9
$PUCSYDIR
 10
0.0
 20
1.0
 30
0.0
  9
$PUCSORTHOREF
  2

  9
$PUCSORTHOVIEW
 70
     0
  9
$PUCSORGTOP
 10
0.0
 20
0.0
 30
0.0
  9
$PUCSORGBOTTOM
 10
0.0
 20
0.0
 30
0.0
  9
$PUCSORGLEFT
 10
0.0
 20
0.0
 30
0.0
  9
$PUCSORGRIGHT
 10
0.0
 20
0.0
 30
0.0
  9
$PUCSORGFRONT
 10
0.0
 20
0.0
 30
0.0
  9
$PUCSORGBACK
 10
0.0
 20
0.0
 30
0.0
  9
$USERI1
 70
     0
  9
$USERI2
 70
     0
  9
$USERI3
 70
     0
  9
$USERI4
 70
     0
  9
$USERI5
 70
     0
  9
$USERR1
 40
0.0
  9
$USERR2
 40
0.0
  9
$USERR3
 40
0.0
  9
$USERR4
 40
0.0
  9
$USERR5
 40
0.0
  9
$WORLDVIEW
 70
     1
  9
$SHADEDGE
 70
     3
  9
$SHADEDIF
 70
    70
  9
$TILEMODE
 70
     1
  9
$MAXACTVP
 70
    16
  9
$PINSBASE
 10
0.0
 20
0.0
 30
0.0
  9
$PLIMCHECK
 70
     0
  9
$PEXTMIN
 10
1.00000000E+20
 20
1.00000000E+20
 30
1.00000000E+20
  9
$PEXTMAX
 10
-1.00000000E+20
 20
-1.00000000E+20
 30
-1.00000000E+20
  9
$PLIMMIN
 10
0.0
 20
0.0
  9
$PLIMMAX
 10
12.0
 20
9.0
  9
$UNITMODE
 70
     0
  9
$VISRETAIN
 70
     0
  9
$PLINEGEN
 70
     0
  9
$PSLTSCALE
 70
     0
  9
$TREEDEPTH
 70
  3020
  9
$CMLSTYLE
  2
STANDARD
  9
$CMLJUST
 70
     0
  9
$CMLSCALE
 40
1.0
  9
$PROXYGRAPHICS
 70
     1
  9
$MEASUREMENT
 70
     1
  9
$CELWEIGHT
370
    -1
  9
$ENDCAPS
280
     0
  9
$JOINSTYLE
280
     0
  9
$LWDISPLAY
290
     0
  9
$INSUNITS
 70
     0
  9
$HYPERLINKBASE
  1

  9
$STYLESHEET
  1

  9
$XEDIT
290
     1
  9
$CEPSNTYPE
380
     0
  9
$PSTYLEMODE
290
     1
  9
$FINGERPRINTGUID
  2
{CAAB3654-21F1-BD49-8A1E-EB116D500C4B}
  9
$VERSIONGUID
  2
{2CE58CC9-BAC4-A842-B5F5-F07CB84A0F22}
  9
$EXTNAMES
290
     1
  9
$PSVPSCALE
 40
0.0
  9
$OLESTARTUP
290
     0
  9
$SORTENTS
280
   127
  9
$INDEXCTL
280
     0
  9
$HIDETEXT
280
     0
  9
$XCLIPFRAME
290
     0
  9
$HALOGAP
280
     0
  9
$OBSCOLOR
 70
   257
  9
$OBSLTYPE
280
     0
  9
$INTERSECTIONDISPLAY
280
     0
  9
$INTERSECTIONCOLOR
 70
   257
  9
$DIMASSOC
280
     1
  9
$PROJECTNAME
  1

  0
ENDSEC
  0
SECTION
  2
CLASSES
  0
CLASS
  1
DICTIONARYVAR
  2
AcDbDictionaryVar
  3
ObjectDBX Classes
 90
        0
 91
        7
280
     0
281
     0
  0
CLASS
  1
ACDBDICTIONARYWDFLT
  2
AcDbDictionaryWithDefault
  3
ObjectDBX Classes
 90
        0
 91
        1
280
     1
281
     0
  0
CLASS
  1
MATERIAL
  2
AcDbMaterial
  3
ObjectDBX Classes
 90
     1153
 91
        3
280
     0
281
     0
  0
CLASS
  1
VISUALSTYLE
  2
AcDbVisualStyle
  3
ObjectDBX Classes
 90
     4095
 91
       24
280
     0
281
     0
  0
CLASS
  1
TABLESTYLE
  2
AcDbTableStyle
  3
ObjectDBX Classes
 90
     4095
 91
        1
280
     0
281
     0
  0
CLASS
  1
SCALE
  2
AcDbScale
  3
ObjectDBX Classes
 90
     1153
 91
       17
280
     0
281
     0
  0
CLASS
  1
MLEADERSTYLE
  2
AcDbMLeaderStyle
  3
ACDB_MLEADERSTYLE_CLASS
 90
     4095
 91
        1
280
     0
281
     0
  0
CLASS
  1
ACDBSECTIONVIEWSTYLE
  2
AcDbSectionViewStyle
  3
ObjectDBX Classes
 90
     1025
 91
        2
280
     0
281
     0
  0
CLASS
  1
ACDBDETAILVIEWSTYLE
  2
AcDbDetailViewStyle
  3
ObjectDBX Classes
 90
     1025
 91
        2
280
     0
281
     0
  0
CLASS
  1
RAPIDRTRENDERSETTINGS
  2
AcDbRapidRTRenderSettings
  3
ObjectDBX Classes
 90
     1024
 91
        1
280
     0
281
     0
  0
CLASS
  1
CELLSTYLEMAP
  2
AcDbCellStyleMap
  3
ObjectDBX Classes
 90
     1152
 91
        2
280
     0
281
     0
  0
CLASS
  1
MENTALRAYRENDERSETTINGS
  2
AcDbMentalRayRenderSettings
  3
SCENEOE
 90
     1024
 91
        1
280
     0
281
     0
  0
CLASS
  1
SOLID_BACKGROUND
  2
AcDbSolidBackground
  3
SCENEOE
 90
     4095
 91
        0
280
     0
281
     0
  0
CLASS
  1
NPOCOLLECTION
  2
AcDbImpNonPersistentObjectsCollection
  3
ObjectDBX Classes
 90
     1153
 91
        0
280
     0
281
     0
  0
CLASS
  1
SORTENTSTABLE
  2
AcDbSortentsTable
  3
ObjectDBX Classes
 90
        0
 91
        0
280
     0
281
     0
  0
ENDSEC
  0
SECTION
  2
TABLES
  0
TABLE
  2
VPORT
  5
16
102
{ACAD_XDICTIONARY
360
705
102
}
330
0
100
AcDbSymbolTable
 70
     1
  0
VPORT
  5
45
330
16
100
AcDbSymbolTableRecord
100
AcDbViewportTableRecord
  2
*ACTIVE
 70
     0
 10
0.0
 20
0.0
 11
1.0
 21
1.0
 12
6875.10092559
 22
4999.97164383
 13
0.0
 23
0.0
 14
1.0
 24
1.0
 15
10.0
 25
10.0
 16
0.0
 26
0.0
 36
1.0
 17
0.0
 27
0.0
 37
0.0
 40
10117.06024817
 41
2.57722008
 42
50.0
 43
0.0
 44
0.0
 50
0.0
 51
0.0
 71
     0
 72
   100
 73
     1
 74
     0
 75
     0
 76
     0
 77
     0
 78
     0
281
     0
 65
     1
110
0.0
120
0.0
130
0.0
111
1.0
121
0.0
131
0.0
112
0.0
122
1.0
132
0.0
 79
     0
146
0.0
1001
ACAD_NAV_VCDISPLAY
1070
     1
  0
ENDTAB
  0
TABLE
  2
LTYPE
  5
11
330
0
100
AcDbSymbolTable
 70
     1
  0
LTYPE
  5
12
330
11
100
AcDbSymbolTableRecord
100
AcDbLinetypeTableRecord
  2
BYBLOCK
 70
     0
  3

 72
    65
 73
     0
 40
0.0
  0
LTYPE
  5
13
330
11
100
AcDbSymbolTableRecord
100
AcDbLinetypeTableRecord
  2
BYLAYER
 70
     0
  3

 72
    65
 73
     0
 40
0.0
  0
LTYPE
  5
7
330
11
100
AcDbSymbolTableRecord
100
AcDbLinetypeTableRecord
  2
CONTINUOUS
 70
     0
  3
Solid line
 72
    65
 73
     0
 40
0.0
  0
ENDTAB
  0
TABLE
  2
LAYER
  5
E
102
{ACAD_XDICTIONARY
360
116
102
}
330
0
100
AcDbSymbolTable
 70
    11
  0
LAYER
  5
6
102
{ACAD_XDICTIONARY
360
B2
102
}
330
E
100
AcDbSymbolTableRecord
100
AcDbLayerTableRecord
  2
0
 70
     0
 62
     7
  6
CONTINUOUS
370
    -3
390
48
  0
LAYER
  5
24
102
{ACAD_XDICTIONARY
360
B4
102
}
330
E
100
AcDbSymbolTableRecord
100
AcDbLayerTableRecord
  2
YKK_F1
 70
     0
 62
     7
  6
CONTINUOUS
370
    -3
390
48
  0
LAYER
  5
103
330
E
100
AcDbSymbolTableRecord
100
AcDbLayerTableRecord
  2
YKK_A1
 70
     0
 62
     4
  6
CONTINUOUS
370
    30
390
48
1001
AcAecLayerStandard
1000

1000
姿図
  0
LAYER
  5
104
102
{ACAD_XDICTIONARY
360
105
102
}
330
E
100
AcDbSymbolTableRecord
100
AcDbLayerTableRecord
  2
YKK_B1
 70
     0
 62
     4
  6
CONTINUOUS
370
    -3
390
48
  0
LAYER
  5
106
102
{ACAD_XDICTIONARY
360
107
102
}
330
E
100
AcDbSymbolTableRecord
100
AcDbLayerTableRecord
  2
YKK_C1
 70
     0
 62
     4
  6
CONTINUOUS
370
    -3
390
48
  0
LAYER
  5
108
102
{ACAD_XDICTIONARY
360
109
102
}
330
E
100
AcDbSymbolTableRecord
100
AcDbLayerTableRecord
  2
YKK_N1
 70
     0
 62
     2
  6
CONTINUOUS
370
    -3
390
48
  0
LAYER
  5
10A
102
{ACAD_XDICTIONARY
360
10B
102
}
330
E
100
AcDbSymbolTableRecord
100
AcDbLayerTableRecord
  2
YKK_Z1
 70
     0
 62
     7
  6
CONTINUOUS
370
    -3
390
48
  0
LAYER
  5
10C
102
{ACAD_XDICTIONARY
360
10D
102
}
330
E
100
AcDbSymbolTableRecord
100
AcDbLayerTableRecord
  2
YKK_B2
 70
     0
 62
     5
  6
CONTINUOUS
370
    -3
390
48
  0
LAYER
  5
10E
102
{ACAD_XDICTIONARY
360
10F
102
}
330
E
100
AcDbSymbolTableRecord
100
AcDbLayerTableRecord
  2
YKK_C2
 70
     0
 62
     5
  6
CONTINUOUS
370
    -3
390
48
  0
LAYER
  5
110
330
E
100
AcDbSymbolTableRecord
100
AcDbLayerTableRecord
  2
YKK_B1E
 70
     2
 62
     7
  6
CONTINUOUS
370
    30
390
48
1001
AcAecLayerStandard
1000

1000
姿図
1001
AcCmTransparency
1071
        0
  0
LAYER
  5
111
330
E
100
AcDbSymbolTableRecord
100
AcDbLayerTableRecord
  2
YKK_C1E
 70
     2
 62
     7
  6
CONTINUOUS
370
    30
390
48
1001
AcAecLayerStandard
1000

1000
姿図
1001
AcCmTransparency
1071
        0
  0
ENDTAB
  0
TABLE
  2
STYLE
  5
F
330
0
100
AcDbSymbolTable
 70
     3
  0
STYLE
  5
10
330
F
100
AcDbSymbolTableRecord
100
AcDbTextStyleTableRecord
  2
STANDARD
 70
     0
 40
0.0
 41
1.0
 50
0.0
 71
     0
 42
0.2
  3
txt
  4

  0
STYLE
  5
3C
330
F
100
AcDbSymbolTableRecord
100
AcDbTextStyleTableRecord
  2
EXTFONT
 70
     0
 40
60.0
 41
1.0
 50
0.0
 71
     0
 42
60.0
  3
txt.shx
  4
EXTFONT
  0
STYLE
  5
112
330
F
100
AcDbSymbolTableRecord
100
AcDbTextStyleTableRecord
  2
MX_NOTE_STANDARD
 70
     0
 40
0.0
 41
1.0
 50
0.0
 71
     0
 42
3.0
  3
txt.shx
  4
extfont.shx
  0
ENDTAB
  0
TABLE
  2
VIEW
  5
14
330
0
100
AcDbSymbolTable
 70
     0
  0
ENDTAB
  0
TABLE
  2
UCS
  5
15
330
0
100
AcDbSymbolTable
 70
     0
  0
ENDTAB
  0
TABLE
  2
APPID
  5
18
330
0
100
AcDbSymbolTable
 70
     8
  0
APPID
  5
19
330
18
100
AcDbSymbolTableRecord
100
AcDbRegAppTableRecord
  2
ACAD
 70
     0
  0
APPID
  5
9E
330
18
100
AcDbSymbolTableRecord
100
AcDbRegAppTableRecord
  2
ACAD_NAV_VCDISPLAY
 70
     0
  0
APPID
  5
9F
330
18
100
AcDbSymbolTableRecord
100
AcDbRegAppTableRecord
  2
YKK_AP_LOCKLAYER
 70
     0
  0
APPID
  5
113
330
18
100
AcDbSymbolTableRecord
100
AcDbRegAppTableRecord
  2
AcAecLayerStandard
 70
     0
  0
APPID
  5
114
330
18
100
AcDbSymbolTableRecord
100
AcDbRegAppTableRecord
  2
YOBJCUT10427141548
 70
     0
  0
APPID
  5
115
330
18
100
AcDbSymbolTableRecord
100
AcDbRegAppTableRecord
  2
AcCmTransparency
 70
     0
  0
APPID
  5
6CE
330
18
100
AcDbSymbolTableRecord
100
AcDbRegAppTableRecord
  2
ACAD_EXEMPT_FROM_CAD_STANDARDS
 70
     0
  0
APPID
  5
73B
330
18
100
AcDbSymbolTableRecord
100
AcDbRegAppTableRecord
  2
ACAD_MLEADERVER
 70
     0
  0
ENDTAB
  0
TABLE
  2
DIMSTYLE
  5
1A
330
0
100
AcDbSymbolTable
 70
     1
100
AcDbDimStyleTable
 71
     1
340
20
  0
DIMSTYLE
105
20
330
1A
100
AcDbSymbolTableRecord
100
AcDbDimStyleTableRecord
  2
STANDARD
 70
     0
279
     2
340
10
  0
ENDTAB
  0
TABLE
  2
BLOCK_RECORD
  5
1
330
0
100
AcDbSymbolTable
 70
     0
  0
BLOCK_RECORD
  5
2
102
{ACAD_XDICTIONARY
360
3
102
}
330
1
100
AcDbSymbolTableRecord
100
AcDbBlockTableRecord
  2
*MODEL_SPACE
340
98
  0
BLOCK_RECORD
  5
9
102
{ACAD_XDICTIONARY
360
A
102
}
330
1
100
AcDbSymbolTableRecord
100
AcDbBlockTableRecord
  2
*PAPER_SPACE
340
99
  0
ENDTAB
  0
ENDSEC
  0
SECTION
  2
BLOCKS
  0
BLOCK
  5
5
330
2
100
AcDbEntity
  8
0
100
AcDbBlockBegin
  2
*MODEL_SPACE
 70
     0
 10
0.0
 20
0.0
 30
0.0
  3
*MODEL_SPACE
  1

  0
ENDBLK
  5
8
330
2
100
AcDbEntity
  8
0
100
AcDbBlockEnd
  0
BLOCK
  5
C
330
9
100
AcDbEntity
 67
     1
  8
0
100
AcDbBlockBegin
  2
*PAPER_SPACE
 70
     0
 10
0.0
 20
0.0
 30
0.0
  3
*PAPER_SPACE
  1

  0
ENDBLK
  5
D
330
9
100
AcDbEntity
 67
     1
  8
0
100
AcDbBlockEnd
  0
ENDSEC
  0
SECTION
  2
ENTITIES
  0
LINE
  5
2C
330
2
100
AcDbEntity
  8
YKK_F1
 62
     7
100
AcDbLine
 10
0.0
 20
9300.0
 30
0.0
 11
13500.0
 21
9300.0
 31
0.0
  0
LINE
  5
2D
330
2
100
AcDbEntity
  8
YKK_F1
 62
     7
100
AcDbLine
 10
0.0
 20
9525.0
 30
0.0
 11
13500.0
 21
9525.0
 31
0.0
  0
LINE
  5
32
330
2
100
AcDbEntity
  8
YKK_F1
 62
     7
100
AcDbLine
 10
0.0
 20
9750.0
 30
0.0
 11
13500.0
 21
9750.0
 31
0.0
  0
LINE
  5
33
330
2
100
AcDbEntity
  8
YKK_F1
 62
     7
100
AcDbLine
 10
0.0
 20
0.0
 30
0.0
 11
13750.0
 21
0.0
 31
0.0
  0
LINE
  5
34
330
2
100
AcDbEntity
  8
YKK_F1
 62
     7
100
AcDbLine
 10
0.0
 20
10000.0
 30
0.0
 11
13750.0
 21
10000.0
 31
0.0
  0
LINE
  5
3A
330
2
100
AcDbEntity
  8
YKK_F1
 62
     7
100
AcDbLine
 10
0.0
 20
0.0
 30
0.0
 11
0.0
 21
10000.0
 31
0.0
  0
TEXT
  5
3B
330
2
100
AcDbEntity
  8
0
100
AcDbText
 10
50.0
 20
9368.75
 30
0.0
 40
87.5
  1
新設窓W=1,690 H=1,170
  7
EXTFONT
100
AcDbText
  0
TEXT
  5
3D
330
2
100
AcDbEntity
  8
0
100
AcDbText
 10
50.0
 20
9593.75
 30
0.0
 40
87.5
  1
居室仕様 【既設窓】：引違い窓(半外付型) 例：アルミサッシ3LH-U 【新設窓】：樹脂窓 引違い窓
  7
EXTFONT
100
AcDbText
  0
TEXT
  5
3E
330
2
100
AcDbEntity
  8
0
100
AcDbText
 10
250.0
 20
9812.5
 30
0.0
 40
125.0
  1
ＭＡＤＲＸ０５　かんたんマドリモ　断熱窓　戸建用
  7
EXTFONT
100
AcDbText
  0
LINE
  5
3F
330
2
100
AcDbEntity
  8
YKK_F1
 62
     7
100
AcDbLine
 10
13500.0
 20
0.0
 30
0.0
 11
13500.0
 21
9750.0
 31
0.0
  0
LINE
  5
40
330
2
100
AcDbEntity
  8
YKK_F1
 62
     7
100
AcDbLine
 10
13750.0
 20
0.0
 30
0.0
 11
13750.0
 21
10000.0
 31
0.0
  0
TEXT
  5
7C9
330
2
100
AcDbEntity
  8
0
100
AcDbText
 10
8534.7087729
 20
9812.5
 30
0.0
 40
100.0
  1
※図面を簡略化しております。詳細につきましては、詳細図（納まり図）をご参照ください。
  7
EXTFONT
 72
     2
 11
13485.66115385
 21
9812.5
 31
0.0
100
AcDbText
  0
LINE
  5
AD1
330
2
100
AcDbEntity
  8
YKK_C2
  6
Continuous
 48
1.5
100
AcDbLine
 10
8255.0
 20
5251.25011262
 30
0.0
 11
8255.0
 21
5269.25011262
 31
0.0
  0
LINE
  5
AD2
330
2
100
AcDbEntity
  8
YKK_Z1
  6
Continuous
 48
1.5
100
AcDbLine
 10
8116.0
 20
6532.85421106
 30
0.0
 11
8104.0
 21
6532.85421106
 31
0.0
  0
LINE
  5
AD3
330
2
100
AcDbEntity
  8
YKK_Z1
  6
Continuous
 48
1.5
100
AcDbLine
 10
8112.62082723
 20
6549.75007492
 30
0.0
 11
8116.0
 21
6532.85421106
 31
0.0
  0
LINE
  5
AD4
330
2
100
AcDbEntity
  8
YKK_Z1
  6
Continuous
 48
1.5
100
AcDbLine
 10
8104.0
 20
6549.75007492
 30
0.0
 11
8104.0
 21
6532.85421106
 31
0.0
  0
LINE
  5
AD5
330
2
100
AcDbEntity
  8
YKK_Z1
  6
Continuous
 48
1.5
100
AcDbLine
 10
8085.99999981
 20
6549.75007492
 30
0.0
 11
8085.99999981
 21
6510.66071108
 31
0.0
  0
LINE
  5
AD6
330
2
100
AcDbEntity
  8
YKK_Z1
  6
Continuous
 48
1.5
100
AcDbLine
 10
8116.0
 20
5199.25243511
 30
0.0
 11
8104.0
 21
5199.25243511
 31
0.0
  0
LINE
  5
AD7
330
2
100
AcDbEntity
  8
YKK_Z1
  6
Continuous
 48
1.5
100
AcDbLine
 10
8104.0
 20
5183.60104979
 30
0.0
 11
8104.0
 21
5199.25243511
 31
0.0
  0
LINE
  5
AD8
330
2
100
AcDbEntity
  8
YKK_Z1
  6
Continuous
 48
1.5
100
AcDbLine
 10
8107.13027706
 20
5183.60104979
 30
0.0
 11
8104.0
 21
5199.25243511
 31
0.0
  0
LINE
  5
AD9
330
2
100
AcDbEntity
  8
YKK_Z1
  6
Continuous
 48
1.5
100
AcDbLine
 10
8085.99999738
 20
5183.60104979
 30
0.0
 11
8085.99999738
 21
5217.92879571
 31
0.0
  0
LINE
  5
ADA
330
2
100
AcDbEntity
  8
YKK_C2
  6
Continuous
 48
1.5
100
AcDbLine
 10
8095.0000279
 20
5217.92879571
 30
0.0
 11
8085.99999738
 21
5217.92879571
 31
0.0
  0
LINE
  5
ADB
330
2
100
AcDbEntity
  8
YKK_C2
  6
Continuous
 48
1.5
100
AcDbLine
 10
8085.99999738
 20
5217.92879571
 30
0.0
 11
8085.99999738
 21
5227.92879571
 31
0.0
  0
LINE
  5
ADC
330
2
100
AcDbEntity
  8
YKK_C2
  6
Continuous
 48
1.5
100
AcDbLine
 10
8092.97056013
 20
5217.92879571
 30
0.0
 11
8095.0000279
 21
5219.95826348
 31
0.0
  0
LINE
  5
ADD
330
2
100
AcDbEntity
  8
YKK_C2
  6
Continuous
 48
1.5
100
AcDbLine
 10
8087.31370588
 20
5217.92879571
 30
0.0
 11
8095.0000279
 21
5225.61511773
 31
0.0
  0
LINE
  5
ADE
330
2
100
AcDbEntity
  8
YKK_C2
  6
Continuous
 48
1.5
100
AcDbLine
 10
8085.99999738
 20
5222.27194146
 30
0.0
 11
8091.65685163
 21
5227.92879571
 31
0.0
  0
LINE
  5
ADF
330
2
100
AcDbEntity
  8
YKK_C2
  6
Continuous
 48
1.5
100
AcDbLine
 10
8095.0000279
 20
5217.92879571
 30
0.0
 11
8095.0000279
 21
5227.92879571
 31
0.0
  0
LINE
  5
AE0
330
2
100
AcDbEntity
  8
YKK_C2
  6
Continuous
 48
1.5
100
AcDbLine
 10
8095.0000279
 20
5227.92879571
 30
0.0
 11
8085.99999738
 21
5227.92879571
 31
0.0
  0
LINE
  5
AE1
330
2
100
AcDbEntity
  8
YKK_C2
  6
Continuous
 48
1.5
100
AcDbLine
 10
8085.99999981
 20
6500.66071108
 30
0.0
 11
8085.99999981
 21
6510.66071108
 31
0.0
  0
LINE
  5
AE2
330
2
100
AcDbEntity
  8
YKK_C2
  6
Continuous
 48
1.5
100
AcDbLine
 10
8094.46277345
 20
6502.15292198
 30
0.0
 11
8095.00003033
 21
6502.69017885
 31
0.0
  0
LINE
  5
AE3
330
2
100
AcDbEntity
  8
YKK_C2
  6
Continuous
 48
1.5
100
AcDbLine
 10
8087.59493813
 20
6500.94194091
 30
0.0
 11
8095.00003033
 21
6508.3470331
 31
0.0
  0
LINE
  5
AE4
330
2
100
AcDbEntity
  8
YKK_C2
  6
Continuous
 48
1.5
100
AcDbLine
 10
8085.99999981
 20
6505.00385684
 30
0.0
 11
8091.65685406
 21
6510.66071108
 31
0.0
  0
LINE
  5
AE5
330
2
100
AcDbEntity
  8
YKK_C2
  6
Continuous
 48
1.5
100
AcDbLine
 10
8095.00003033
 20
6502.24765458
 30
0.0
 11
8095.00003033
 21
6510.66071108
 31
0.0
  0
LINE
  5
AE6
330
2
100
AcDbEntity
  8
YKK_C2
  6
Continuous
 48
1.5
100
AcDbLine
 10
8095.00003033
 20
6510.66071108
 30
0.0
 11
8085.99999981
 21
6510.66071108
 31
0.0
  0
LINE
  5
AE7
330
2
100
AcDbEntity
  8
YKK_Z1
  6
Continuous
 48
1.5
100
AcDbLine
 10
8221.0
 20
5251.25011262
 30
0.0
 11
8145.00068665
 21
5227.25075349
 31
0.0
  0
LINE
  5
AE8
330
2
100
AcDbEntity
  8
YKK_Z1
  6
Continuous
 48
1.5
100
AcDbLine
 10
8145.0
 20
5227.25075349
 30
0.0
 11
8145.0
 21
5251.25011262
 31
0.0
  0
LINE
  5
AE9
330
2
100
AcDbEntity
  8
YKK_C2
  6
Continuous
 48
1.5
100
AcDbLine
 10
8151.1055557
 20
5269.25011262
 30
0.0
 11
8169.1055557
 21
5251.25011262
 31
0.0
  0
LINE
  5
AEA
330
2
100
AcDbEntity
  8
YKK_C2
  6
Continuous
 48
1.5
100
AcDbLine
 10
8190.70353544
 20
5269.25011262
 30
0.0
 11
8208.70353544
 21
5251.25011262
 31
0.0
  0
LINE
  5
AEB
330
2
100
AcDbEntity
  8
YKK_C2
  6
Continuous
 48
1.5
100
AcDbLine
 10
8230.30151519
 20
5269.25011262
 30
0.0
 11
8248.30151519
 21
5251.25011262
 31
0.0
  0
LINE
  5
AEC
330
2
100
AcDbEntity
  8
YKK_Z1
  6
Continuous
 48
1.5
100
AcDbLine
 10
8221.0
 20
5227.25075349
 30
0.0
 11
8221.0
 21
5251.25011262
 31
0.0
  0
LINE
  5
AED
330
2
100
AcDbEntity
  8
YKK_Z1
  6
Continuous
 48
1.5
100
AcDbLine
 10
8236.0
 20
5222.25075349
 30
0.0
 11
8223.11676544
 21
5183.60104979
 31
0.0
  0
LINE
  5
AEE
330
2
100
AcDbEntity
  8
YKK_Z1
  6
Continuous
 48
1.5
100
AcDbLine
 10
8221.0
 20
5222.25075349
 30
0.0
 11
8236.0
 21
5222.25075349
 31
0.0
  0
LINE
  5
AEF
330
2
100
AcDbEntity
  8
YKK_Z1
  6
Continuous
 48
1.5
100
AcDbLine
 10
8245.0
 20
5251.25011262
 30
0.0
 11
8245.0
 21
5183.60104979
 31
0.0
  0
LINE
  5
AF0
330
2
100
AcDbEntity
  8
YKK_Z1
  6
Continuous
 48
1.5
100
AcDbLine
 10
8236.0
 20
5251.25011262
 30
0.0
 11
8236.0
 21
5183.60104979
 31
0.0
  0
LINE
  5
AF1
330
2
100
AcDbEntity
  8
YKK_C2
  6
Continuous
 48
1.5
100
AcDbLine
 10
8133.0
 20
5269.25011262
 30
0.0
 11
8255.0
 21
5269.25011262
 31
0.0
  0
LINE
  5
AF2
330
2
100
AcDbEntity
  8
YKK_C2
  6
Continuous
 48
1.5
100
AcDbLine
 10
8133.0
 20
5251.25011262
 30
0.0
 11
8255.0
 21
5251.25011262
 31
0.0
  0
LINE
  5
AF3
330
2
100
AcDbEntity
  8
YKK_Z1
  6
Continuous
 48
1.5
100
AcDbLine
 10
8221.0
 20
5227.25075349
 30
0.0
 11
8121.4857693
 21
5184.60179747
 31
0.0
  0
LINE
  5
AF4
330
2
100
AcDbEntity
  8
YKK_Z1
  6
Continuous
 48
1.5
100
AcDbLine
 10
8116.0
 20
6509.75007492
 30
0.0
 11
8209.33333333
 21
6549.75007492
 31
0.0
  0
LINE
  5
AF5
330
2
100
AcDbEntity
  8
YKK_Z1
  6
Continuous
 48
1.5
100
AcDbLine
 10
8221.0
 20
6509.75007492
 30
0.0
 11
8221.0
 21
6549.75007492
 31
0.0
  0
LINE
  5
AF6
330
2
100
AcDbEntity
  8
YKK_Z1
  6
Continuous
 48
1.5
100
AcDbLine
 10
8116.0
 20
5227.25075349
 30
0.0
 11
8116.0
 21
5184.60179747
 31
0.0
  0
LINE
  5
AF7
330
2
100
AcDbEntity
  8
YKK_Z1
  6
Continuous
 48
1.5
100
AcDbLine
 10
8116.0
 20
5227.25075349
 30
0.0
 11
8221.0
 21
5227.25075349
 31
0.0
  0
LINE
  5
AF8
330
2
100
AcDbEntity
  8
YKK_Z1
  6
Continuous
 48
1.5
100
AcDbLine
 10
8116.0
 20
6549.75007492
 30
0.0
 11
8116.0
 21
6509.75007492
 31
0.0
  0
LINE
  5
AF9
330
2
100
AcDbEntity
  8
YKK_Z1
  6
Continuous
 48
1.5
100
AcDbLine
 10
8221.0
 20
6509.75007492
 30
0.0
 11
8116.0
 21
6509.75007492
 31
0.0
  0
LINE
  5
AFA
330
2
100
AcDbEntity
  8
YKK_Z1
  6
Continuous
 48
1.5
100
AcDbLine
 10
8221.0
 20
5183.60104979
 30
0.0
 11
8221.0
 21
5227.25075349
 31
0.0
  0
LINE
  5
AFB
330
2
100
AcDbEntity
  8
YKK_C2
  6
Continuous
 48
1.5
100
AcDbLine
 10
8255.0
 20
6478.75016647
 30
0.0
 11
8255.0
 21
6496.75016647
 31
0.0
  0
LINE
  5
AFC
330
2
100
AcDbEntity
  8
YKK_C2
  6
Continuous
 48
1.5
100
AcDbLine
 10
8151.1055557
 20
6478.75016647
 30
0.0
 11
8169.1055557
 21
6496.75016647
 31
0.0
  0
LINE
  5
AFD
330
2
100
AcDbEntity
  8
YKK_C2
  6
Continuous
 48
1.5
100
AcDbLine
 10
8190.70353544
 20
6478.75016647
 30
0.0
 11
8208.70353544
 21
6496.75016647
 31
0.0
  0
LINE
  5
AFE
330
2
100
AcDbEntity
  8
YKK_C2
  6
Continuous
 48
1.5
100
AcDbLine
 10
8230.30151519
 20
6478.75016647
 30
0.0
 11
8248.30151519
 21
6496.75016647
 31
0.0
  0
LINE
  5
AFF
330
2
100
AcDbEntity
  8
YKK_Z1
  6
Continuous
 48
1.5
100
AcDbLine
 10
8116.0
 20
6502.75007492
 30
0.0
 11
8133.0
 21
6509.75007492
 31
0.0
  0
LINE
  5
B00
330
2
100
AcDbEntity
  8
YKK_Z1
  6
Continuous
 48
1.5
100
AcDbLine
 10
8116.0
 20
6509.75007492
 30
0.0
 11
8116.0
 21
6502.75007492
 31
0.0
  0
LINE
  5
B01
330
2
100
AcDbEntity
  8
YKK_Z1
  6
Continuous
 48
1.5
100
AcDbLine
 10
8133.0
 20
6496.75016647
 30
0.0
 11
8133.0
 21
6509.75007492
 31
0.0
  0
LINE
  5
B02
330
2
100
AcDbEntity
  8
YKK_Z1
  6
Continuous
 48
1.5
100
AcDbLine
 10
8116.0
 20
6502.75007492
 30
0.0
 11
8133.0
 21
6502.75007492
 31
0.0
  0
LINE
  5
B03
330
2
100
AcDbEntity
  8
YKK_Z1
  6
Continuous
 48
1.5
100
AcDbLine
 10
8221.0
 20
6509.75016647
 30
0.0
 11
8133.0
 21
6496.75016647
 31
0.0
  0
LINE
  5
B04
330
2
100
AcDbEntity
  8
YKK_Z1
  6
Continuous
 48
1.5
100
AcDbLine
 10
8221.0
 20
6496.75016647
 30
0.0
 11
8221.0
 21
6509.75016647
 31
0.0
  0
LINE
  5
B05
330
2
100
AcDbEntity
  8
YKK_Z1
  6
Continuous
 48
1.5
100
AcDbLine
 10
8221.0
 20
6514.75007492
 30
0.0
 11
8232.66666667
 21
6549.75007492
 31
0.0
  0
LINE
  5
B06
330
2
100
AcDbEntity
  8
YKK_Z1
  6
Continuous
 48
1.5
100
AcDbLine
 10
8221.0
 20
6514.75007492
 30
0.0
 11
8236.0
 21
6514.75007492
 31
0.0
  0
LINE
  5
B07
330
2
100
AcDbEntity
  8
YKK_Z1
  6
Continuous
 48
1.5
100
AcDbLine
 10
8245.0
 20
6496.75016647
 30
0.0
 11
8245.0
 21
6549.75007492
 31
0.0
  0
LINE
  5
B08
330
2
100
AcDbEntity
  8
YKK_Z1
  6
Continuous
 48
1.5
100
AcDbLine
 10
8236.0
 20
6496.75016647
 30
0.0
 11
8236.0
 21
6549.75007492
 31
0.0
  0
LINE
  5
B09
330
2
100
AcDbEntity
  8
YKK_C2
  6
Continuous
 48
1.5
100
AcDbLine
 10
8133.0
 20
6478.75016647
 30
0.0
 11
8255.0
 21
6478.75016647
 31
0.0
  0
LINE
  5
B0A
330
2
100
AcDbEntity
  8
YKK_C2
  6
Continuous
 48
1.5
100
AcDbLine
 10
8133.0
 20
6496.75016647
 30
0.0
 11
8255.0
 21
6496.75016647
 31
0.0
  0
LINE
  5
B0B
330
2
100
AcDbEntity
  8
YKK_Z1
  6
Continuous
 48
1.5
100
AcDbLine
 10
8192.09999936
 20
5272.25009736
 30
0.0
 11
8133.50001526
 21
5269.25011262
 31
0.0
  0
LINE
  5
B0C
330
2
100
AcDbEntity
  8
YKK_Z1
  6
Continuous
 48
1.5
100
AcDbLine
 10
6226.99999999
 20
3200.0
 30
0.00000001
 11
6276.99999999
 21
3200.0
 31
0.00000001
  0
LINE
  5
B0D
330
2
100
AcDbEntity
  8
YKK_Z1
  6
Continuous
 48
1.5
100
AcDbLine
 10
6276.99999999
 20
3305.0
 30
0.00000001
 11
6226.99999999
 21
3305.0
 31
0.00000001
  0
LINE
  5
B0E
330
2
100
AcDbEntity
  8
YKK_Z1
  6
Continuous
 48
1.5
100
AcDbLine
 10
6276.99999999
 20
3255.0
 30
0.00000001
 11
6226.99999999
 21
3305.0
 31
0.00000001
  0
LINE
  5
B0F
330
2
100
AcDbEntity
  8
YKK_Z1
  6
Continuous
 48
1.5
100
AcDbLine
 10
6276.99999999
 20
3250.0
 30
0.00000001
 11
6226.99999999
 21
3200.0
 31
0.00000001
  0
LINE
  5
B10
330
2
100
AcDbEntity
  8
YKK_Z1
  6
Continuous
 48
1.5
100
AcDbLine
 10
6226.99999999
 20
3200.0
 30
0.00000001
 11
6226.99999999
 21
3305.0
 31
0.00000001
  0
LINE
  5
B11
330
2
100
AcDbEntity
  8
YKK_Z1
  6
Continuous
 48
1.5
100
AcDbLine
 10
6256.99999999
 20
3305.0
 30
0.00000001
 11
6255.4990957
 21
3305.0
 31
0.00000001
  0
LINE
  5
B12
330
2
100
AcDbEntity
  8
YKK_Z1
  6
Continuous
 48
1.5
100
AcDbLine
 10
6255.4990957
 20
3317.09996033
 30
0.00000001
 11
6276.99999999
 21
3317.09996033
 31
0.00000001
  0
LINE
  5
B13
330
2
100
AcDbEntity
  8
YKK_Z1
  6
Continuous
 48
1.5
100
AcDbLine
 10
6255.4990957
 20
3305.0
 30
0.00000001
 11
6255.4990957
 21
3317.09996033
 31
0.00000001
  0
LINE
  5
B14
330
2
100
AcDbEntity
  8
YKK_Z1
  6
Continuous
 48
1.5
100
AcDbLine
 10
6276.99999999
 20
3335.0
 30
0.00000001
 11
6225.89990424
 21
3335.0
 31
0.00000001
  0
LINE
  5
B15
330
2
100
AcDbEntity
  8
YKK_B2
  6
Continuous
 48
1.5
100
AcDbLine
 10
6225.89990424
 20
3325.99996948
 30
0.00000001
 11
6225.89990424
 21
3335.0
 31
0.00000001
  0
LINE
  5
B16
330
2
100
AcDbEntity
  8
YKK_B2
  6
Continuous
 48
1.5
100
AcDbLine
 10
6225.89990424
 20
3335.0
 30
0.00000001
 11
6215.89990424
 21
3335.0
 31
0.00000001
  0
LINE
  5
B17
330
2
100
AcDbEntity
  8
YKK_B2
  6
Continuous
 48
1.5
100
AcDbLine
 10
6225.89990424
 20
3330.85786438
 30
0.00000001
 11
6221.04200935
 21
3325.99996948
 31
0.00000001
  0
LINE
  5
B18
330
2
100
AcDbEntity
  8
YKK_B2
  6
Continuous
 48
1.5
100
AcDbLine
 10
6224.38518562
 20
3335.0
 30
0.00000001
 11
6215.89990424
 21
3326.51471863
 31
0.00000001
  0
LINE
  5
B19
330
2
100
AcDbEntity
  8
YKK_B2
  6
Continuous
 48
1.5
100
AcDbLine
 10
6218.72833137
 20
3335.0
 30
0.00000001
 11
6215.89990424
 21
3332.17157288
 31
0.00000001
  0
LINE
  5
B1A
330
2
100
AcDbEntity
  8
YKK_B2
  6
Continuous
 48
1.5
100
AcDbLine
 10
6225.89990424
 20
3325.99996948
 30
0.00000001
 11
6215.89990424
 21
3325.99996948
 31
0.00000001
  0
LINE
  5
B1B
330
2
100
AcDbEntity
  8
YKK_B2
  6
Continuous
 48
1.5
100
AcDbLine
 10
6215.89990424
 20
3325.99996948
 30
0.00000001
 11
6215.89990424
 21
3335.0
 31
0.00000001
  0
LINE
  5
B1C
330
2
100
AcDbEntity
  8
YKK_Z1
  6
Continuous
 48
1.5
100
AcDbLine
 10
4378.99999982
 20
3305.0
 30
0.00000001
 11
4400.50090411
 21
3305.0
 31
0.00000001
  0
LINE
  5
B1D
330
2
100
AcDbEntity
  8
YKK_Z1
  6
Continuous
 48
1.5
100
AcDbLine
 10
4400.50090411
 20
3317.09996033
 30
0.00000001
 11
4378.99999982
 21
3317.09996033
 31
0.00000001
  0
LINE
  5
B1E
330
2
100
AcDbEntity
  8
YKK_Z1
  6
Continuous
 48
1.5
100
AcDbLine
 10
4400.50090411
 20
3305.0
 30
0.00000001
 11
4400.50090411
 21
3317.09996033
 31
0.00000001
  0
LINE
  5
B1F
330
2
100
AcDbEntity
  8
YKK_Z1
  6
Continuous
 48
1.5
100
AcDbLine
 10
4378.99999982
 20
3335.0
 30
0.00000001
 11
4430.10009557
 21
3335.0
 31
0.00000001
  0
LINE
  5
B20
330
2
100
AcDbEntity
  8
YKK_B2
  6
Continuous
 48
1.5
100
AcDbLine
 10
4430.10009557
 20
3325.99996948
 30
0.00000001
 11
4430.10009557
 21
3335.0
 31
0.00000001
  0
LINE
  5
B21
330
2
100
AcDbEntity
  8
YKK_B2
  6
Continuous
 48
1.5
100
AcDbLine
 10
4430.10009557
 20
3335.0
 30
0.00000001
 11
4440.10009557
 21
3335.0
 31
0.00000001
  0
LINE
  5
B22
330
2
100
AcDbEntity
  8
YKK_B2
  6
Continuous
 48
1.5
100
AcDbLine
 10
4433.3011057
 20
3335.0
 30
0.00000001
 11
4430.10009557
 21
3331.79898987
 31
0.00000001
  0
LINE
  5
B23
330
2
100
AcDbEntity
  8
YKK_B2
  6
Continuous
 48
1.5
100
AcDbLine
 10
4438.95795995
 20
3335.0
 30
0.00000001
 11
4430.10009557
 21
3326.14213562
 31
0.00000001
  0
LINE
  5
B24
330
2
100
AcDbEntity
  8
YKK_B2
  6
Continuous
 48
1.5
100
AcDbLine
 10
4440.10009557
 20
3330.48528137
 30
0.00000001
 11
4435.61478368
 21
3325.99996948
 31
0.00000001
  0
LINE
  5
B25
330
2
100
AcDbEntity
  8
YKK_B2
  6
Continuous
 48
1.5
100
AcDbLine
 10
4430.10009557
 20
3325.99996948
 30
0.00000001
 11
4440.10009557
 21
3325.99996948
 31
0.00000001
  0
LINE
  5
B26
330
2
100
AcDbEntity
  8
YKK_B2
  6
Continuous
 48
1.5
100
AcDbLine
 10
4440.10009557
 20
3325.99996948
 30
0.00000001
 11
4440.10009557
 21
3335.0
 31
0.00000001
  0
LINE
  5
B27
330
2
100
AcDbEntity
  8
YKK_B2
  6
Continuous
 48
1.5
100
AcDbLine
 10
6206.0000019
 20
3251.8944443
 30
0.00000001
 11
6224.0000019
 21
3269.8944443
 31
0.00000001
  0
LINE
  5
B28
330
2
100
AcDbEntity
  8
YKK_B2
  6
Continuous
 48
1.5
100
AcDbLine
 10
6206.0000019
 20
3212.29646456
 30
0.00000001
 11
6224.0000019
 21
3230.29646456
 31
0.00000001
  0
LINE
  5
B29
330
2
100
AcDbEntity
  8
YKK_B2
  6
Continuous
 48
1.5
100
AcDbLine
 10
6206.0000019
 20
3172.69848481
 30
0.00000001
 11
6224.0000019
 21
3190.69848481
 31
0.00000001
  0
LINE
  5
B2A
330
2
100
AcDbEntity
  8
YKK_Z1
  6
Continuous
 48
1.5
100
AcDbLine
 10
6226.99999999
 20
3288.0
 30
0.00000001
 11
6224.0000019
 21
3200.0
 31
0.00000001
  0
LINE
  5
B2B
330
2
100
AcDbEntity
  8
YKK_Z1
  6
Continuous
 48
1.5
100
AcDbLine
 10
6218.99999999
 20
3288.0
 30
0.00000001
 11
6226.99999999
 21
3305.0
 31
0.00000001
  0
LINE
  5
B2C
330
2
100
AcDbEntity
  8
YKK_Z1
  6
Continuous
 48
1.5
100
AcDbLine
 10
6226.99999999
 20
3200.0
 30
0.00000001
 11
6224.0000019
 21
3200.0
 31
0.00000001
  0
LINE
  5
B2D
330
2
100
AcDbEntity
  8
YKK_Z1
  6
Continuous
 48
1.5
100
AcDbLine
 10
6276.99999999
 20
3176.0
 30
0.00000001
 11
6224.0000019
 21
3176.0
 31
0.00000001
  0
LINE
  5
B2E
330
2
100
AcDbEntity
  8
YKK_Z1
  6
Continuous
 48
1.5
100
AcDbLine
 10
6276.99999999
 20
3185.0
 30
0.00000001
 11
6224.0000019
 21
3185.0
 31
0.00000001
  0
LINE
  5
B2F
330
2
100
AcDbEntity
  8
YKK_B2
  6
Continuous
 48
1.5
100
AcDbLine
 10
6224.0000019
 20
3166.0
 30
0.00000001
 11
6206.0000019
 21
3166.0
 31
0.00000001
  0
LINE
  5
B30
330
2
100
AcDbEntity
  8
YKK_B2
  6
Continuous
 48
1.5
100
AcDbLine
 10
6224.0000019
 20
3287.99992849
 30
0.00000001
 11
6224.0000019
 21
3166.0
 31
0.00000001
  0
LINE
  5
B31
330
2
100
AcDbEntity
  8
YKK_B2
  6
Continuous
 48
1.5
100
AcDbLine
 10
6206.0000019
 20
3287.99992849
 30
0.00000001
 11
6206.0000019
 21
3166.0
 31
0.00000001
  0
LINE
  5
B32
330
2
100
AcDbEntity
  8
YKK_Z1
  6
Continuous
 48
1.5
100
AcDbLine
 10
6226.99999999
 20
3288.0
 30
0.00000001
 11
6218.99999999
 21
3288.0
 31
0.00000001
  0
LINE
  5
B33
330
2
100
AcDbEntity
  8
YKK_Z1
  6
Continuous
 48
1.5
100
AcDbLine
 10
6218.99999999
 20
3305.0
 30
0.00000001
 11
6226.99999999
 21
3305.0
 31
0.00000001
  0
LINE
  5
B34
330
2
100
AcDbEntity
  8
YKK_Z1
  6
Continuous
 48
1.5
100
AcDbLine
 10
6218.99999999
 20
3288.0
 30
0.00000001
 11
6218.99999999
 21
3305.0
 31
0.00000001
  0
LINE
  5
B35
330
2
100
AcDbEntity
  8
YKK_B2
  6
Continuous
 48
1.5
100
AcDbLine
 10
4449.99999791
 20
3251.8944443
 30
0.00000001
 11
4431.99999791
 21
3269.8944443
 31
0.00000001
  0
LINE
  5
B36
330
2
100
AcDbEntity
  8
YKK_B2
  6
Continuous
 48
1.5
100
AcDbLine
 10
4449.99999791
 20
3212.29646456
 30
0.00000001
 11
4431.99999791
 21
3230.29646456
 31
0.00000001
  0
LINE
  5
B37
330
2
100
AcDbEntity
  8
YKK_B2
  6
Continuous
 48
1.5
100
AcDbLine
 10
4449.99999791
 20
3172.69848481
 30
0.00000001
 11
4431.99999791
 21
3190.69848481
 31
0.00000001
  0
LINE
  5
B38
330
2
100
AcDbEntity
  8
YKK_Z1
  6
Continuous
 48
1.5
100
AcDbLine
 10
4431.99999791
 20
3200.0
 30
0.00000001
 11
4428.99999982
 21
3288.0
 31
0.00000001
  0
LINE
  5
B39
330
2
100
AcDbEntity
  8
YKK_Z1
  6
Continuous
 48
1.5
100
AcDbLine
 10
4428.99999982
 20
3200.0
 30
0.00000001
 11
4431.99999791
 21
3200.0
 31
0.00000001
  0
LINE
  5
B3A
330
2
100
AcDbEntity
  8
YKK_Z1
  6
Continuous
 48
1.5
100
AcDbLine
 10
4378.99999982
 20
3176.0
 30
0.00000001
 11
4431.99999791
 21
3176.0
 31
0.00000001
  0
LINE
  5
B3B
330
2
100
AcDbEntity
  8
YKK_Z1
  6
Continuous
 48
1.5
100
AcDbLine
 10
4378.99999982
 20
3185.0
 30
0.00000001
 11
4431.99999791
 21
3185.0
 31
0.00000001
  0
LINE
  5
B3C
330
2
100
AcDbEntity
  8
YKK_B2
  6
Continuous
 48
1.5
100
AcDbLine
 10
4431.99999791
 20
3166.0
 30
0.00000001
 11
4449.99999791
 21
3166.0
 31
0.00000001
  0
LINE
  5
B3D
330
2
100
AcDbEntity
  8
YKK_B2
  6
Continuous
 48
1.5
100
AcDbLine
 10
4431.99999791
 20
3287.99992849
 30
0.00000001
 11
4431.99999791
 21
3166.0
 31
0.00000001
  0
LINE
  5
B3E
330
2
100
AcDbEntity
  8
YKK_B2
  6
Continuous
 48
1.5
100
AcDbLine
 10
4449.99999791
 20
3287.99992849
 30
0.00000001
 11
4449.99999791
 21
3166.0
 31
0.00000001
  0
LINE
  5
B3F
330
2
100
AcDbEntity
  8
YKK_Z1
  6
Continuous
 48
1.5
100
AcDbLine
 10
4436.99999982
 20
3288.0
 30
0.00000001
 11
4428.99999982
 21
3305.0
 31
0.00000001
  0
LINE
  5
B40
330
2
100
AcDbEntity
  8
YKK_Z1
  6
Continuous
 48
1.5
100
AcDbLine
 10
4428.99999982
 20
3288.0
 30
0.00000001
 11
4436.99999982
 21
3288.0
 31
0.00000001
  0
LINE
  5
B41
330
2
100
AcDbEntity
  8
YKK_Z1
  6
Continuous
 48
1.5
100
AcDbLine
 10
4436.99999982
 20
3305.0
 30
0.00000001
 11
4428.99999982
 21
3305.0
 31
0.00000001
  0
LINE
  5
B42
330
2
100
AcDbEntity
  8
YKK_Z1
  6
Continuous
 48
1.5
100
AcDbLine
 10
4436.99999982
 20
3288.0
 30
0.00000001
 11
4436.99999982
 21
3305.0
 31
0.00000001
  0
LINE
  5
B43
330
2
100
AcDbEntity
  8
YKK_Z1
  6
Continuous
 48
1.5
100
AcDbLine
 10
4378.99999982
 20
3200.0
 30
0.00000001
 11
4428.99999982
 21
3200.0
 31
0.00000001
  0
LINE
  5
B44
330
2
100
AcDbEntity
  8
YKK_Z1
  6
Continuous
 48
1.5
100
AcDbLine
 10
4378.99999982
 20
3250.0
 30
0.00000001
 11
4428.99999982
 21
3200.0
 31
0.00000001
  0
LINE
  5
B45
330
2
100
AcDbEntity
  8
YKK_Z1
  6
Continuous
 48
1.5
100
AcDbLine
 10
4428.99999982
 20
3305.0
 30
0.00000001
 11
4428.99999982
 21
3200.0
 31
0.00000001
  0
LINE
  5
B46
330
2
100
AcDbEntity
  8
YKK_Z1
  6
Continuous
 48
1.5
100
AcDbLine
 10
4378.99999982
 20
3255.0
 30
0.00000001
 11
4428.99999982
 21
3305.0
 31
0.00000001
  0
LINE
  5
B47
330
2
100
AcDbEntity
  8
YKK_Z1
  6
Continuous
 48
1.5
100
AcDbLine
 10
4428.99999982
 20
3305.0
 30
0.00000001
 11
4398.99999982
 21
3305.0
 31
0.00000001
  0
LINE
  5
B48
330
2
100
AcDbEntity
  8
YKK_Z1
  6
Continuous
 48
1.5
100
AcDbLine
 10
4449.99999842
 20
3254.49993341
 30
0.0
 11
4478.69999999
 21
3209.99993341
 31
0.0
  0
LINE
  5
B49
330
2
100
AcDbEntity
  8
YKK_Z1
  6
Continuous
 48
1.5
100
AcDbLine
 10
6206.00000156
 20
3254.49993341
 30
0.0
 11
6177.29985594
 21
3209.99993341
 31
0.0
  0
LINE
  5
B4A
330
2
100
AcDbEntity
  8
YKK_Z1
  6
Continuous
 48
1.5
100
AcDbLine
 10
4449.99999842
 20
3287.99992655
 30
0.0
 11
4457.99999999
 21
3254.49993341
 31
0.0
  0
LINE
  5
B4B
330
2
100
AcDbEntity
  8
YKK_Z1
  6
Continuous
 48
1.5
100
AcDbLine
 10
6206.0000019
 20
3287.99992849
 30
0.00000001
 11
6197.99999999
 21
3254.49993341
 31
0.0
  0
LINE
  5
B4C
330
2
100
AcDbEntity
  8
YKK_Z1
  6
Continuous
 48
1.5
100
AcDbLine
 10
8211.0
 20
5273.75012021
 30
0.0
 11
8192.09999936
 21
5269.25011262
 31
0.0
  0
LINE
  5
B4D
330
2
100
AcDbEntity
  8
YKK_Z1
  6
Continuous
 48
1.5
100
AcDbLine
 10
8178.2
 20
6478.75016647
 30
0.0
 11
8133.0
 21
6475.75018221
 31
0.0
  0
LINE
  5
B4E
330
2
100
AcDbEntity
  8
YKK_Z1
  6
Continuous
 48
1.5
100
AcDbLine
 10
8210.50252532
 20
6478.75016647
 30
0.0
 11
8147.55249748
 21
6465.7501204
 31
0.0
  0
LINE
  5
B4F
330
2
100
AcDbEntity
  8
YKK_Z1
  6
Continuous
 48
1.5
100
AcDbLine
 10
8178.2
 20
6478.75016647
 30
0.0
 11
8178.2
 21
6474.15012021
 31
0.0
  0
LINE
  5
B50
330
2
100
AcDbEntity
  8
YKK_Z1
  6
Continuous
 48
1.5
100
AcDbLine
 10
8178.2
 20
6474.15012021
 30
0.0
 11
8147.55249748
 21
6474.15012021
 31
0.0
  0
LINE
  5
B51
330
2
100
AcDbEntity
  8
YKK_B2
100
AcDbLine
 10
4449.99999791
 20
3166.0
 30
0.0
 11
6206.0000019
 21
3166.0
 31
0.0
  0
LINE
  5
B52
330
2
100
AcDbEntity
  8
YKK_C2
100
AcDbLine
 10
8255.0
 20
5269.25011262
 30
0.0
 11
8255.0
 21
6478.75016647
 31
0.0
  0
LINE
  5
B53
330
2
100
AcDbEntity
  8
YKK_Z1
  6
Continuous
 48
1.5
100
AcDbLine
 10
8192.09999936
 20
5269.25011262
 30
0.0
 11
8133.50001526
 21
5269.25011262
 31
0.0
  0
LINE
  5
B54
330
2
100
AcDbEntity
  8
YKK_Z1
  6
Continuous
 48
1.5
100
AcDbLine
 10
8133.50001526
 20
5269.25011262
 30
0.0
 11
8133.50001526
 21
5272.25009736
 31
0.0
  0
LINE
  5
B55
330
2
100
AcDbEntity
  8
YKK_Z1
  6
Continuous
 48
1.5
100
AcDbLine
 10
8133.50001526
 20
5272.25009736
 30
0.0
 11
8192.09999936
 21
5272.25009736
 31
0.0
  0
LINE
  5
B56
330
2
100
AcDbEntity
  8
YKK_Z1
  6
Continuous
 48
1.5
100
AcDbLine
 10
8192.09999936
 20
5272.25009736
 30
0.0
 11
8192.09999936
 21
5269.25011262
 31
0.0
  0
LINE
  5
B57
330
2
100
AcDbEntity
  8
YKK_Z1
  6
Continuous
 48
1.5
100
AcDbLine
 10
4449.99999842
 20
3254.49993341
 30
0.0
 11
4478.69999999
 21
3254.49993341
 31
0.0
  0
LINE
  5
B58
330
2
100
AcDbEntity
  8
YKK_Z1
  6
Continuous
 48
1.5
100
AcDbLine
 10
4478.69999999
 20
3254.49993341
 30
0.0
 11
4478.69999999
 21
3209.99993341
 31
0.0
  0
LINE
  5
B59
330
2
100
AcDbEntity
  8
YKK_Z1
  6
Continuous
 48
1.5
100
AcDbLine
 10
4478.69999999
 20
3209.99993341
 30
0.0
 11
4449.99999842
 21
3209.99993341
 31
0.0
  0
LINE
  5
B5A
330
2
100
AcDbEntity
  8
YKK_Z1
  6
Continuous
 48
1.5
100
AcDbLine
 10
4449.99999842
 20
3209.99993341
 30
0.0
 11
4449.99999842
 21
3254.49993341
 31
0.0
  0
LINE
  5
B5B
330
2
100
AcDbEntity
  8
YKK_Z1
  6
Continuous
 48
1.5
100
AcDbLine
 10
6206.0000019
 20
3254.49993341
 30
0.0
 11
6177.29985594
 21
3254.49993341
 31
0.0
  0
LINE
  5
B5C
330
2
100
AcDbEntity
  8
YKK_Z1
  6
Continuous
 48
1.5
100
AcDbLine
 10
6177.29985594
 20
3254.49993341
 30
0.0
 11
6177.29985594
 21
3209.99993341
 31
0.0
  0
LINE
  5
B5D
330
2
100
AcDbEntity
  8
YKK_Z1
  6
Continuous
 48
1.5
100
AcDbLine
 10
6177.29985594
 20
3209.99993341
 30
0.0
 11
6206.0000019
 21
3209.99993341
 31
0.0
  0
LINE
  5
B5E
330
2
100
AcDbEntity
  8
YKK_Z1
  6
Continuous
 48
1.5
100
AcDbLine
 10
6206.0000019
 20
3209.99993341
 30
0.0
 11
6206.0000019
 21
3254.49993341
 31
0.0
  0
LINE
  5
B5F
330
2
100
AcDbEntity
  8
YKK_Z1
  6
Continuous
 48
1.5
100
AcDbLine
 10
4449.99999842
 20
3287.99992655
 30
0.0
 11
4457.99999999
 21
3287.99992655
 31
0.0
  0
LINE
  5
B60
330
2
100
AcDbEntity
  8
YKK_Z1
  6
Continuous
 48
1.5
100
AcDbLine
 10
4457.99999999
 20
3287.99992655
 30
0.0
 11
4457.99999999
 21
3254.49993341
 31
0.0
  0
LINE
  5
B61
330
2
100
AcDbEntity
  8
YKK_Z1
  6
Continuous
 48
1.5
100
AcDbLine
 10
4457.99999999
 20
3254.49993341
 30
0.0
 11
4449.99999842
 21
3254.49993341
 31
0.0
  0
LINE
  5
B62
330
2
100
AcDbEntity
  8
YKK_Z1
  6
Continuous
 48
1.5
100
AcDbLine
 10
4449.99999842
 20
3254.49993341
 30
0.0
 11
4449.99999842
 21
3287.99992655
 31
0.0
  0
LINE
  5
B63
330
2
100
AcDbEntity
  8
YKK_Z1
  6
Continuous
 48
1.5
100
AcDbLine
 10
6206.00000156
 20
3287.99999979
 30
0.0
 11
6197.99999999
 21
3287.99999979
 31
0.0
  0
LINE
  5
B64
330
2
100
AcDbEntity
  8
YKK_Z1
  6
Continuous
 48
1.5
100
AcDbLine
 10
6197.99999999
 20
3287.99999979
 30
0.0
 11
6197.99999999
 21
3254.49993341
 31
0.0
  0
LINE
  5
B65
330
2
100
AcDbEntity
  8
YKK_Z1
  6
Continuous
 48
1.5
100
AcDbLine
 10
6197.99999999
 20
3254.49993341
 30
0.0
 11
6206.00000156
 21
3254.49993341
 31
0.0
  0
LINE
  5
B66
330
2
100
AcDbEntity
  8
YKK_Z1
  6
Continuous
 48
1.5
100
AcDbLine
 10
6206.00000156
 20
3254.49993341
 30
0.0
 11
6206.00000156
 21
3287.99999979
 31
0.0
  0
LINE
  5
B67
330
2
100
AcDbEntity
  8
YKK_Z1
  6
Continuous
 48
1.5
100
AcDbLine
 10
8192.09999936
 20
5273.75012021
 30
0.0
 11
8211.0
 21
5273.75012021
 31
0.0
  0
LINE
  5
B68
330
2
100
AcDbEntity
  8
YKK_Z1
  6
Continuous
 48
1.5
100
AcDbLine
 10
8211.0
 20
5273.75012021
 30
0.0
 11
8211.0
 21
5269.25011262
 31
0.0
  0
LINE
  5
B69
330
2
100
AcDbEntity
  8
YKK_Z1
  6
Continuous
 48
1.5
100
AcDbLine
 10
8211.0
 20
5269.25011262
 30
0.0
 11
8192.09999936
 21
5269.25011262
 31
0.0
  0
LINE
  5
B6A
330
2
100
AcDbEntity
  8
YKK_Z1
  6
Continuous
 48
1.5
100
AcDbLine
 10
8192.09999936
 20
5269.25011262
 30
0.0
 11
8192.09999936
 21
5273.75012021
 31
0.0
  0
LINE
  5
B6B
330
2
100
AcDbEntity
  8
YKK_Z1
  6
Continuous
 48
1.5
100
AcDbLine
 10
8133.0
 20
6478.75016647
 30
0.0
 11
8178.2
 21
6478.75016647
 31
0.0
  0
LINE
  5
B6C
330
2
100
AcDbEntity
  8
YKK_Z1
  6
Continuous
 48
1.5
100
AcDbLine
 10
8178.2
 20
6478.75016647
 30
0.0
 11
8178.2
 21
6475.75012021
 31
0.0
  0
LINE
  5
B6D
330
2
100
AcDbEntity
  8
YKK_Z1
  6
Continuous
 48
1.5
100
AcDbLine
 10
8178.2
 20
6475.75012021
 30
0.0
 11
8133.0
 21
6475.75012021
 31
0.0
  0
LINE
  5
B6E
330
2
100
AcDbEntity
  8
YKK_Z1
  6
Continuous
 48
1.5
100
AcDbLine
 10
8133.0
 20
6475.75012021
 30
0.0
 11
8133.0
 21
6478.75016647
 31
0.0
  0
LINE
  5
B6F
330
2
100
AcDbEntity
  8
YKK_Z1
  6
Continuous
 48
1.5
100
AcDbLine
 10
8147.55249748
 20
6478.75016647
 30
0.0
 11
8211.0
 21
6478.75016647
 31
0.0
  0
LINE
  5
B70
330
2
100
AcDbEntity
  8
YKK_Z1
  6
Continuous
 48
1.5
100
AcDbLine
 10
8211.0
 20
6478.75016647
 30
0.0
 11
8211.0
 21
6465.7501204
 31
0.0
  0
LINE
  5
B71
330
2
100
AcDbEntity
  8
YKK_Z1
  6
Continuous
 48
1.5
100
AcDbLine
 10
8211.0
 20
6465.7501204
 30
0.0
 11
8147.55249748
 21
6465.7501204
 31
0.0
  0
LINE
  5
B72
330
2
100
AcDbEntity
  8
YKK_Z1
  6
Continuous
 48
1.5
100
AcDbLine
 10
8147.55249748
 20
6465.7501204
 30
0.0
 11
8147.55249748
 21
6474.15012021
 31
0.0
  0
LINE
  5
B73
330
2
100
AcDbEntity
  8
YKK_C2
  6
Continuous
 48
1.5
100
AcDbLine
 10
8218.0
 20
5269.25011262
 30
0.0
 11
8218.0
 21
5276.25011262
 31
0.0
  0
LINE
  5
B74
330
2
100
AcDbEntity
  8
YKK_C2
  6
Continuous
 48
1.5
100
AcDbLine
 10
8218.0
 20
5276.25011262
 30
0.0
 11
8225.0
 21
5269.25011262
 31
0.0
  0
LINE
  5
B75
330
2
100
AcDbEntity
  8
YKK_C2
  6
Continuous
 48
1.5
100
AcDbLine
 10
8225.0
 20
5269.25011262
 30
0.0
 11
8218.0
 21
5269.25011262
 31
0.0
  0
LINE
  5
B76
330
2
100
AcDbEntity
  8
YKK_C2
  6
Continuous
 48
1.5
100
AcDbLine
 10
8218.0
 20
5275.33927624
 30
0.0
 11
8218.45541819
 21
5275.79469443
 31
0.0
  0
LINE
  5
B77
330
2
100
AcDbEntity
  8
YKK_C2
  6
Continuous
 48
1.5
100
AcDbLine
 10
8218.0
 20
5269.68242199
 30
0.0
 11
8221.28384531
 21
5272.96626731
 31
0.0
  0
LINE
  5
B78
330
2
100
AcDbEntity
  8
YKK_C2
  6
Continuous
 48
1.5
100
AcDbLine
 10
8223.22454487
 20
5269.25011262
 30
0.0
 11
8224.11227244
 21
5270.13784018
 31
0.0
  0
LINE
  5
B79
330
2
100
AcDbEntity
  8
YKK_C2
  6
Continuous
 48
1.5
100
AcDbLine
 10
8218.0
 20
6478.75016647
 30
0.0
 11
8218.0
 21
6471.75016647
 31
0.0
  0
LINE
  5
B7A
330
2
100
AcDbEntity
  8
YKK_C2
  6
Continuous
 48
1.5
100
AcDbLine
 10
8218.0
 20
6471.75016647
 30
0.0
 11
8225.0
 21
6478.75016647
 31
0.0
  0
LINE
  5
B7B
330
2
100
AcDbEntity
  8
YKK_C2
  6
Continuous
 48
1.5
100
AcDbLine
 10
8225.0
 20
6478.75016647
 30
0.0
 11
8218.0
 21
6478.75016647
 31
0.0
  0
LINE
  5
B7C
330
2
100
AcDbEntity
  8
YKK_C2
  6
Continuous
 48
1.5
100
AcDbLine
 10
8218.0
 20
6478.40839559
 30
0.0
 11
8218.34177088
 21
6478.75016647
 31
0.0
  0
LINE
  5
B7D
330
2
100
AcDbEntity
  8
YKK_C2
  6
Continuous
 48
1.5
100
AcDbLine
 10
8218.0
 20
6475.57996847
 30
0.0
 11
8221.170198
 21
6478.75016647
 31
0.0
  0
LINE
  5
B7E
330
2
100
AcDbEntity
  8
YKK_C2
  6
Continuous
 48
1.5
100
AcDbLine
 10
8218.0
 20
6472.75154134
 30
0.0
 11
8223.99862513
 21
6478.75016647
 31
0.0
  0
LINE
  5
B7F
330
2
100
AcDbEntity
  8
YKK_B2
  6
Continuous
 48
1.5
100
AcDbLine
 10
4449.99999791
 20
3202.99993341
 30
0.0
 11
4456.99999791
 21
3202.99993341
 31
0.0
  0
LINE
  5
B80
330
2
100
AcDbEntity
  8
YKK_B2
  6
Continuous
 48
1.5
100
AcDbLine
 10
4456.99999791
 20
3202.99993341
 30
0.0
 11
4449.99999791
 21
3195.99993341
 31
0.0
  0
LINE
  5
B81
330
2
100
AcDbEntity
  8
YKK_B2
  6
Continuous
 48
1.5
100
AcDbLine
 10
4449.99999791
 20
3195.99993341
 30
0.0
 11
4449.99999791
 21
3202.99993341
 31
0.0
  0
LINE
  5
B82
330
2
100
AcDbEntity
  8
YKK_B2
  6
Continuous
 48
1.5
100
AcDbLine
 10
4449.99999791
 20
3201.94515578
 30
0.0
 11
4451.05477554
 21
3202.99993341
 31
0.0
  0
LINE
  5
B83
330
2
100
AcDbEntity
  8
YKK_B2
  6
Continuous
 48
1.5
100
AcDbLine
 10
4449.99999791
 20
3199.11672866
 30
0.0
 11
4453.88320267
 21
3202.99993341
 31
0.0
  0
LINE
  5
B84
330
2
100
AcDbEntity
  8
YKK_B2
  6
Continuous
 48
1.5
100
AcDbLine
 10
4449.99999791
 20
3196.28830153
 30
0.0
 11
4456.71162979
 21
3202.99993341
 31
0.0
  0
LINE
  5
B85
330
2
100
AcDbEntity
  8
YKK_B2
  6
Continuous
 48
1.5
100
AcDbLine
 10
6206.00000207
 20
3202.99993341
 30
0.0
 11
6199.00000207
 21
3202.99993341
 31
0.0
  0
LINE
  5
B86
330
2
100
AcDbEntity
  8
YKK_B2
  6
Continuous
 48
1.5
100
AcDbLine
 10
6199.00000207
 20
3202.99993341
 30
0.0
 11
6206.00000207
 21
3195.99993341
 31
0.0
  0
LINE
  5
B87
330
2
100
AcDbEntity
  8
YKK_B2
  6
Continuous
 48
1.5
100
AcDbLine
 10
6206.00000207
 20
3195.99993341
 30
0.0
 11
6206.00000207
 21
3202.99993341
 31
0.0
  0
LINE
  5
B88
330
2
100
AcDbEntity
  8
YKK_B2
  6
Continuous
 48
1.5
100
AcDbLine
 10
6200.24268428
 20
3201.7572512
 30
0.0
 11
6201.48536649
 21
3202.99993341
 31
0.0
  0
LINE
  5
B89
330
2
100
AcDbEntity
  8
YKK_B2
  6
Continuous
 48
1.5
100
AcDbLine
 10
6203.07111141
 20
3198.92882407
 30
0.0
 11
6206.00000207
 21
3201.85771473
 31
0.0
  0
LINE
  5
B8A
330
2
100
AcDbEntity
  8
YKK_B2
  6
Continuous
 48
1.5
100
AcDbLine
 10
6205.89953853
 20
3196.10039695
 30
0.0
 11
6206.00000207
 21
3196.20086048
 31
0.0
  0
LINE
  5
B8B
330
2
100
AcDbEntity
  8
YKK_B1
  6
Continuous
370
    13
100
AcDbLine
 10
4470.19999998
 20
3298.18521478
 30
0.0
 11
4476.61471861
 21
3304.5999334
 31
0.0
  0
LINE
  5
B8C
330
2
100
AcDbEntity
  8
YKK_B1
  6
Continuous
370
    13
100
AcDbLine
 10
4470.19999998
 20
3292.52836053
 30
0.0
 11
4477.99999998
 21
3300.32836053
 31
0.0
  0
LINE
  5
B8D
330
2
100
AcDbEntity
  8
YKK_B1
  6
Continuous
370
    13
100
AcDbLine
 10
4472.1284271
 20
3288.7999334
 30
0.0
 11
4477.99999998
 21
3294.67150628
 31
0.0
  0
LINE
  5
B8E
330
2
100
AcDbEntity
  8
YKK_C1E
100
AcDbLine
 10
8116.0000001
 20
6522.75010509
 30
0.0
 11
8116.0000001
 21
6505.95050498
 31
0.0
  0
LINE
  5
B8F
330
2
100
AcDbEntity
  8
YKK_C1E
100
AcDbLine
 10
8116.0000001
 20
6505.95050498
 30
0.0
 11
8078.0000001
 21
6499.2500997
 31
0.0
  0
LINE
  5
B90
330
2
100
AcDbEntity
  8
YKK_C1E
100
AcDbLine
 10
8078.0000001
 20
6499.2500997
 30
0.0
 11
8078.0000001
 21
6477.75012009
 31
0.0
  0
LINE
  5
B91
330
2
100
AcDbEntity
  8
YKK_C1E
100
AcDbLine
 10
8133.0000001
 20
6475.75018209
 30
0.0
 11
8133.0000001
 21
6502.75007509
 31
0.0
  0
LINE
  5
B92
330
2
100
AcDbEntity
  8
YKK_C1E
100
AcDbLine
 10
8106.9999391
 20
6504.36355613
 30
0.0
 11
8106.9999391
 21
6497.70011709
 31
0.0
  0
LINE
  5
B93
330
2
100
AcDbEntity
  8
YKK_C1E
100
AcDbLine
 10
8106.9999391
 20
6497.70011709
 30
0.0
 11
8133.0000001
 21
6497.70011709
 31
0.0
  0
LINE
  5
B94
330
2
100
AcDbEntity
  8
YKK_C1E
100
AcDbLine
 10
8119.00009323
 20
6475.7501171
 30
0.0
 11
8119.00009323
 21
6497.70011709
 31
0.0
  0
LINE
  5
B95
330
2
100
AcDbEntity
  8
YKK_C1E
100
AcDbLine
 10
8094.00007186
 20
6475.75012009
 30
0.0
 11
8094.00007186
 21
6502.07133563
 31
0.0
  0
LINE
  5
B96
330
2
100
AcDbEntity
  8
YKK_C1E
100
AcDbLine
 10
8145.0
 20
5227.25075349
 30
0.0
 11
8116.0
 21
5227.25075349
 31
0.0
  0
LINE
  5
B97
330
2
100
AcDbEntity
  8
YKK_C1E
100
AcDbLine
 10
8133.50001526
 20
5272.25010569
 30
0.0
 11
8133.50001526
 21
5227.25075349
 31
0.0
  0
LINE
  5
B98
330
2
100
AcDbEntity
  8
YKK_C1E
100
AcDbLine
 10
8115.9999999
 20
5212.25074519
 30
0.0
 11
8116.00000002
 21
5230.25072468
 31
0.0
  0
LINE
  5
B99
330
2
100
AcDbEntity
  8
YKK_C1E
100
AcDbLine
 10
8116.00000002
 20
5230.25072468
 30
0.0
 11
8078.0000759
 21
5230.25072468
 31
0.0
  0
LINE
  5
B9A
330
2
100
AcDbEntity
  8
YKK_C1E
100
AcDbLine
 10
8078.0000759
 20
5235.25022619
 30
0.0
 11
8078.0000759
 21
5223.25009519
 31
0.0
  0
LINE
  5
B9B
330
2
100
AcDbEntity
  8
YKK_C1E
100
AcDbLine
 10
8094.00030287
 20
5249.25016116
 30
0.0
 11
8094.00030287
 21
5230.25072468
 31
0.0
  0
LINE
  5
B9C
330
2
100
AcDbEntity
  8
YKK_C1E
100
AcDbLine
 10
8110.7000119
 20
5253.00915686
 30
0.0
 11
8133.50001526
 21
5253.00915686
 31
0.0
  0
LINE
  5
B9D
330
2
100
AcDbEntity
  8
YKK_C1E
100
AcDbLine
 10
8094.00030287
 20
5241.29901693
 30
0.0
 11
8110.7000119
 21
5241.29901693
 31
0.0
  0
LINE
  5
B9E
330
2
100
AcDbEntity
  8
YKK_C1E
100
AcDbLine
 10
8110.7000119
 20
5253.00915686
 30
0.0
 11
8110.7000119
 21
5241.29901693
 31
0.0
  0
LINE
  5
B9F
330
2
100
AcDbEntity
  8
YKK_C1E
100
AcDbLine
 10
8117.6000059
 20
5272.25016419
 30
0.0
 11
8117.6000059
 21
5253.00915686
 31
0.0
  0
LINE
  5
BA0
330
2
100
AcDbEntity
  8
YKK_C1
100
AcDbLine
 10
8072.0
 20
6499.25009982
 30
0.0
 11
8071.99999999
 21
6443.25010018
 31
0.0
  0
LINE
  5
BA1
330
2
100
AcDbEntity
  8
YKK_C1
100
AcDbLine
 10
8071.99999999
 20
6443.25010018
 30
0.0
 11
8089.00001266
 21
6443.25010018
 31
0.0
  0
LINE
  5
BA2
330
2
100
AcDbEntity
  8
YKK_C1
100
AcDbLine
 10
8181.00001266
 20
6448.75012033
 30
0.0
 11
8088.99999603
 21
6448.75012033
 31
0.0
  0
LINE
  5
BA3
330
2
100
AcDbEntity
  8
YKK_C1
100
AcDbLine
 10
8088.99999603
 20
6448.75012033
 30
0.0
 11
8088.99999603
 21
6398.75011979
 31
0.0
  0
LINE
  5
BA4
330
2
100
AcDbEntity
  8
YKK_C1
100
AcDbLine
 10
8210.99999999
 20
6465.75012016
 30
0.0
 11
8147.49999999
 21
6465.75012059
 31
0.0
  0
LINE
  5
BA5
330
2
100
AcDbEntity
  8
YKK_C1
100
AcDbLine
 10
8147.49999999
 20
6465.75012059
 30
0.0
 11
8109.00000105
 21
6451.85012021
 31
0.0
  0
LINE
  5
BA6
330
2
100
AcDbEntity
  8
YKK_C1
100
AcDbLine
 10
8109.00000105
 20
6451.85012021
 30
0.0
 11
8088.99999999
 21
6451.85012021
 31
0.0
  0
LINE
  5
BA7
330
2
100
AcDbEntity
  8
YKK_C1
100
AcDbLine
 10
8088.99999999
 20
6465.75012021
 30
0.0
 11
8088.99999999
 21
6448.75012033
 31
0.0
  0
LINE
  5
BA8
330
2
100
AcDbEntity
  8
YKK_C1
100
AcDbLine
 10
8147.49999999
 20
6465.75012021
 30
0.0
 11
8147.49999999
 21
6448.75012033
 31
0.0
  0
LINE
  5
BA9
330
2
100
AcDbEntity
  8
YKK_C1
100
AcDbLine
 10
8163.29999999
 20
6448.75011979
 30
0.0
 11
8163.29999999
 21
6465.75011966
 31
0.0
  0
LINE
  5
BAA
330
2
100
AcDbEntity
  8
YKK_C1
100
AcDbLine
 10
8163.29999999
 20
6457.95012021
 30
0.0
 11
8147.49999999
 21
6457.95012021
 31
0.0
  0
LINE
  5
BAB
330
2
100
AcDbEntity
  8
YKK_C1
100
AcDbLine
 10
8181.00001266
 20
6397.75011979
 30
0.0
 11
8181.00001266
 21
6448.75012033
 31
0.0
  0
LINE
  5
BAC
330
2
100
AcDbEntity
  8
YKK_C1
100
AcDbLine
 10
8181.00001266
 20
6448.75012033
 30
0.0
 11
8180.99999999
 21
6465.75012021
 31
0.0
  0
LINE
  5
BAD
330
2
100
AcDbEntity
  8
YKK_C1
100
AcDbLine
 10
8181.00001266
 20
6418.75011979
 30
0.0
 11
8196.00001266
 21
6418.75011979
 31
0.0
  0
LINE
  5
BAE
330
2
100
AcDbEntity
  8
YKK_C1
100
AcDbLine
 10
8196.00001266
 20
6418.75011979
 30
0.0
 11
8196.00001266
 21
6421.25011979
 31
0.0
  0
LINE
  5
BAF
330
2
100
AcDbEntity
  8
YKK_C1
100
AcDbLine
 10
8181.00001266
 20
6421.25012022
 30
0.0
 11
8217.99999999
 21
6421.25012022
 31
0.0
  0
LINE
  5
BB0
330
2
100
AcDbEntity
  8
YKK_C1
100
AcDbLine
 10
8217.99999999
 20
6421.25012022
 30
0.0
 11
8217.99999999
 21
6476.25012022
 31
0.0
  0
LINE
  5
BB1
330
2
100
AcDbEntity
  8
YKK_C1
100
AcDbLine
 10
8089.00001266
 20
6435.75011979
 30
0.0
 11
8072.00001266
 21
6435.75011979
 31
0.0
  0
LINE
  5
BB2
330
2
100
AcDbEntity
  8
YKK_C1
100
AcDbLine
 10
8072.00001266
 20
6435.75011979
 30
0.0
 11
8072.00001266
 21
6398.75012021
 31
0.0
  0
LINE
  5
BB3
330
2
100
AcDbEntity
  8
YKK_C1
100
AcDbLine
 10
8088.99999603
 20
6427.75011979
 30
0.0
 11
8181.00001266
 21
6427.75011979
 31
0.0
  0
LINE
  5
BB4
330
2
100
AcDbEntity
  8
YKK_C1
100
AcDbLine
 10
8127.30001266
 20
6427.75011979
 30
0.0
 11
8127.30001266
 21
6397.75011979
 31
0.0
  0
LINE
  5
BB5
330
2
100
AcDbEntity
  8
YKK_C1
100
AcDbLine
 10
8127.30001266
 20
6397.75011979
 30
0.0
 11
8138.30001266
 21
6397.75011979
 31
0.0
  0
LINE
  5
BB6
330
2
100
AcDbEntity
  8
YKK_C1
100
AcDbLine
 10
8138.30001266
 20
6397.75011979
 30
0.0
 11
8138.30001266
 21
6427.75011979
 31
0.0
  0
LINE
  5
BB7
330
2
100
AcDbEntity
  8
YKK_C1
100
AcDbLine
 10
8091.30001266
 20
6371.7501199
 30
0.0
 11
8091.30001266
 21
6409.75011979
 31
0.0
  0
LINE
  5
BB8
330
2
100
AcDbEntity
  8
YKK_C1
100
AcDbLine
 10
8091.30001266
 20
6409.75011979
 30
0.0
 11
8125.30001266
 21
6409.75011979
 31
0.0
  0
LINE
  5
BB9
330
2
100
AcDbEntity
  8
YKK_C1
100
AcDbLine
 10
8125.30001266
 20
6409.75011979
 30
0.0
 11
8125.30001266
 21
6371.75011979
 31
0.0
  0
LINE
  5
BBA
330
2
100
AcDbEntity
  8
YKK_C1
100
AcDbLine
 10
8091.30001266
 20
6388.7501199
 30
0.0
 11
8125.30001266
 21
6388.7501199
 31
0.0
  0
LINE
  5
BBB
330
2
100
AcDbEntity
  8
YKK_C1
100
AcDbLine
 10
8140.30001266
 20
6371.7501199
 30
0.0
 11
8140.30001266
 21
6409.75011979
 31
0.0
  0
LINE
  5
BBC
330
2
100
AcDbEntity
  8
YKK_C1
100
AcDbLine
 10
8140.30001266
 20
6409.75011979
 30
0.0
 11
8174.30001266
 21
6409.75011979
 31
0.0
  0
LINE
  5
BBD
330
2
100
AcDbEntity
  8
YKK_C1
100
AcDbLine
 10
8174.30001266
 20
6409.75011979
 30
0.0
 11
8174.3
 21
6371.75012021
 31
0.0
  0
LINE
  5
BBE
330
2
100
AcDbEntity
  8
YKK_C1
100
AcDbLine
 10
8140.30001267
 20
6388.75011979
 30
0.0
 11
8174.30000566
 21
6388.75010846
 31
0.0
  0
LINE
  5
BBF
330
2
100
AcDbEntity
  8
YKK_C1
100
AcDbLine
 10
8073.7009008
 20
5205.7501202
 30
0.0
 11
8073.7009008
 21
5278.75012021
 31
0.0
  0
LINE
  5
BC0
330
2
100
AcDbEntity
  8
YKK_C1
100
AcDbLine
 10
8073.7009008
 20
5278.75012021
 30
0.0
 11
8105.10090157
 21
5278.75012021
 31
0.0
  0
LINE
  5
BC1
330
2
100
AcDbEntity
  8
YKK_C1
100
AcDbLine
 10
8210.99999999
 20
5273.7501202
 30
0.0
 11
8210.99999999
 21
5278.75012021
 31
0.0
  0
LINE
  5
BC2
330
2
100
AcDbEntity
  8
YKK_C1
100
AcDbLine
 10
8210.99999999
 20
5278.75012021
 30
0.0
 11
8178.29999999
 21
5278.75011977
 31
0.0
  0
LINE
  5
BC3
330
2
100
AcDbEntity
  8
YKK_C1
100
AcDbLine
 10
8178.29999999
 20
5278.75011977
 30
0.0
 11
8178.29999999
 21
5273.7501202
 31
0.0
  0
LINE
  5
BC4
330
2
100
AcDbEntity
  8
YKK_C1
100
AcDbLine
 10
8181.00001266
 20
5329.75011977
 30
0.0
 11
8181.00001335
 21
5278.7501198
 31
0.0
  0
LINE
  5
BC5
330
2
100
AcDbEntity
  8
YKK_C1
100
AcDbLine
 10
8181.00001294
 20
5308.75011977
 30
0.0
 11
8196.00001266
 21
5308.75011977
 31
0.0
  0
LINE
  5
BC6
330
2
100
AcDbEntity
  8
YKK_C1
100
AcDbLine
 10
8196.00001266
 20
5308.75011977
 30
0.0
 11
8196.00001266
 21
5306.2501202
 31
0.0
  0
LINE
  5
BC7
330
2
100
AcDbEntity
  8
YKK_C1
100
AcDbLine
 10
8217.99999999
 20
5271.2390152
 30
0.0
 11
8217.99999999
 21
5306.2501202
 31
0.0
  0
LINE
  5
BC8
330
2
100
AcDbEntity
  8
YKK_C1
100
AcDbLine
 10
8217.99999999
 20
5306.2501202
 30
0.0
 11
8180.99999999
 21
5306.2501202
 31
0.0
  0
LINE
  5
BC9
330
2
100
AcDbEntity
  8
YKK_C1
100
AcDbLine
 10
8089.00001266
 20
5278.75011977
 30
0.0
 11
8089.00001266
 21
5328.75011977
 31
0.0
  0
LINE
  5
BCA
330
2
100
AcDbEntity
  8
YKK_C1
100
AcDbLine
 10
8089.00001266
 20
5291.75011977
 30
0.0
 11
8072.00001266
 21
5291.75011977
 31
0.0
  0
LINE
  5
BCB
330
2
100
AcDbEntity
  8
YKK_C1
100
AcDbLine
 10
8072.00001266
 20
5291.75011977
 30
0.0
 11
8072.00001266
 21
5328.75012021
 31
0.0
  0
LINE
  5
BCC
330
2
100
AcDbEntity
  8
YKK_C1
100
AcDbLine
 10
8089.00001266
 20
5278.75012021
 30
0.0
 11
8181.00001335
 21
5278.75011977
 31
0.0
  0
LINE
  5
BCD
330
2
100
AcDbEntity
  8
YKK_C1
100
AcDbLine
 10
8089.00001266
 20
5299.75011977
 30
0.0
 11
8180.99999999
 21
5299.75011977
 31
0.0
  0
LINE
  5
BCE
330
2
100
AcDbEntity
  8
YKK_C1
100
AcDbLine
 10
8108.30001266
 20
5329.75012006
 30
0.0
 11
8108.30001266
 21
5299.75011977
 31
0.0
  0
LINE
  5
BCF
330
2
100
AcDbEntity
  8
YKK_C1
100
AcDbLine
 10
8157.30001266
 20
5329.75012006
 30
0.0
 11
8157.30001266
 21
5299.75011977
 31
0.0
  0
LINE
  5
BD0
330
2
100
AcDbEntity
  8
YKK_C1
100
AcDbLine
 10
8127.30001266
 20
5299.75011977
 30
0.0
 11
8127.30001266
 21
5329.75011977
 31
0.0
  0
LINE
  5
BD1
330
2
100
AcDbEntity
  8
YKK_C1
100
AcDbLine
 10
8127.30001266
 20
5329.75011977
 30
0.0
 11
8138.30001266
 21
5329.75011977
 31
0.0
  0
LINE
  5
BD2
330
2
100
AcDbEntity
  8
YKK_C1
100
AcDbLine
 10
8138.30001266
 20
5329.75011977
 30
0.0
 11
8138.30001266
 21
5299.75011977
 31
0.0
  0
LINE
  5
BD3
330
2
100
AcDbEntity
  8
YKK_C1
100
AcDbLine
 10
8091.30001266
 20
5377.75011966
 30
0.0
 11
8091.30001266
 21
5319.75011977
 31
0.0
  0
LINE
  5
BD4
330
2
100
AcDbEntity
  8
YKK_C1
100
AcDbLine
 10
8125.30001266
 20
5319.75011977
 30
0.0
 11
8125.30001266
 21
5377.75011977
 31
0.0
  0
LINE
  5
BD5
330
2
100
AcDbEntity
  8
YKK_C1
100
AcDbLine
 10
8091.30001266
 20
5360.75011977
 30
0.0
 11
8125.30001266
 21
5360.75011977
 31
0.0
  0
LINE
  5
BD6
330
2
100
AcDbEntity
  8
YKK_C1
100
AcDbLine
 10
8091.30001266
 20
5339.75011977
 30
0.0
 11
8125.30001266
 21
5339.75011977
 31
0.0
  0
LINE
  5
BD7
330
2
100
AcDbEntity
  8
YKK_C1
100
AcDbLine
 10
8140.30001266
 20
5377.75011966
 30
0.0
 11
8140.30001266
 21
5319.75011977
 31
0.0
  0
LINE
  5
BD8
330
2
100
AcDbEntity
  8
YKK_C1
100
AcDbLine
 10
8174.30001266
 20
5319.75011977
 30
0.0
 11
8174.30001266
 21
5377.75011977
 31
0.0
  0
LINE
  5
BD9
330
2
100
AcDbEntity
  8
YKK_C1
100
AcDbLine
 10
8140.30001266
 20
5360.75011966
 30
0.0
 11
8174.30001266
 21
5360.75011966
 31
0.0
  0
LINE
  5
BDA
330
2
100
AcDbEntity
  8
YKK_C1
100
AcDbLine
 10
8140.30001266
 20
5339.75011977
 30
0.0
 11
8174.30001266
 21
5339.75011977
 31
0.0
  0
LINE
  5
BDB
330
2
100
AcDbEntity
  8
YKK_C1
100
AcDbLine
 10
8097.30001267
 20
6384.75011978
 30
0.0
 11
8097.30001267
 21
5364.75011978
 31
0.0
  0
LINE
  5
BDC
330
2
100
AcDbEntity
  8
YKK_C1
100
AcDbLine
 10
8119.30001267
 20
5364.75011978
 30
0.0
 11
8119.30001267
 21
6384.75011978
 31
0.0
  0
LINE
  5
BDD
330
2
100
AcDbEntity
  8
YKK_C1
100
AcDbLine
 10
8146.30001267
 20
6384.75011978
 30
0.0
 11
8146.30001267
 21
5364.75011978
 31
0.0
  0
LINE
  5
BDE
330
2
100
AcDbEntity
  8
YKK_C1
100
AcDbLine
 10
8168.30001267
 20
5364.75011978
 30
0.0
 11
8168.30001267
 21
6384.75011978
 31
0.0
  0
LINE
  5
BDF
330
2
100
AcDbEntity
  8
YKK_C1
100
AcDbLine
 10
8072.00001267
 20
6388.75012021
 30
0.0
 11
8072.00001267
 21
5338.75012021
 31
0.0
  0
LINE
  5
BE0
330
2
100
AcDbEntity
  8
YKK_C1
100
AcDbLine
 10
8218.0
 20
6411.25012021
 30
0.0
 11
8218.0
 21
5316.2501202
 31
0.0
  0
TEXT
  5
BE1
330
2
100
AcDbEntity
  8
YKK_N1
  6
Continuous
100
AcDbText
 10
8709.0
 20
5615.91273513
 30
0.0
 40
60.0
  1
新設窓H=1170
 50
90.0
 41
1.122581
  7
MX_NOTE_STANDARD
 11
8679.0
 21
5615.91273513
 31
0.0
100
AcDbText
 73
     2
  0
TEXT
  5
BE2
330
2
100
AcDbEntity
  8
YKK_N1
  6
Continuous
100
AcDbText
 10
8709.0
 20
6498.25012021
 30
0.0
 40
60.0
  1
17
 50
90.0
  7
MX_NOTE_STANDARD
 11
8679.0
 21
6498.25012021
 31
0.0
100
AcDbText
 73
     2
  0
LINE
  5
BE3
330
2
100
AcDbEntity
  8
YKK_N1
  6
Continuous
100
AcDbLine
 10
8671.0
 20
6362.14757921
 30
0.0
 11
8771.0
 21
6362.14757921
 31
0.0
  0
LINE
  5
BE4
330
2
100
AcDbEntity
  8
YKK_N1
  6
Continuous
100
AcDbLine
 10
8671.0
 20
6362.14757921
 30
0.0
 11
8721.0
 21
6448.75012021
 31
0.0
  0
CIRCLE
  5
BE5
330
2
100
AcDbEntity
  8
YKK_N1
  6
Continuous
100
AcDbCircle
 10
8521.0
 20
6448.75012021
 30
0.0
 40
5.0
  0
CIRCLE
  5
BE6
330
2
100
AcDbEntity
  8
YKK_N1
  6
Continuous
100
AcDbCircle
 10
8521.0
 20
6418.75012021
 30
0.0
 40
5.0
  0
LINE
  5
BE7
330
2
100
AcDbEntity
  8
YKK_N1
  6
Continuous
100
AcDbLine
 10
8521.0
 20
6418.75012021
 30
0.0
 11
8521.0
 21
6448.75012021
 31
0.0
  0
LINE
  5
BE8
330
2
100
AcDbEntity
  8
YKK_N1
  6
Continuous
100
AcDbLine
 10
8721.0
 20
6465.75012021
 30
0.0
 11
8721.0
 21
6448.75012021
 31
0.0
  0
CIRCLE
  5
BE9
330
2
100
AcDbEntity
  8
YKK_N1
  6
Continuous
100
AcDbCircle
 10
8721.0
 20
6465.75012021
 30
0.0
 40
5.0
  0
LINE
  5
BEA
330
2
100
AcDbEntity
  8
YKK_N1
  6
Continuous
100
AcDbLine
 10
8771.0
 20
6362.14757921
 30
0.0
 11
8721.0
 21
6448.75012021
 31
0.0
  0
LINE
  5
BEB
330
2
100
AcDbEntity
  8
YKK_N1
  6
Continuous
100
AcDbLine
 10
8671.0
 20
5365.35306021
 30
0.0
 11
8771.0
 21
5365.35306021
 31
0.0
  0
LINE
  5
BEC
330
2
100
AcDbEntity
  8
YKK_N1
  6
Continuous
100
AcDbLine
 10
8671.0
 20
5365.35306021
 30
0.0
 11
8721.0
 21
5278.75052021
 31
0.0
  0
LINE
  5
BED
330
2
100
AcDbEntity
  8
YKK_N1
  6
Continuous
100
AcDbLine
 10
8521.0
 20
5308.75012021
 30
0.0
 11
8521.0
 21
5278.75012021
 31
0.0
  0
CIRCLE
  5
BEE
330
2
100
AcDbEntity
  8
YKK_N1
  6
Continuous
100
AcDbCircle
 10
8521.0
 20
5278.75014521
 30
0.0
 40
5.0
  0
CIRCLE
  5
BEF
330
2
100
AcDbEntity
  8
YKK_N1
  6
Continuous
100
AcDbCircle
 10
8521.0
 20
5308.75012021
 30
0.0
 40
5.0
  0
LINE
  5
BF0
330
2
100
AcDbEntity
  8
YKK_N1
  6
Continuous
100
AcDbLine
 10
8771.0
 20
5365.35306021
 30
0.0
 11
8721.0
 21
5278.75052021
 31
0.0
  0
LINE
  5
BF1
330
2
100
AcDbEntity
  8
YKK_N1
  6
Continuous
100
AcDbLine
 10
8721.0
 20
6448.75012021
 30
0.0
 11
8721.0
 21
5278.75012021
 31
0.0
  0
LINE
  5
BF2
330
2
100
AcDbEntity
  8
YKK_N1
  6
Continuous
100
AcDbLine
 10
8396.0
 20
5278.75012021
 30
0.0
 11
8721.0
 21
5278.75012021
 31
0.0
  0
LINE
  5
BF3
330
2
100
AcDbEntity
  8
YKK_N1
  6
Continuous
100
AcDbLine
 10
8396.0
 20
5308.75012021
 30
0.0
 11
8521.0
 21
5308.75012021
 31
0.0
  0
TEXT
  5
BF4
330
2
100
AcDbEntity
  8
YKK_N1
  6
Continuous
100
AcDbText
 10
8509.0
 20
5318.59017521
 30
0.0
 40
60.0
  1
30
 50
90.0
  7
MX_NOTE_STANDARD
 11
8479.0
 21
5318.59017521
 31
0.0
100
AcDbText
 73
     2
  0
LINE
  5
BF5
330
2
100
AcDbEntity
  8
YKK_N1
  6
Continuous
100
AcDbLine
 10
8396.0
 20
6465.75012021
 30
0.0
 11
8921.0
 21
6465.75012021
 31
0.0
  0
LINE
  5
BF6
330
2
100
AcDbEntity
  8
YKK_N1
  6
Continuous
100
AcDbLine
 10
8396.0
 20
6448.75012021
 30
0.0
 11
8721.0
 21
6448.75012021
 31
0.0
  0
LINE
  5
BF7
330
2
100
AcDbEntity
  8
YKK_N1
  6
Continuous
100
AcDbLine
 10
8396.0
 20
6418.75012021
 30
0.0
 11
8521.0
 21
6418.75012021
 31
0.0
  0
TEXT
  5
BF8
330
2
100
AcDbEntity
  8
YKK_N1
  6
Continuous
100
AcDbText
 10
8509.0
 20
6310.72824721
 30
0.0
 40
60.0
  1
30
 50
90.0
  7
MX_NOTE_STANDARD
 11
8479.0
 21
6310.72824721
 31
0.0
100
AcDbText
 73
     2
  0
TEXT
  5
BF9
330
2
100
AcDbEntity
  8
YKK_N1
  6
Continuous
100
AcDbText
 10
8074.04667381
 20
4911.60104979
 30
0.0
 40
60.0
  1
92
  7
MX_NOTE_STANDARD
 11
8074.04667381
 21
4941.60104979
 31
0.0
100
AcDbText
 73
     2
  0
TEXT
  5
BFA
330
2
100
AcDbEntity
  8
YKK_N1
  6
Continuous
100
AcDbText
 10
8231.0915334
 20
4995.60104979
 30
0.0
 40
60.0
  1
15
  7
MX_NOTE_STANDARD
 11
8231.0915334
 21
5025.60104979
 31
0.0
100
AcDbText
 73
     2
  0
LINE
  5
BFB
330
2
100
AcDbEntity
  8
YKK_N1
  6
Continuous
100
AcDbLine
 10
8073.70090081
 20
4983.60104979
 30
0.0
 11
8089.00090081
 21
4983.60104979
 31
0.0
  0
CIRCLE
  5
BFC
330
2
100
AcDbEntity
  8
YKK_N1
  6
Continuous
100
AcDbCircle
 10
8073.70090081
 20
4983.49479979
 30
0.0
 40
5.0
  0
CIRCLE
  5
BFD
330
2
100
AcDbEntity
  8
YKK_N1
  6
Continuous
100
AcDbCircle
 10
8073.70090081
 20
4983.60104979
 30
0.0
 40
0.10625
  0
LINE
  5
BFE
330
2
100
AcDbEntity
  8
YKK_N1
  6
Continuous
100
AcDbLine
 10
8181.00090081
 20
4983.60104979
 30
0.0
 11
8089.00090081
 21
4983.60104979
 31
0.0
  0
CIRCLE
  5
BFF
330
2
100
AcDbEntity
  8
YKK_N1
  6
Continuous
100
AcDbCircle
 10
8089.00090081
 20
4983.60104979
 30
0.0
 40
5.0
  0
LINE
  5
C00
330
2
100
AcDbEntity
  8
YKK_N1
  6
Continuous
100
AcDbLine
 10
8196.00090081
 20
4983.60104979
 30
0.0
 11
8181.00090081
 21
4983.60104979
 31
0.0
  0
CIRCLE
  5
C01
330
2
100
AcDbEntity
  8
YKK_N1
  6
Continuous
100
AcDbCircle
 10
8181.00090081
 20
4983.60104979
 30
0.0
 40
5.0
  0
CIRCLE
  5
C02
330
2
100
AcDbEntity
  8
YKK_N1
  6
Continuous
100
AcDbCircle
 10
8196.00090081
 20
4983.60104979
 30
0.0
 40
5.0
  0
LINE
  5
C03
330
2
100
AcDbEntity
  8
YKK_N1
  6
Continuous
100
AcDbLine
 10
8073.70090081
 20
5108.60104979
 30
0.0
 11
8073.70090081
 21
4983.60104979
 31
0.0
  0
LINE
  5
C04
330
2
100
AcDbEntity
  8
YKK_N1
  6
Continuous
100
AcDbLine
 10
8181.00090081
 20
5108.60104979
 30
0.0
 11
8181.00090081
 21
4983.60104979
 31
0.0
  0
LINE
  5
C05
330
2
100
AcDbEntity
  8
YKK_N1
  6
Continuous
100
AcDbLine
 10
8196.00090081
 20
4983.60104979
 30
0.0
 11
8196.00090081
 21
5108.60104979
 31
0.0
  0
LINE
  5
C06
330
2
100
AcDbEntity
  8
YKK_N1
  6
Continuous
100
AcDbLine
 10
8089.00090081
 20
5108.60104979
 30
0.0
 11
8089.00090081
 21
4983.60104979
 31
0.0
  0
TEXT
  5
C07
330
2
100
AcDbEntity
  8
YKK_N1
  6
Continuous
100
AcDbText
 10
7883.94275554
 20
4995.60104979
 30
0.0
 40
60.0
  1
15.3
  7
MX_NOTE_STANDARD
 11
7883.94275554
 21
5025.60104979
 31
0.0
100
AcDbText
 73
     2
  0
TEXT
  5
C08
330
2
100
AcDbEntity
  8
YKK_N1
  6
Continuous
100
AcDbText
 10
7942.00001267
 20
5936.08284459
 30
0.0
 40
60.0
  1
109
  7
MX_NOTE_STANDARD
 11
7942.00001267
 21
5966.08284459
 31
0.0
100
AcDbText
 73
     2
  0
CIRCLE
  5
C09
330
2
100
AcDbEntity
  8
YKK_N1
  6
Continuous
100
AcDbCircle
 10
8181.00000067
 20
5923.97659459
 30
0.0
 40
5.0
  0
CIRCLE
  5
C0A
330
2
100
AcDbEntity
  8
YKK_N1
  6
Continuous
100
AcDbCircle
 10
8072.00001267
 20
5924.08284459
 30
0.0
 40
5.0
  0
LINE
  5
C0B
330
2
100
AcDbEntity
  8
YKK_N1
  6
Continuous
100
AcDbLine
 10
8072.00001267
 20
5923.97659459
 30
0.0
 11
8181.00000067
 21
5923.97659459
 31
0.0
  0
LINE
  5
C0C
330
2
100
AcDbEntity
  8
YKK_N1
  6
Continuous
100
AcDbLine
 10
8181.00000067
 20
5798.97659459
 30
0.0
 11
8181.00000067
 21
5923.97659459
 31
0.0
  0
LINE
  5
C0D
330
2
100
AcDbEntity
  8
YKK_N1
  6
Continuous
100
AcDbLine
 10
8072.00001267
 20
5798.97659459
 30
0.0
 11
8072.00001267
 21
5923.97659459
 31
0.0
  0
LINE
  5
C0E
330
2
100
AcDbEntity
  8
YKK_N1
  6
Continuous
100
AcDbLine
 10
8921.0
 20
6465.75012021
 30
0.0
 11
8921.0
 21
5272.25012021
 31
0.0
  0
LINE
  5
C0F
330
2
100
AcDbEntity
  8
YKK_N1
  6
Continuous
100
AcDbLine
 10
9121.0
 20
6475.75012021
 30
0.0
 11
9121.0
 21
5272.25012021
 31
0.0
  0
LINE
  5
C10
330
2
100
AcDbEntity
  8
YKK_N1
  6
Continuous
100
AcDbLine
 10
8396.0
 20
6475.75012021
 30
0.0
 11
9121.0
 21
6475.75012021
 31
0.0
  0
LINE
  5
C11
330
2
100
AcDbEntity
  8
YKK_N1
100
AcDbLine
 10
8921.0
 20
6465.75012021
 30
0.0
 11
8921.0
 21
6475.75012021
 31
0.0
  0
LINE
  5
C12
330
2
100
AcDbEntity
  8
YKK_N1
  6
Continuous
100
AcDbLine
 10
8871.0
 20
6379.14757921
 30
0.0
 11
8971.0
 21
6379.14757921
 31
0.0
  0
LINE
  5
C13
330
2
100
AcDbEntity
  8
YKK_N1
  6
Continuous
100
AcDbLine
 10
8871.0
 20
6379.14757921
 30
0.0
 11
8921.0
 21
6465.75012021
 31
0.0
  0
LINE
  5
C14
330
2
100
AcDbEntity
  8
YKK_N1
  6
Continuous
100
AcDbLine
 10
8971.0
 20
6379.14757921
 30
0.0
 11
8921.0
 21
6465.75012021
 31
0.0
  0
LINE
  5
C15
330
2
100
AcDbEntity
  8
YKK_N1
  6
Continuous
100
AcDbLine
 10
9071.0
 20
6389.14757921
 30
0.0
 11
9171.0
 21
6389.14757921
 31
0.0
  0
LINE
  5
C16
330
2
100
AcDbEntity
  8
YKK_N1
  6
Continuous
100
AcDbLine
 10
9071.0
 20
6389.14757921
 30
0.0
 11
9121.0
 21
6475.75012021
 31
0.0
  0
LINE
  5
C17
330
2
100
AcDbEntity
  8
YKK_N1
  6
Continuous
100
AcDbLine
 10
9171.0
 20
6389.14757921
 30
0.0
 11
9121.0
 21
6475.75012021
 31
0.0
  0
CIRCLE
  5
C18
330
2
100
AcDbEntity
  8
YKK_N1
  6
Continuous
100
AcDbCircle
 10
8921.0
 20
6475.75012021
 30
0.0
 40
5.0
  0
LINE
  5
C19
330
2
100
AcDbEntity
  8
YKK_N1
  6
Continuous
100
AcDbLine
 10
8871.0
 20
5358.85266021
 30
0.0
 11
8971.0
 21
5358.85266021
 31
0.0
  0
LINE
  5
C1A
330
2
100
AcDbEntity
  8
YKK_N1
  6
Continuous
100
AcDbLine
 10
8871.0
 20
5358.85266021
 30
0.0
 11
8921.0
 21
5272.25012021
 31
0.0
  0
LINE
  5
C1B
330
2
100
AcDbEntity
  8
YKK_N1
  6
Continuous
100
AcDbLine
 10
8971.0
 20
5358.85266021
 30
0.0
 11
8921.0
 21
5272.25012021
 31
0.0
  0
LINE
  5
C1C
330
2
100
AcDbEntity
  8
YKK_N1
  6
Continuous
100
AcDbLine
 10
9071.0
 20
5358.85266021
 30
0.0
 11
9171.0
 21
5358.85266021
 31
0.0
  0
LINE
  5
C1D
330
2
100
AcDbEntity
  8
YKK_N1
  6
Continuous
100
AcDbLine
 10
9071.0
 20
5358.85266021
 30
0.0
 11
9121.0
 21
5272.25012021
 31
0.0
  0
LINE
  5
C1E
330
2
100
AcDbEntity
  8
YKK_N1
  6
Continuous
100
AcDbLine
 10
9171.0
 20
5358.85266021
 30
0.0
 11
9121.0
 21
5272.25012021
 31
0.0
  0
TEXT
  5
C1F
330
2
100
AcDbEntity
  8
YKK_N1
  6
Continuous
100
AcDbText
 10
8901.5
 20
5397.85570136
 30
0.0
 40
45.0
  1
ジョイント枠出来高JH=1193.5
 50
90.0
 41
1.122581
  7
MX_NOTE_STANDARD
 11
8879.0
 21
5397.85570136
 31
0.0
100
AcDbText
 73
     2
  0
TEXT
  5
C20
330
2
100
AcDbEntity
  8
YKK_N1
  6
Continuous
100
AcDbText
 10
9104.0
 20
5420.26669083
 30
0.0
 40
50.0
  1
既設窓枠開口高KH=1203.5
 50
90.0
 41
1.122581
  7
MX_NOTE_STANDARD
 11
9079.0
 21
5420.26669083
 31
0.0
100
AcDbText
 73
     2
  0
TEXT
  5
C21
330
2
100
AcDbEntity
  8
YKK_N1
  6
Continuous
100
AcDbText
 10
8909.0
 20
6508.25012021
 30
0.0
 40
60.0
  1
10
 50
90.0
  7
MX_NOTE_STANDARD
 11
8879.0
 21
6508.25012021
 31
0.0
100
AcDbText
 73
     2
  0
CIRCLE
  5
C22
330
2
100
AcDbEntity
  8
YKK_N1
  6
Continuous
100
AcDbCircle
 10
8196.00000067
 20
5923.97659459
 30
0.0
 40
5.0
  0
LINE
  5
C23
330
2
100
AcDbEntity
  8
YKK_N1
  6
Continuous
100
AcDbLine
 10
8196.00000067
 20
5798.97659459
 30
0.0
 11
8196.00000067
 21
5923.97659459
 31
0.0
  0
LINE
  5
C24
330
2
100
AcDbEntity
  8
YKK_N1
100
AcDbLine
 10
8181.00000067
 20
5923.97659459
 30
0.0
 11
8196.00000067
 21
5923.97659459
 31
0.0
  0
TEXT
  5
C25
330
2
100
AcDbEntity
  8
YKK_N1
  6
Continuous
100
AcDbText
 10
8193.92696785
 20
5936.08284459
 30
0.0
 40
60.0
  1
15
  7
MX_NOTE_STANDARD
 11
8193.92696785
 21
5966.08284459
 31
0.0
100
AcDbText
 73
     2
  0
LINE
  5
C26
330
2
100
AcDbEntity
  8
YKK_N1
  6
Continuous
100
AcDbLine
 10
8211.00090081
 20
4983.60104979
 30
0.0
 11
8196.00090081
 21
4983.60104979
 31
0.0
  0
CIRCLE
  5
C27
330
2
100
AcDbEntity
  8
YKK_N1
  6
Continuous
100
AcDbCircle
 10
8211.00090081
 20
4983.60104979
 30
0.0
 40
5.0
  0
LINE
  5
C28
330
2
100
AcDbEntity
  8
YKK_N1
  6
Continuous
100
AcDbLine
 10
8211.00090081
 20
4983.60104979
 30
0.0
 11
8211.00090081
 21
5108.60104979
 31
0.0
  0
LINE
  5
C29
330
2
100
AcDbEntity
  8
YKK_N1
100
AcDbLine
 10
8188.50090081
 20
4983.60104979
 30
0.0
 11
8213.6546295
 21
4877.72392501
 31
-0.00000002
  0
LINE
  5
C2A
330
2
100
AcDbEntity
  8
YKK_N1
100
AcDbLine
 10
8213.6546295
 20
4877.72392501
 30
-0.00000002
 11
8313.87518604
 21
4877.72392501
 31
-0.00000002
  0
TEXT
  5
C2B
330
2
100
AcDbEntity
  8
YKK_N1
  6
Continuous
100
AcDbText
 10
8218.00090081
 20
4887.59928523
 30
0.0
 40
60.0
  1
15
  7
MX_NOTE_STANDARD
 11
8218.00090081
 21
4917.59928523
 31
0.0
100
AcDbText
 73
     2
  0
LINE
  5
C2C
330
2
100
AcDbEntity
  8
YKK_N1
  6
Continuous
100
AcDbLine
 10
8396.0
 20
5272.25012021
 30
0.0
 11
9121.0
 21
5272.25012021
 31
0.0
  0
LINE
  5
C2D
330
2
100
AcDbEntity
  8
YKK_N1
100
AcDbLine
 10
8721.0
 20
5278.75012021
 30
0.0
 11
8721.0
 21
5272.25012021
 31
0.0
  0
CIRCLE
  5
C2E
330
2
100
AcDbEntity
  8
YKK_N1
  6
Continuous
100
AcDbCircle
 10
8721.0
 20
5272.25012021
 30
0.0
 40
5.0
  0
TEXT
  5
C2F
330
2
100
AcDbEntity
  8
YKK_N1
  6
Continuous
100
AcDbText
 10
8709.0
 20
5124.45801032
 30
0.0
 40
60.0
  1
6.5
 50
90.0
  7
MX_NOTE_STANDARD
 11
8679.0
 21
5124.45801032
 31
0.0
100
AcDbText
 73
     2
  0
LINE
  5
C30
330
2
100
AcDbEntity
  8
YKK_B1E
100
AcDbLine
 10
4435.50011845
 20
3342.99993356
 30
0.00000001
 11
4441.50010245
 21
3342.99993356
 31
0.00000001
  0
LINE
  5
C31
330
2
100
AcDbEntity
  8
YKK_B1E
100
AcDbLine
 10
4441.50010245
 20
3342.99993356
 30
0.00000001
 11
4441.49999752
 21
3287.99995055
 31
0.00000001
  0
LINE
  5
C32
330
2
100
AcDbEntity
  8
YKK_B1E
100
AcDbLine
 10
4413.00007445
 20
3305.00000172
 30
0.00000001
 11
4441.50008945
 21
3305.00000172
 31
0.00000001
  0
LINE
  5
C33
330
2
100
AcDbEntity
  8
YKK_B1E
100
AcDbLine
 10
4437.00002845
 20
3301.99995656
 30
0.00000001
 11
4437.00002845
 21
3305.00000172
 31
0.00000001
  0
LINE
  5
C34
330
2
100
AcDbEntity
  8
YKK_B1E
100
AcDbLine
 10
4437.00000045
 20
3290.99995656
 30
0.00000001
 11
4437.00000045
 21
3287.99995913
 31
0.00000001
  0
LINE
  5
C35
330
2
100
AcDbEntity
  8
YKK_B1E
100
AcDbLine
 10
4437.00000045
 20
3287.99995913
 30
0.00000001
 11
4452.99994758
 21
3287.99995913
 31
0.00000001
  0
LINE
  5
C36
330
2
100
AcDbEntity
  8
YKK_B1E
100
AcDbLine
 10
4441.50010245
 20
3338.39983556
 30
0.00000001
 11
4450.00010745
 21
3338.39983556
 31
0.00000001
  0
LINE
  5
C37
330
2
100
AcDbEntity
  8
YKK_B1E
100
AcDbLine
 10
4450.00008945
 20
3315.69991556
 30
0.00000001
 11
4441.50008945
 21
3315.69991556
 31
0.00000001
  0
LINE
  5
C38
330
2
100
AcDbEntity
  8
YKK_B1E
100
AcDbLine
 10
6220.49988215
 20
3342.99997374
 30
0.00000001
 11
6214.49989815
 21
3342.99997374
 31
0.00000001
  0
LINE
  5
C39
330
2
100
AcDbEntity
  8
YKK_B1E
100
AcDbLine
 10
6214.49989815
 20
3342.99997374
 30
0.00000001
 11
6214.50000308
 21
3287.99999073
 31
0.00000001
  0
LINE
  5
C3A
330
2
100
AcDbEntity
  8
YKK_B1E
100
AcDbLine
 10
6242.99992615
 20
3305.0000419
 30
0.00000001
 11
6214.49991115
 21
3305.0000419
 31
0.00000001
  0
LINE
  5
C3B
330
2
100
AcDbEntity
  8
YKK_B1E
100
AcDbLine
 10
6218.99997215
 20
3301.99999674
 30
0.00000001
 11
6218.99997215
 21
3305.0000419
 31
0.00000001
  0
LINE
  5
C3C
330
2
100
AcDbEntity
  8
YKK_B1E
100
AcDbLine
 10
6219.00000015
 20
3290.99999674
 30
0.00000001
 11
6219.00000015
 21
3287.99999931
 31
0.00000001
  0
LINE
  5
C3D
330
2
100
AcDbEntity
  8
YKK_B1E
100
AcDbLine
 10
6219.00000015
 20
3287.99999931
 30
0.00000001
 11
6203.00005302
 21
3287.99999931
 31
0.00000001
  0
LINE
  5
C3E
330
2
100
AcDbEntity
  8
YKK_B1E
100
AcDbLine
 10
6214.49989815
 20
3338.39987574
 30
0.00000001
 11
6205.99989315
 21
3338.39987574
 31
0.00000001
  0
LINE
  5
C3F
330
2
100
AcDbEntity
  8
YKK_B1E
100
AcDbLine
 10
6205.99991115
 20
3315.69995574
 30
0.00000001
 11
6214.49991115
 21
3315.69995574
 31
0.00000001
  0
LINE
  5
C40
330
2
100
AcDbEntity
  8
YKK_B1
100
AcDbLine
 10
5308.99999951
 20
3295.6999335
 30
0.0
 11
5346.99999951
 21
3295.6999335
 31
0.0
  0
LINE
  5
C41
330
2
100
AcDbEntity
  8
YKK_B1
100
AcDbLine
 10
5346.99999951
 20
3295.6999335
 30
0.0
 11
5346.99999951
 21
3329.6999335
 31
0.0
  0
LINE
  5
C42
330
2
100
AcDbEntity
  8
YKK_B1
100
AcDbLine
 10
5346.99999951
 20
3329.6999335
 30
0.0
 11
5308.99999964
 21
3329.6999335
 31
0.0
  0
LINE
  5
C43
330
2
100
AcDbEntity
  8
YKK_B1
100
AcDbLine
 10
5325.99999951
 20
3329.69993351
 30
0.0
 11
5325.99999951
 21
3295.6999335
 31
0.0
  0
LINE
  5
C44
330
2
100
AcDbEntity
  8
YKK_B1
100
AcDbLine
 10
5346.9999994
 20
3280.69993352
 30
0.0
 11
5308.99999951
 21
3280.69993352
 31
0.0
  0
LINE
  5
C45
330
2
100
AcDbEntity
  8
YKK_B1
100
AcDbLine
 10
5308.99999951
 20
3280.69993352
 30
0.0
 11
5308.99999952
 21
3246.69993352
 31
0.0
  0
LINE
  5
C46
330
2
100
AcDbEntity
  8
YKK_B1
100
AcDbLine
 10
5308.99999952
 20
3246.69993352
 30
0.0
 11
5346.99999951
 21
3246.69993352
 31
0.0
  0
LINE
  5
C47
330
2
100
AcDbEntity
  8
YKK_B1
100
AcDbLine
 10
5329.9999994
 20
3280.69993352
 30
0.0
 11
5329.9999994
 21
3246.69993352
 31
0.0
  0
LINE
  5
C48
330
2
100
AcDbEntity
  8
YKK_B1
100
AcDbLine
 10
4434.99999998
 20
3342.9999334
 30
0.0
 11
4434.99999998
 21
3347.9999334
 31
0.0
  0
LINE
  5
C49
330
2
100
AcDbEntity
  8
YKK_B1
100
AcDbLine
 10
4434.99999998
 20
3347.9999334
 30
0.0
 11
4490.99999998
 21
3347.9999334
 31
0.0
  0
LINE
  5
C4A
330
2
100
AcDbEntity
  8
YKK_B1
100
AcDbLine
 10
4490.99999998
 20
3347.9999334
 30
0.0
 11
4490.99999998
 21
3331.99993352
 31
0.0
  0
LINE
  5
C4B
330
2
100
AcDbEntity
  8
YKK_B1
100
AcDbLine
 10
4457.99999998
 20
3254.4999334
 30
0.0
 11
4457.99999998
 21
3347.9999334
 31
0.0
  0
LINE
  5
C4C
330
2
100
AcDbEntity
  8
YKK_B1
100
AcDbLine
 10
4477.99999998
 20
3269.4999334
 30
0.0
 11
4457.99999998
 21
3269.4999334
 31
0.0
  0
LINE
  5
C4D
330
2
100
AcDbEntity
  8
YKK_B1
100
AcDbLine
 10
4477.99999998
 20
3269.4999334
 30
0.0
 11
4477.99999998
 21
3347.9999334
 31
0.0
  0
LINE
  5
C4E
330
2
100
AcDbEntity
  8
YKK_B1
100
AcDbLine
 10
4477.99999998
 20
3288.7999334
 30
0.0
 11
4457.99999998
 21
3288.7999334
 31
0.0
  0
LINE
  5
C4F
330
2
100
AcDbEntity
  8
YKK_B1
100
AcDbLine
 10
4470.19999998
 20
3288.7999334
 30
0.0
 11
4470.19999998
 21
3304.5999334
 31
0.0
  0
LINE
  5
C50
330
2
100
AcDbEntity
  8
YKK_B1
100
AcDbLine
 10
4457.99999998
 20
3304.5999334
 30
0.0
 11
4477.99999998
 21
3304.5999334
 31
0.0
  0
LINE
  5
C51
330
2
100
AcDbEntity
  8
YKK_B1
100
AcDbLine
 10
4533.99999951
 20
3239.99993352
 30
0.0
 11
4482.99999951
 21
3239.99993352
 31
0.0
  0
LINE
  5
C52
330
2
100
AcDbEntity
  8
YKK_B1
100
AcDbLine
 10
4482.99999951
 20
3239.99993352
 30
0.0
 11
4482.99999951
 21
3331.99993352
 31
0.0
  0
LINE
  5
C53
330
2
100
AcDbEntity
  8
YKK_B1
100
AcDbLine
 10
4482.99999951
 20
3331.99993352
 30
0.0
 11
4532.99999951
 21
3331.99993352
 31
0.0
  0
LINE
  5
C54
330
2
100
AcDbEntity
  8
YKK_B1
100
AcDbLine
 10
4495.99999951
 20
3331.99993352
 30
0.0
 11
4495.99999951
 21
3348.99993352
 31
0.0
  0
LINE
  5
C55
330
2
100
AcDbEntity
  8
YKK_B1
100
AcDbLine
 10
4495.99999951
 20
3348.99993352
 30
0.0
 11
4532.99999951
 21
3348.99993352
 31
0.0
  0
LINE
  5
C56
330
2
100
AcDbEntity
  8
YKK_B1
100
AcDbLine
 10
4503.99999951
 20
3331.99993352
 30
0.0
 11
4503.99999951
 21
3239.99993342
 31
0.0
  0
LINE
  5
C57
330
2
100
AcDbEntity
  8
YKK_B1
100
AcDbLine
 10
4464.49999998
 20
3268.6999334
 30
0.0
 11
4481.29999998
 21
3268.6999334
 31
0.0
  0
LINE
  5
C58
330
2
100
AcDbEntity
  8
YKK_B1
100
AcDbLine
 10
4481.29999998
 20
3268.6999334
 30
0.0
 11
4481.29999998
 21
3209.9999334
 31
0.0
  0
LINE
  5
C59
330
2
100
AcDbEntity
  8
YKK_B1
100
AcDbLine
 10
4481.29999998
 20
3209.9999334
 30
0.0
 11
4478.69999998
 21
3209.9999334
 31
0.0
  0
LINE
  5
C5A
330
2
100
AcDbEntity
  8
YKK_B1
100
AcDbLine
 10
4481.29999998
 20
3266.4999334
 30
0.0
 11
4482.99999998
 21
3266.4999334
 31
0.0
  0
LINE
  5
C5B
330
2
100
AcDbEntity
  8
YKK_B1
100
AcDbLine
 10
4481.29999998
 20
3239.9999334
 30
0.0
 11
4482.99999951
 21
3239.9999334
 31
0.0
  0
LINE
  5
C5C
330
2
100
AcDbEntity
  8
YKK_B1
100
AcDbLine
 10
4510.49999951
 20
3224.99993352
 30
0.0
 11
4512.99999951
 21
3224.99993352
 31
0.0
  0
LINE
  5
C5D
330
2
100
AcDbEntity
  8
YKK_B1
100
AcDbLine
 10
4512.99999951
 20
3224.99993352
 30
0.0
 11
4512.99999951
 21
3239.99993352
 31
0.0
  0
LINE
  5
C5E
330
2
100
AcDbEntity
  8
YKK_B1
100
AcDbLine
 10
4503.99999951
 20
3293.69993352
 30
0.0
 11
4533.99999951
 21
3293.69993352
 31
0.0
  0
LINE
  5
C5F
330
2
100
AcDbEntity
  8
YKK_B1
100
AcDbLine
 10
4533.99999951
 20
3293.69993352
 30
0.0
 11
4533.99999951
 21
3282.69993352
 31
0.0
  0
LINE
  5
C60
330
2
100
AcDbEntity
  8
YKK_B1
100
AcDbLine
 10
4533.99999951
 20
3282.69993352
 30
0.0
 11
4503.99999951
 21
3282.69993352
 31
0.0
  0
LINE
  5
C61
330
2
100
AcDbEntity
  8
YKK_B1
100
AcDbLine
 10
4450.49999998
 20
3202.99993342
 30
0.0
 11
4510.49999998
 21
3202.99993342
 31
0.0
  0
LINE
  5
C62
330
2
100
AcDbEntity
  8
YKK_B1
100
AcDbLine
 10
4510.49999998
 20
3202.99993342
 30
0.0
 11
4510.49999998
 21
3239.99993342
 31
0.0
  0
LINE
  5
C63
330
2
100
AcDbEntity
  8
YKK_B1
100
AcDbLine
 10
4524.99999951
 20
3329.69993352
 30
0.0
 11
4582.9999994
 21
3329.69993352
 31
0.0
  0
LINE
  5
C64
330
2
100
AcDbEntity
  8
YKK_B1
100
AcDbLine
 10
4582.99999951
 20
3295.69993352
 30
0.0
 11
4524.99999951
 21
3295.69993352
 31
0.0
  0
LINE
  5
C65
330
2
100
AcDbEntity
  8
YKK_B1
100
AcDbLine
 10
4544.99999951
 20
3329.69993352
 30
0.0
 11
4544.99999951
 21
3295.69993352
 31
0.0
  0
LINE
  5
C66
330
2
100
AcDbEntity
  8
YKK_B1
100
AcDbLine
 10
4565.9999994
 20
3329.69993351
 30
0.0
 11
4565.9999994
 21
3295.69993352
 31
0.0
  0
LINE
  5
C67
330
2
100
AcDbEntity
  8
YKK_B1
  6
Continuous
370
    13
100
AcDbLine
 10
6185.8
 20
3298.18521478
 30
0.0
 11
6179.38528137
 21
3304.5999334
 31
0.0
  0
LINE
  5
C68
330
2
100
AcDbEntity
  8
YKK_B1
  6
Continuous
370
    13
100
AcDbLine
 10
6185.8
 20
3292.52836053
 30
0.0
 11
6178.0
 21
3300.32836053
 31
0.0
  0
LINE
  5
C69
330
2
100
AcDbEntity
  8
YKK_B1
  6
Continuous
370
    13
100
AcDbLine
 10
6183.87157288
 20
3288.7999334
 30
0.0
 11
6178.0
 21
3294.67150628
 31
0.0
  0
LINE
  5
C6A
330
2
100
AcDbEntity
  8
YKK_B1
100
AcDbLine
 10
6221.0
 20
3342.9999334
 30
0.0
 11
6221.0
 21
3347.9999334
 31
0.0
  0
LINE
  5
C6B
330
2
100
AcDbEntity
  8
YKK_B1
100
AcDbLine
 10
6221.0
 20
3347.9999334
 30
0.0
 11
6165.0
 21
3347.9999334
 31
0.0
  0
LINE
  5
C6C
330
2
100
AcDbEntity
  8
YKK_B1
100
AcDbLine
 10
6165.0
 20
3347.9999334
 30
0.0
 11
6165.0
 21
3331.99993352
 31
0.0
  0
LINE
  5
C6D
330
2
100
AcDbEntity
  8
YKK_B1
100
AcDbLine
 10
6198.0
 20
3254.4999334
 30
0.0
 11
6198.0
 21
3347.9999334
 31
0.0
  0
LINE
  5
C6E
330
2
100
AcDbEntity
  8
YKK_B1
100
AcDbLine
 10
6178.0
 20
3269.4999334
 30
0.0
 11
6198.0
 21
3269.4999334
 31
0.0
  0
LINE
  5
C6F
330
2
100
AcDbEntity
  8
YKK_B1
100
AcDbLine
 10
6178.0
 20
3269.4999334
 30
0.0
 11
6178.0
 21
3347.9999334
 31
0.0
  0
LINE
  5
C70
330
2
100
AcDbEntity
  8
YKK_B1
100
AcDbLine
 10
6178.0
 20
3288.7999334
 30
0.0
 11
6198.0
 21
3288.7999334
 31
0.0
  0
LINE
  5
C71
330
2
100
AcDbEntity
  8
YKK_B1
100
AcDbLine
 10
6185.8
 20
3288.7999334
 30
0.0
 11
6185.8
 21
3304.5999334
 31
0.0
  0
LINE
  5
C72
330
2
100
AcDbEntity
  8
YKK_B1
100
AcDbLine
 10
6198.0
 20
3304.5999334
 30
0.0
 11
6178.0
 21
3304.5999334
 31
0.0
  0
LINE
  5
C73
330
2
100
AcDbEntity
  8
YKK_B1
100
AcDbLine
 10
6122.00000047
 20
3239.99993352
 30
0.0
 11
6173.00000047
 21
3239.99993352
 31
0.0
  0
LINE
  5
C74
330
2
100
AcDbEntity
  8
YKK_B1
100
AcDbLine
 10
6173.00000047
 20
3239.99993352
 30
0.0
 11
6173.00000047
 21
3331.99993352
 31
0.0
  0
LINE
  5
C75
330
2
100
AcDbEntity
  8
YKK_B1
100
AcDbLine
 10
6173.00000047
 20
3331.99993352
 30
0.0
 11
6123.00000047
 21
3331.99993352
 31
0.0
  0
LINE
  5
C76
330
2
100
AcDbEntity
  8
YKK_B1
100
AcDbLine
 10
6160.00000047
 20
3331.99993352
 30
0.0
 11
6160.00000047
 21
3348.99993352
 31
0.0
  0
LINE
  5
C77
330
2
100
AcDbEntity
  8
YKK_B1
100
AcDbLine
 10
6160.00000047
 20
3348.99993352
 30
0.0
 11
6123.00000047
 21
3348.99993352
 31
0.0
  0
LINE
  5
C78
330
2
100
AcDbEntity
  8
YKK_B1
100
AcDbLine
 10
6152.00000047
 20
3331.99993352
 30
0.0
 11
6152.00000047
 21
3239.99993342
 31
0.0
  0
LINE
  5
C79
330
2
100
AcDbEntity
  8
YKK_B1
100
AcDbLine
 10
6191.5
 20
3268.6999334
 30
0.0
 11
6174.7
 21
3268.6999334
 31
0.0
  0
LINE
  5
C7A
330
2
100
AcDbEntity
  8
YKK_B1
100
AcDbLine
 10
6174.7
 20
3268.6999334
 30
0.0
 11
6174.7
 21
3209.9999334
 31
0.0
  0
LINE
  5
C7B
330
2
100
AcDbEntity
  8
YKK_B1
100
AcDbLine
 10
6174.7
 20
3209.9999334
 30
0.0
 11
6177.3
 21
3209.9999334
 31
0.0
  0
LINE
  5
C7C
330
2
100
AcDbEntity
  8
YKK_B1
100
AcDbLine
 10
6174.7
 20
3266.4999334
 30
0.0
 11
6173.0
 21
3266.4999334
 31
0.0
  0
LINE
  5
C7D
330
2
100
AcDbEntity
  8
YKK_B1
100
AcDbLine
 10
6174.7
 20
3239.9999334
 30
0.0
 11
6173.00000047
 21
3239.9999334
 31
0.0
  0
LINE
  5
C7E
330
2
100
AcDbEntity
  8
YKK_B1
100
AcDbLine
 10
6145.50000047
 20
3224.99993352
 30
0.0
 11
6143.00000047
 21
3224.99993352
 31
0.0
  0
LINE
  5
C7F
330
2
100
AcDbEntity
  8
YKK_B1
100
AcDbLine
 10
6143.00000047
 20
3224.99993352
 30
0.0
 11
6143.00000047
 21
3239.99993352
 31
0.0
  0
LINE
  5
C80
330
2
100
AcDbEntity
  8
YKK_B1
100
AcDbLine
 10
6152.00000047
 20
3293.69993352
 30
0.0
 11
6122.00000047
 21
3293.69993352
 31
0.0
  0
LINE
  5
C81
330
2
100
AcDbEntity
  8
YKK_B1
100
AcDbLine
 10
6122.00000047
 20
3293.69993352
 30
0.0
 11
6122.00000047
 21
3282.69993352
 31
0.0
  0
LINE
  5
C82
330
2
100
AcDbEntity
  8
YKK_B1
100
AcDbLine
 10
6122.00000047
 20
3282.69993352
 30
0.0
 11
6152.00000047
 21
3282.69993352
 31
0.0
  0
LINE
  5
C83
330
2
100
AcDbEntity
  8
YKK_B1
100
AcDbLine
 10
6205.5
 20
3202.99993342
 30
0.0
 11
6145.5
 21
3202.99993342
 31
0.0
  0
LINE
  5
C84
330
2
100
AcDbEntity
  8
YKK_B1
100
AcDbLine
 10
6145.5
 20
3202.99993342
 30
0.0
 11
6145.5
 21
3239.99993342
 31
0.0
  0
LINE
  5
C85
330
2
100
AcDbEntity
  8
YKK_B1
100
AcDbLine
 10
6130.99999953
 20
3280.69993352
 30
0.0
 11
6072.99999964
 21
3280.69993352
 31
0.0
  0
LINE
  5
C86
330
2
100
AcDbEntity
  8
YKK_B1
100
AcDbLine
 10
6072.99999953
 20
3246.69993352
 30
0.0
 11
6130.99999953
 21
3246.69993352
 31
0.0
  0
LINE
  5
C87
330
2
100
AcDbEntity
  8
YKK_B1
100
AcDbLine
 10
6110.99999953
 20
3280.69993352
 30
0.0
 11
6110.99999953
 21
3246.69993352
 31
0.0
  0
LINE
  5
C88
330
2
100
AcDbEntity
  8
YKK_B1
100
AcDbLine
 10
6089.99999964
 20
3280.69993351
 30
0.0
 11
6089.99999964
 21
3246.69993352
 31
0.0
  0
LINE
  5
C89
330
2
100
AcDbEntity
  8
YKK_B1
100
AcDbLine
 10
4569.99999952
 20
3323.69993351
 30
0.0
 11
5321.99999952
 21
3323.69993351
 31
0.0
  0
LINE
  5
C8A
330
2
100
AcDbEntity
  8
YKK_B1
100
AcDbLine
 10
5321.99999952
 20
3301.69993351
 30
0.0
 11
4569.99999952
 21
3301.69993351
 31
0.0
  0
LINE
  5
C8B
330
2
100
AcDbEntity
  8
YKK_B1
100
AcDbLine
 10
5333.99999952
 20
3274.69993351
 30
0.0
 11
6085.99999952
 21
3274.69993351
 31
0.0
  0
LINE
  5
C8C
330
2
100
AcDbEntity
  8
YKK_B1
100
AcDbLine
 10
6085.99999952
 20
3252.69993351
 30
0.0
 11
5333.99999952
 21
3252.69993351
 31
0.0
  0
LINE
  5
C8D
330
2
100
AcDbEntity
  8
YKK_B1
100
AcDbLine
 10
4542.99999951
 20
3348.99993351
 30
0.0
 11
6113.00000047
 21
3348.99993351
 31
0.0
  0
LINE
  5
C8E
330
2
100
AcDbEntity
  8
YKK_B1
100
AcDbLine
 10
6135.5
 20
3202.99993342
 30
0.0
 11
4520.49999998
 21
3202.99993342
 31
0.0
  0
TEXT
  5
C8F
330
2
100
AcDbEntity
  8
YKK_N1
  6
Continuous
100
AcDbText
 10
5165.50033367
 20
2722.0
 30
0.0
 40
40.0
  1
新設窓W=1690
  7
MX_NOTE_STANDARD
 11
5165.50033367
 21
2742.0
 31
0.0
100
AcDbText
 73
     2
  0
TEXT
  5
C90
330
2
100
AcDbEntity
  8
YKK_N1
  6
Continuous
100
AcDbText
 10
6222.99999999
 20
2712.000003
 30
0.0
 40
60.0
  1
25
  7
MX_NOTE_STANDARD
100
AcDbText
  0
LINE
  5
C91
330
2
100
AcDbEntity
  8
YKK_N1
  6
Continuous
100
AcDbLine
 10
6197.99999999
 20
3025.0
 30
0.0
 11
6197.99999999
 21
2500.0
 31
0.0
  0
LINE
  5
C92
330
2
100
AcDbEntity
  8
YKK_N1
  6
Continuous
100
AcDbLine
 10
6172.99999999
 20
3025.0
 30
0.0
 11
6172.99999999
 21
2700.0
 31
0.0
  0
LINE
  5
C93
330
2
100
AcDbEntity
  8
YKK_N1
  6
Continuous
100
AcDbLine
 10
6172.99999999
 20
2700.0
 30
0.0
 11
6197.99999999
 21
2700.0
 31
0.0
  0
CIRCLE
  5
C94
330
2
100
AcDbEntity
  8
YKK_N1
  6
Continuous
100
AcDbCircle
 10
6197.99999999
 20
2700.0
 30
0.0
 40
5.0
  0
LINE
  5
C95
330
2
100
AcDbEntity
  8
YKK_N1
  6
Continuous
100
AcDbLine
 10
6172.99999999
 20
2900.0
 30
0.0
 11
6142.99999999
 21
2900.0
 31
0.0
  0
LINE
  5
C96
330
2
100
AcDbEntity
  8
YKK_N1
  6
Continuous
100
AcDbLine
 10
6142.99999999
 20
3025.0
 30
0.0
 11
6142.99999999
 21
2900.0
 31
0.0
  0
CIRCLE
  5
C97
330
2
100
AcDbEntity
  8
YKK_N1
  6
Continuous
100
AcDbCircle
 10
6142.99999999
 20
2900.0
 30
0.0
 40
5.0
  0
CIRCLE
  5
C98
330
2
100
AcDbEntity
  8
YKK_N1
  6
Continuous
100
AcDbCircle
 10
6172.99999999
 20
2900.0
 30
0.0
 40
5.0
  0
LINE
  5
C99
330
2
100
AcDbEntity
  8
YKK_N1
  6
Continuous
100
AcDbLine
 10
6086.39745999
 20
2750.0
 30
0.0
 11
6086.39745999
 21
2650.0
 31
0.0
  0
LINE
  5
C9A
330
2
100
AcDbEntity
  8
YKK_N1
  6
Continuous
100
AcDbLine
 10
6086.39745999
 20
2750.0
 30
0.0
 11
6172.99999999
 21
2700.0
 31
0.0
  0
LINE
  5
C9B
330
2
100
AcDbEntity
  8
YKK_N1
  6
Continuous
100
AcDbLine
 10
6172.99999999
 20
2700.0
 30
0.0
 11
6086.39745999
 21
2650.0
 31
0.0
  0
TEXT
  5
C9C
330
2
100
AcDbEntity
  8
YKK_N1
  6
Continuous
100
AcDbText
 10
6023.15047787
 20
2912.78324834
 30
0.0
 40
60.0
  1
30
  7
MX_NOTE_STANDARD
 11
6023.15047787
 21
2942.78324834
 31
0.0
100
AcDbText
 73
     2
  0
LINE
  5
C9D
330
2
100
AcDbEntity
  8
YKK_N1
  6
Continuous
100
AcDbLine
 10
4569.60253999
 20
2750.0
 30
0.0
 11
4482.99999999
 21
2700.0
 31
0.0
  0
LINE
  5
C9E
330
2
100
AcDbEntity
  8
YKK_N1
  6
Continuous
100
AcDbLine
 10
4482.99999999
 20
2700.0
 30
0.0
 11
4569.60253999
 21
2650.0
 31
0.0
  0
TEXT
  5
C9F
330
2
100
AcDbEntity
  8
YKK_N1
  6
Continuous
100
AcDbText
 10
4527.41851112
 20
2912.78324834
 30
0.0
 40
60.0
  1
30
  7
MX_NOTE_STANDARD
 11
4527.41851112
 21
2942.78324834
 31
0.0
100
AcDbText
 73
     2
  0
CIRCLE
  5
CA0
330
2
100
AcDbEntity
  8
YKK_N1
  6
Continuous
100
AcDbCircle
 10
4457.99999999
 20
2700.0
 30
0.0
 40
5.0
  0
LINE
  5
CA1
330
2
100
AcDbEntity
  8
YKK_N1
  6
Continuous
100
AcDbLine
 10
4457.99999999
 20
2700.0
 30
0.0
 11
4482.99999999
 21
2700.0
 31
0.0
  0
CIRCLE
  5
CA2
330
2
100
AcDbEntity
  8
YKK_N1
  6
Continuous
100
AcDbCircle
 10
4512.99999999
 20
2900.0
 30
0.0
 40
5.0
  0
CIRCLE
  5
CA3
330
2
100
AcDbEntity
  8
YKK_N1
  6
Continuous
100
AcDbCircle
 10
4482.99999999
 20
2900.0
 30
0.0
 40
5.0
  0
LINE
  5
CA4
330
2
100
AcDbEntity
  8
YKK_N1
  6
Continuous
100
AcDbLine
 10
4482.99999999
 20
2900.0
 30
0.0
 11
4512.99999999
 21
2900.0
 31
0.0
  0
LINE
  5
CA5
330
2
100
AcDbEntity
  8
YKK_N1
  6
Continuous
100
AcDbLine
 10
4569.60253999
 20
2750.0
 30
0.0
 11
4569.60253999
 21
2650.0
 31
0.0
  0
TEXT
  5
CA6
330
2
100
AcDbEntity
  8
YKK_N1
  6
Continuous
100
AcDbText
 10
4332.99999999
 20
2712.000003
 30
0.0
 40
60.0
  1
25
  7
MX_NOTE_STANDARD
100
AcDbText
  0
LINE
  5
CA7
330
2
100
AcDbEntity
  8
YKK_N1
  6
Continuous
100
AcDbLine
 10
6172.99999999
 20
2700.0
 30
0.0
 11
4482.99999999
 21
2700.0
 31
0.0
  0
LINE
  5
CA8
330
2
100
AcDbEntity
  8
YKK_N1
  6
Continuous
100
AcDbLine
 10
4512.99999999
 20
3025.0
 30
0.0
 11
4512.99999999
 21
2900.0
 31
0.0
  0
LINE
  5
CA9
330
2
100
AcDbEntity
  8
YKK_N1
  6
Continuous
100
AcDbLine
 10
4482.99999999
 20
3025.0
 30
0.0
 11
4482.99999999
 21
2700.0
 31
0.0
  0
LINE
  5
CAA
330
2
100
AcDbEntity
  8
YKK_N1
  6
Continuous
100
AcDbLine
 10
4457.99999999
 20
3025.0
 30
0.0
 11
4457.99999999
 21
2500.0
 31
0.0
  0
LINE
  5
CAB
330
2
100
AcDbEntity
  8
YKK_N1
  6
Continuous
100
AcDbLine
 10
6197.99999999
 20
2500.0
 30
0.0
 11
4457.99999999
 21
2500.0
 31
0.0
  0
LINE
  5
CAC
330
2
100
AcDbEntity
  8
YKK_N1
  6
Continuous
100
AcDbLine
 10
6202.99999999
 20
2300.0
 30
0.0
 11
4452.99999999
 21
2300.0
 31
0.0
  0
LINE
  5
CAD
330
2
100
AcDbEntity
  8
YKK_N1
  6
Continuous
100
AcDbLine
 10
4452.99999999
 20
3025.0
 30
0.0
 11
4452.99999999
 21
2300.0
 31
0.0
  0
LINE
  5
CAE
330
2
100
AcDbEntity
  8
YKK_N1
  6
Continuous
100
AcDbLine
 10
6202.99999999
 20
3025.0
 30
0.0
 11
6202.99999999
 21
2300.0
 31
0.0
  0
LINE
  5
CAF
330
2
100
AcDbEntity
  8
YKK_N1
100
AcDbLine
 10
4457.99999999
 20
2500.0
 30
0.0
 11
4452.99999999
 21
2500.0
 31
0.0
  0
LINE
  5
CB0
330
2
100
AcDbEntity
  8
YKK_N1
100
AcDbLine
 10
6197.99999999
 20
2500.0
 30
0.0
 11
6202.99999999
 21
2500.0
 31
0.0
  0
LINE
  5
CB1
330
2
100
AcDbEntity
  8
YKK_N1
  6
Continuous
100
AcDbLine
 10
4544.60253999
 20
2550.0
 30
0.0
 11
4457.99999999
 21
2500.0
 31
0.0
  0
LINE
  5
CB2
330
2
100
AcDbEntity
  8
YKK_N1
  6
Continuous
100
AcDbLine
 10
4457.99999999
 20
2500.0
 30
0.0
 11
4544.60253999
 21
2450.0
 31
0.0
  0
LINE
  5
CB3
330
2
100
AcDbEntity
  8
YKK_N1
  6
Continuous
100
AcDbLine
 10
4544.60253999
 20
2550.0
 30
0.0
 11
4544.60253999
 21
2450.0
 31
0.0
  0
LINE
  5
CB4
330
2
100
AcDbEntity
  8
YKK_N1
  6
Continuous
100
AcDbLine
 10
4539.60253999
 20
2350.0
 30
0.0
 11
4452.99999999
 21
2300.0
 31
0.0
  0
LINE
  5
CB5
330
2
100
AcDbEntity
  8
YKK_N1
  6
Continuous
100
AcDbLine
 10
4452.99999999
 20
2300.0
 30
0.0
 11
4539.60253999
 21
2250.0
 31
0.0
  0
LINE
  5
CB6
330
2
100
AcDbEntity
  8
YKK_N1
  6
Continuous
100
AcDbLine
 10
4539.60253999
 20
2350.0
 30
0.0
 11
4539.60253999
 21
2250.0
 31
0.0
  0
LINE
  5
CB7
330
2
100
AcDbEntity
  8
YKK_N1
  6
Continuous
100
AcDbLine
 10
6111.39745999
 20
2550.0
 30
0.0
 11
6111.39745999
 21
2450.0
 31
0.0
  0
LINE
  5
CB8
330
2
100
AcDbEntity
  8
YKK_N1
  6
Continuous
100
AcDbLine
 10
6111.39745999
 20
2550.0
 30
0.0
 11
6197.99999999
 21
2500.0
 31
0.0
  0
LINE
  5
CB9
330
2
100
AcDbEntity
  8
YKK_N1
  6
Continuous
100
AcDbLine
 10
6197.99999999
 20
2500.0
 30
0.0
 11
6111.39745999
 21
2450.0
 31
0.0
  0
LINE
  5
CBA
330
2
100
AcDbEntity
  8
YKK_N1
  6
Continuous
100
AcDbLine
 10
6116.39745999
 20
2350.0
 30
0.0
 11
6116.39745999
 21
2250.0
 31
0.0
  0
LINE
  5
CBB
330
2
100
AcDbEntity
  8
YKK_N1
  6
Continuous
100
AcDbLine
 10
6116.39745999
 20
2350.0
 30
0.0
 11
6202.99999999
 21
2300.0
 31
0.0
  0
LINE
  5
CBC
330
2
100
AcDbEntity
  8
YKK_N1
  6
Continuous
100
AcDbLine
 10
6202.99999999
 20
2300.0
 30
0.0
 11
6116.39745999
 21
2250.0
 31
0.0
  0
CIRCLE
  5
CBD
330
2
100
AcDbEntity
  8
YKK_N1
  6
Continuous
100
AcDbCircle
 10
4452.99999999
 20
2500.0
 30
0.0
 40
5.0
  0
CIRCLE
  5
CBE
330
2
100
AcDbEntity
  8
YKK_N1
  6
Continuous
100
AcDbCircle
 10
6202.99999999
 20
2500.0
 30
0.0
 40
5.0
  0
TEXT
  5
CBF
330
2
100
AcDbEntity
  8
YKK_N1
  6
Continuous
100
AcDbText
 10
5002.00998875
 20
2522.0
 30
0.0
 40
40.0
  1
ジョイント枠出来幅JW=1740
  7
MX_NOTE_STANDARD
 11
5002.00998875
 21
2542.0
 31
0.0
100
AcDbText
 73
     2
  0
TEXT
  5
CC0
330
2
100
AcDbEntity
  8
YKK_N1
  6
Continuous
100
AcDbText
 10
5044.96975992
 20
2322.0
 30
0.0
 40
40.0
  1
既設窓枠開口幅KW=1750
  7
MX_NOTE_STANDARD
 11
5044.96975992
 21
2342.0
 31
0.0
100
AcDbText
 73
     2
  0
TEXT
  5
CC1
330
2
100
AcDbEntity
  8
YKK_N1
  6
Continuous
100
AcDbText
 10
6237.59262611
 20
2512.000003
 30
0.0
 40
60.0
  1
5
  7
MX_NOTE_STANDARD
100
AcDbText
  0
TEXT
  5
CC2
330
2
100
AcDbEntity
  8
YKK_N1
  6
Continuous
100
AcDbText
 10
4381.89804053
 20
2512.000003
 30
0.0
 40
60.0
  1
5
  7
MX_NOTE_STANDARD
100
AcDbText
  0
TEXT
  5
CC3
330
2
100
AcDbEntity
  8
YKK_N1
  6
Continuous
100
AcDbText
 10
6548.99999999
 20
3246.95416051
 30
0.0
 40
60.0
  1
92
 50
90.0
  7
MX_NOTE_STANDARD
 11
6518.99999999
 21
3246.95416051
 31
0.0
100
AcDbText
 73
     2
  0
TEXT
  5
CC4
330
2
100
AcDbEntity
  8
YKK_N1
  6
Continuous
100
AcDbText
 10
6464.99999999
 20
3109.90930092
 30
0.0
 40
60.0
  1
15
 50
90.0
  7
MX_NOTE_STANDARD
 11
6434.99999999
 21
3109.90930092
 31
0.0
100
AcDbText
 73
     2
  0
LINE
  5
CC5
330
2
100
AcDbEntity
  8
YKK_N1
  6
Continuous
100
AcDbLine
 10
6476.99999999
 20
3348.99993351
 30
0.0
 11
6476.99999999
 21
3331.99993351
 31
0.0
  0
CIRCLE
  5
CC6
330
2
100
AcDbEntity
  8
YKK_N1
  6
Continuous
100
AcDbCircle
 10
6477.10624999
 20
3348.99993351
 30
0.0
 40
5.0
  0
LINE
  5
CC7
330
2
100
AcDbEntity
  8
YKK_N1
  6
Continuous
100
AcDbLine
 10
6476.99999999
 20
3239.99993351
 30
0.0
 11
6476.99999999
 21
3331.99993351
 31
0.0
  0
CIRCLE
  5
CC8
330
2
100
AcDbEntity
  8
YKK_N1
  6
Continuous
100
AcDbCircle
 10
6476.99999999
 20
3331.99993351
 30
0.0
 40
5.0
  0
LINE
  5
CC9
330
2
100
AcDbEntity
  8
YKK_N1
  6
Continuous
100
AcDbLine
 10
6476.99999999
 20
3224.99993351
 30
0.0
 11
6476.99999999
 21
3239.99993351
 31
0.0
  0
CIRCLE
  5
CCA
330
2
100
AcDbEntity
  8
YKK_N1
  6
Continuous
100
AcDbCircle
 10
6476.99999999
 20
3239.99993351
 30
0.0
 40
5.0
  0
CIRCLE
  5
CCB
330
2
100
AcDbEntity
  8
YKK_N1
  6
Continuous
100
AcDbCircle
 10
6476.99999999
 20
3224.99993351
 30
0.0
 40
5.0
  0
LINE
  5
CCC
330
2
100
AcDbEntity
  8
YKK_N1
  6
Continuous
100
AcDbLine
 10
6351.99999999
 20
3348.99993351
 30
0.0
 11
6476.99999999
 21
3348.99993351
 31
0.0
  0
LINE
  5
CCD
330
2
100
AcDbEntity
  8
YKK_N1
  6
Continuous
100
AcDbLine
 10
6351.99999999
 20
3239.99993351
 30
0.0
 11
6476.99999999
 21
3239.99993351
 31
0.0
  0
LINE
  5
CCE
330
2
100
AcDbEntity
  8
YKK_N1
  6
Continuous
100
AcDbLine
 10
6476.99999999
 20
3224.99993351
 30
0.0
 11
6351.99999999
 21
3224.99993351
 31
0.0
  0
LINE
  5
CCF
330
2
100
AcDbEntity
  8
YKK_N1
  6
Continuous
100
AcDbLine
 10
6351.99999999
 20
3331.99993351
 30
0.0
 11
6476.99999999
 21
3331.99993351
 31
0.0
  0
TEXT
  5
CD0
330
2
100
AcDbEntity
  8
YKK_N1
  6
Continuous
100
AcDbText
 10
6464.99999999
 20
3377.05807878
 30
0.0
 40
60.0
  1
17
 50
90.0
  7
MX_NOTE_STANDARD
 11
6434.99999999
 21
3377.05807878
 31
0.0
100
AcDbText
 73
     2
  0
TEXT
  5
CD1
330
2
100
AcDbEntity
  8
YKK_N1
  6
Continuous
100
AcDbText
 10
5728.85129533
 20
3348.99993351
 30
0.0
 40
60.0
  1
109
 50
90.0
  7
MX_NOTE_STANDARD
 11
5698.85129533
 21
3348.99993351
 31
0.0
100
AcDbText
 73
     2
  0
CIRCLE
  5
CD2
330
2
100
AcDbEntity
  8
YKK_N1
  6
Continuous
100
AcDbCircle
 10
5740.95754533
 20
3239.99994551
 30
0.0
 40
5.0
  0
CIRCLE
  5
CD3
330
2
100
AcDbEntity
  8
YKK_N1
  6
Continuous
100
AcDbCircle
 10
5740.85129533
 20
3348.99993351
 30
0.0
 40
5.0
  0
LINE
  5
CD4
330
2
100
AcDbEntity
  8
YKK_N1
  6
Continuous
100
AcDbLine
 10
5740.95754533
 20
3348.99993351
 30
0.0
 11
5740.95754533
 21
3239.99994551
 31
0.0
  0
LINE
  5
CD5
330
2
100
AcDbEntity
  8
YKK_N1
  6
Continuous
100
AcDbLine
 10
5865.95754533
 20
3239.99994551
 30
0.0
 11
5740.95754533
 21
3239.99994551
 31
0.0
  0
LINE
  5
CD6
330
2
100
AcDbEntity
  8
YKK_N1
  6
Continuous
100
AcDbLine
 10
5865.95754533
 20
3348.99993351
 30
0.0
 11
5740.95754533
 21
3348.99993351
 31
0.0
  0
CIRCLE
  5
CD7
330
2
100
AcDbEntity
  8
YKK_N1
  6
Continuous
100
AcDbCircle
 10
5740.95754533
 20
3224.99994551
 30
0.0
 40
5.0
  0
LINE
  5
CD8
330
2
100
AcDbEntity
  8
YKK_N1
  6
Continuous
100
AcDbLine
 10
5865.95754533
 20
3224.99994551
 30
0.0
 11
5740.95754533
 21
3224.99994551
 31
0.0
  0
LINE
  5
CD9
330
2
100
AcDbEntity
  8
YKK_N1
100
AcDbLine
 10
5740.95754533
 20
3239.99994551
 30
0.0
 11
5740.95754533
 21
3224.99994551
 31
0.0
  0
TEXT
  5
CDA
330
2
100
AcDbEntity
  8
YKK_N1
  6
Continuous
100
AcDbText
 10
5728.85129533
 20
3147.07297833
 30
0.0
 40
60.0
  1
15
 50
90.0
  7
MX_NOTE_STANDARD
 11
5698.85129533
 21
3147.07297833
 31
0.0
100
AcDbText
 73
     2
  0
LINE
  5
CDB
330
2
100
AcDbEntity
  8
YKK_A1
100
AcDbLine
 10
6221.0
 20
6499.25009982
 30
0.0
 11
4434.99999998
 21
6499.25009982
 31
0.0
  0
LINE
  5
CDC
330
2
100
AcDbEntity
  8
YKK_A1
100
AcDbLine
 10
6165.0
 20
6443.25010018
 30
0.0
 11
4490.99999998
 21
6443.25010018
 31
0.0
  0
LINE
  5
CDD
330
2
100
AcDbEntity
  8
YKK_A1
100
AcDbLine
 10
6160.00000047
 20
6435.75011979
 30
0.0
 11
4495.99999951
 21
6435.75011979
 31
0.0
  0
LINE
  5
CDE
330
2
100
AcDbEntity
  8
YKK_A1
100
AcDbLine
 10
6123.00000047
 20
6398.75012021
 30
0.0
 11
4532.99999951
 21
6398.75012021
 31
0.0
  0
LINE
  5
CDF
330
2
100
AcDbEntity
  8
YKK_A1
100
AcDbLine
 10
5346.99999951
 20
6371.7501199
 30
0.0
 11
6072.99999964
 21
6371.7501199
 31
0.0
  0
LINE
  5
CE0
330
2
100
AcDbEntity
  8
YKK_A1
100
AcDbLine
 10
5308.99999964
 20
6371.7501199
 30
0.0
 11
4582.9999994
 21
6371.7501199
 31
0.0
  0
LINE
  5
CE1
330
2
100
AcDbEntity
  8
YKK_A1
100
AcDbLine
 10
5346.99999951
 20
5377.75011966
 30
0.0
 11
6072.99999964
 21
5377.75011966
 31
0.0
  0
LINE
  5
CE2
330
2
100
AcDbEntity
  8
YKK_A1
100
AcDbLine
 10
5308.99999964
 20
5377.75011966
 30
0.0
 11
4582.9999994
 21
5377.75011966
 31
0.0
  0
LINE
  5
CE3
330
2
100
AcDbEntity
  8
YKK_A1
100
AcDbLine
 10
4532.99999951
 20
5328.75012021
 30
0.0
 11
6123.00000047
 21
5328.75012021
 31
0.0
  0
LINE
  5
CE4
330
2
100
AcDbEntity
  8
YKK_A1
100
AcDbLine
 10
4495.99999951
 20
5291.75011977
 30
0.0
 11
6160.00000047
 21
5291.75011977
 31
0.0
  0
LINE
  5
CE5
330
2
100
AcDbEntity
  8
YKK_A1
100
AcDbLine
 10
4490.99999998
 20
5278.75012021
 30
0.0
 11
6165.0
 21
5278.75012021
 31
0.0
  0
LINE
  5
CE6
330
2
100
AcDbEntity
  8
YKK_A1
100
AcDbLine
 10
4434.99999998
 20
5205.7501202
 30
0.0
 11
6221.0
 21
5205.7501202
 31
0.0
  0
LINE
  5
CE7
330
2
100
AcDbEntity
  8
YKK_A1
100
AcDbLine
 10
4434.99999998
 20
5205.7501202
 30
0.0
 11
4434.99999998
 21
6499.25009982
 31
0.0
  0
LINE
  5
CE8
330
2
100
AcDbEntity
  8
YKK_A1
100
AcDbLine
 10
4490.99999998
 20
5278.75012021
 30
0.0
 11
4490.99999998
 21
6443.25010018
 31
0.0
  0
LINE
  5
CE9
330
2
100
AcDbEntity
  8
YKK_A1
100
AcDbLine
 10
4495.99999951
 20
5291.75011977
 30
0.0
 11
4495.99999951
 21
6435.75011979
 31
0.0
  0
LINE
  5
CEA
330
2
100
AcDbEntity
  8
YKK_A1
100
AcDbLine
 10
4532.99999951
 20
5328.75012021
 30
0.0
 11
4532.99999951
 21
6398.75012021
 31
0.0
  0
LINE
  5
CEB
330
2
100
AcDbEntity
  8
YKK_A1
100
AcDbLine
 10
4582.9999994
 20
6371.7501199
 30
0.0
 11
4582.9999994
 21
5377.75011966
 31
0.0
  0
LINE
  5
CEC
330
2
100
AcDbEntity
  8
YKK_A1
100
AcDbLine
 10
5308.99999964
 20
6398.75012021
 30
0.0
 11
5308.99999964
 21
5328.75012021
 31
0.0
  0
LINE
  5
CED
330
2
100
AcDbEntity
  8
YKK_A1
100
AcDbLine
 10
5346.99999951
 20
6371.7501199
 30
0.0
 11
5346.99999951
 21
5377.75011966
 31
0.0
  0
LINE
  5
CEE
330
2
100
AcDbEntity
  8
YKK_A1
100
AcDbLine
 10
6072.99999964
 20
5377.75011966
 30
0.0
 11
6072.99999964
 21
6371.7501199
 31
0.0
  0
LINE
  5
CEF
330
2
100
AcDbEntity
  8
YKK_A1
100
AcDbLine
 10
6123.00000047
 20
6398.75012021
 30
0.0
 11
6123.00000047
 21
5328.75012021
 31
0.0
  0
LINE
  5
CF0
330
2
100
AcDbEntity
  8
YKK_A1
100
AcDbLine
 10
6160.00000047
 20
6435.75011979
 30
0.0
 11
6160.00000047
 21
5291.75011977
 31
0.0
  0
LINE
  5
CF1
330
2
100
AcDbEntity
  8
YKK_A1
100
AcDbLine
 10
6165.0
 20
6443.25010018
 30
0.0
 11
6165.0
 21
5278.75012021
 31
0.0
  0
LINE
  5
CF2
330
2
100
AcDbEntity
  8
YKK_A1
100
AcDbLine
 10
6221.0
 20
6499.25009982
 30
0.0
 11
6221.0
 21
5205.7501202
 31
0.0
  0
TEXT
  5
CF3
330
2
100
AcDbEntity
  8
YKK_N1
  6
Continuous
100
AcDbText
 10
5165.50033367
 20
5027.7501202
 30
0.0
 40
40.0
  1
新設窓W=1690
  7
MX_NOTE_STANDARD
 11
5165.50033367
 21
5047.7501202
 31
0.0
100
AcDbText
 73
     2
  0
TEXT
  5
CF4
330
2
100
AcDbEntity
  8
YKK_N1
  6
Continuous
100
AcDbText
 10
6222.99999999
 20
5017.7501232
 30
0.0
 40
60.0
  1
25
  7
MX_NOTE_STANDARD
100
AcDbText
  0
LINE
  5
CF5
330
2
100
AcDbEntity
  8
YKK_N1
  6
Continuous
100
AcDbLine
 10
6197.99999999
 20
5130.7501202
 30
0.0
 11
6197.99999999
 21
4805.7501202
 31
0.0
  0
LINE
  5
CF6
330
2
100
AcDbEntity
  8
YKK_N1
  6
Continuous
100
AcDbLine
 10
6172.99999999
 20
5130.7501202
 30
0.0
 11
6172.99999999
 21
5005.7501202
 31
0.0
  0
LINE
  5
CF7
330
2
100
AcDbEntity
  8
YKK_N1
  6
Continuous
100
AcDbLine
 10
6172.99999999
 20
5005.7501202
 30
0.0
 11
6197.99999999
 21
5005.7501202
 31
0.0
  0
CIRCLE
  5
CF8
330
2
100
AcDbEntity
  8
YKK_N1
  6
Continuous
100
AcDbCircle
 10
6197.99999999
 20
5005.7501202
 30
0.0
 40
5.0
  0
LINE
  5
CF9
330
2
100
AcDbEntity
  8
YKK_N1
  6
Continuous
100
AcDbLine
 10
6086.39745999
 20
5055.7501202
 30
0.0
 11
6086.39745999
 21
4955.7501202
 31
0.0
  0
LINE
  5
CFA
330
2
100
AcDbEntity
  8
YKK_N1
  6
Continuous
100
AcDbLine
 10
6086.39745999
 20
5055.7501202
 30
0.0
 11
6172.99999999
 21
5005.7501202
 31
0.0
  0
LINE
  5
CFB
330
2
100
AcDbEntity
  8
YKK_N1
  6
Continuous
100
AcDbLine
 10
6172.99999999
 20
5005.7501202
 30
0.0
 11
6086.39745999
 21
4955.7501202
 31
0.0
  0
LINE
  5
CFC
330
2
100
AcDbEntity
  8
YKK_N1
  6
Continuous
100
AcDbLine
 10
4569.60253999
 20
5055.7501202
 30
0.0
 11
4482.99999999
 21
5005.7501202
 31
0.0
  0
LINE
  5
CFD
330
2
100
AcDbEntity
  8
YKK_N1
  6
Continuous
100
AcDbLine
 10
4482.99999999
 20
5005.7501202
 30
0.0
 11
4569.60253999
 21
4955.7501202
 31
0.0
  0
CIRCLE
  5
CFE
330
2
100
AcDbEntity
  8
YKK_N1
  6
Continuous
100
AcDbCircle
 10
4457.99999999
 20
5005.7501202
 30
0.0
 40
5.0
  0
LINE
  5
CFF
330
2
100
AcDbEntity
  8
YKK_N1
  6
Continuous
100
AcDbLine
 10
4457.99999999
 20
5005.7501202
 30
0.0
 11
4482.99999999
 21
5005.7501202
 31
0.0
  0
LINE
  5
D00
330
2
100
AcDbEntity
  8
YKK_N1
  6
Continuous
100
AcDbLine
 10
4569.60253999
 20
5055.7501202
 30
0.0
 11
4569.60253999
 21
4955.7501202
 31
0.0
  0
TEXT
  5
D01
330
2
100
AcDbEntity
  8
YKK_N1
  6
Continuous
100
AcDbText
 10
4332.99999999
 20
5017.7501232
 30
0.0
 40
60.0
  1
25
  7
MX_NOTE_STANDARD
100
AcDbText
  0
LINE
  5
D02
330
2
100
AcDbEntity
  8
YKK_N1
  6
Continuous
100
AcDbLine
 10
6172.99999999
 20
5005.7501202
 30
0.0
 11
4482.99999999
 21
5005.7501202
 31
0.0
  0
LINE
  5
D03
330
2
100
AcDbEntity
  8
YKK_N1
  6
Continuous
100
AcDbLine
 10
4482.99999999
 20
5130.7501202
 30
0.0
 11
4482.99999999
 21
5005.7501202
 31
0.0
  0
LINE
  5
D04
330
2
100
AcDbEntity
  8
YKK_N1
  6
Continuous
100
AcDbLine
 10
4457.99999999
 20
5130.7501202
 30
0.0
 11
4457.99999999
 21
4805.7501202
 31
0.0
  0
LINE
  5
D05
330
2
100
AcDbEntity
  8
YKK_N1
  6
Continuous
100
AcDbLine
 10
6197.99999999
 20
4805.7501202
 30
0.0
 11
4457.99999999
 21
4805.7501202
 31
0.0
  0
LINE
  5
D06
330
2
100
AcDbEntity
  8
YKK_N1
  6
Continuous
100
AcDbLine
 10
4544.60253999
 20
4855.7501202
 30
0.0
 11
4457.99999999
 21
4805.7501202
 31
0.0
  0
LINE
  5
D07
330
2
100
AcDbEntity
  8
YKK_N1
  6
Continuous
100
AcDbLine
 10
4457.99999999
 20
4805.7501202
 30
0.0
 11
4544.60253999
 21
4755.7501202
 31
0.0
  0
LINE
  5
D08
330
2
100
AcDbEntity
  8
YKK_N1
  6
Continuous
100
AcDbLine
 10
4544.60253999
 20
4855.7501202
 30
0.0
 11
4544.60253999
 21
4755.7501202
 31
0.0
  0
LINE
  5
D09
330
2
100
AcDbEntity
  8
YKK_N1
  6
Continuous
100
AcDbLine
 10
6111.39745999
 20
4855.7501202
 30
0.0
 11
6111.39745999
 21
4755.7501202
 31
0.0
  0
LINE
  5
D0A
330
2
100
AcDbEntity
  8
YKK_N1
  6
Continuous
100
AcDbLine
 10
6111.39745999
 20
4855.7501202
 30
0.0
 11
6197.99999999
 21
4805.7501202
 31
0.0
  0
LINE
  5
D0B
330
2
100
AcDbEntity
  8
YKK_N1
  6
Continuous
100
AcDbLine
 10
6197.99999999
 20
4805.7501202
 30
0.0
 11
6111.39745999
 21
4755.7501202
 31
0.0
  0
TEXT
  5
D0C
330
2
100
AcDbEntity
  8
YKK_N1
  6
Continuous
100
AcDbText
 10
5002.00998875
 20
4827.7501202
 30
0.0
 40
40.0
  1
ジョイント枠出来幅JW=1740
  7
MX_NOTE_STANDARD
 11
5002.00998875
 21
4847.7501202
 31
0.0
100
AcDbText
 73
     2
  0
LINE
  5
D0D
330
2
100
AcDbEntity
  8
YKK_A1
  6
Continuous
 48
0.5
100
AcDbLine
 10
5067.29226637
 20
6064.6180655
 30
0.0
 11
5097.28835833
 21
6084.61684361
 31
0.0
  0
LINE
  5
D0E
330
2
100
AcDbEntity
  8
YKK_A1
  6
Continuous
 48
0.5
100
AcDbLine
 10
5067.29226637
 20
6064.6180655
 30
0.0
 11
5067.29226637
 21
6077.11318194
 31
0.0
  0
LINE
  5
D0F
330
2
100
AcDbEntity
  8
YKK_A1
  6
Continuous
 48
0.5
100
AcDbLine
 10
5067.28836012
 20
6092.11440175
 30
0.0
 11
5067.28836012
 21
6104.61562171
 31
0.0
  0
LINE
  5
D10
330
2
100
AcDbEntity
  8
YKK_A1
  6
Continuous
 48
0.5
100
AcDbLine
 10
4883.95503772
 20
6077.10707843
 30
0.0
 11
5067.29226637
 21
6077.11318194
 31
0.0
  0
LINE
  5
D11
330
2
100
AcDbEntity
  8
YKK_A1
  6
Continuous
 48
0.5
100
AcDbLine
 10
4883.94722522
 20
6092.10512441
 30
0.0
 11
5067.28836012
 21
6092.11440175
 31
0.0
  0
LINE
  5
D12
330
2
100
AcDbEntity
  8
YKK_A1
  6
Continuous
 48
0.5
100
AcDbLine
 10
5067.28836012
 20
6104.61562171
 30
0.0
 11
5097.28835833
 21
6084.61684361
 31
0.0
  0
LINE
  5
D13
330
2
100
AcDbEntity
  8
YKK_A1
  6
Continuous
 48
0.5
100
AcDbLine
 10
4883.95503772
 20
6077.10707843
 30
0.0
 11
4883.95503772
 21
6092.10512441
 31
0.0
  0
LINE
  5
D14
330
2
100
AcDbEntity
  8
YKK_A1
  6
Continuous
 48
0.5
100
AcDbLine
 10
5591.70764752
 20
5954.6180655
 30
0.0
 11
5561.71155556
 21
5974.61684361
 31
0.0
  0
LINE
  5
D15
330
2
100
AcDbEntity
  8
YKK_A1
  6
Continuous
 48
0.5
100
AcDbLine
 10
5591.70764752
 20
5954.6180655
 30
0.0
 11
5591.70764752
 21
5967.11318194
 31
0.0
  0
LINE
  5
D16
330
2
100
AcDbEntity
  8
YKK_A1
  6
Continuous
 48
0.5
100
AcDbLine
 10
5591.71155377
 20
5982.11440175
 30
0.0
 11
5591.71155377
 21
5994.61562171
 31
0.0
  0
LINE
  5
D17
330
2
100
AcDbEntity
  8
YKK_A1
  6
Continuous
 48
0.5
100
AcDbLine
 10
5773.0448763
 20
5967.10707843
 30
0.0
 11
5591.70764752
 21
5967.11318194
 31
0.0
  0
LINE
  5
D18
330
2
100
AcDbEntity
  8
YKK_A1
  6
Continuous
 48
0.5
100
AcDbLine
 10
5773.0526888
 20
5982.10512441
 30
0.0
 11
5591.71155377
 21
5982.11440175
 31
0.0
  0
LINE
  5
D19
330
2
100
AcDbEntity
  8
YKK_A1
  6
Continuous
 48
0.5
100
AcDbLine
 10
5591.71155377
 20
5994.61562171
 30
0.0
 11
5561.71155556
 21
5974.61684361
 31
0.0
  0
LINE
  5
D1A
330
2
100
AcDbEntity
  8
YKK_A1
  6
Continuous
 48
0.5
100
AcDbLine
 10
5773.0448763
 20
5967.10707843
 30
0.0
 11
5773.0448763
 21
5982.10512441
 31
0.0
  0
TEXT
  5
D1B
330
2
100
AcDbEntity
  8
YKK_N1
  6
Continuous
100
AcDbText
 10
6409.0
 20
5615.91273513
 30
0.0
 40
60.0
  1
新設窓H=1170
 50
90.0
 41
1.122581
  7
MX_NOTE_STANDARD
 11
6379.0
 21
5615.91273513
 31
0.0
100
AcDbText
 73
     2
  0
TEXT
  5
D1C
330
2
100
AcDbEntity
  8
YKK_N1
  6
Continuous
100
AcDbText
 10
6409.0
 20
6498.25012021
 30
0.0
 40
60.0
  1
17
 50
90.0
  7
MX_NOTE_STANDARD
 11
6379.0
 21
6498.25012021
 31
0.0
100
AcDbText
 73
     2
  0
LINE
  5
D1D
330
2
100
AcDbEntity
  8
YKK_N1
  6
Continuous
100
AcDbLine
 10
6371.0
 20
6362.14757921
 30
0.0
 11
6471.0
 21
6362.14757921
 31
0.0
  0
LINE
  5
D1E
330
2
100
AcDbEntity
  8
YKK_N1
  6
Continuous
100
AcDbLine
 10
6371.0
 20
6362.14757921
 30
0.0
 11
6421.0
 21
6448.75012021
 31
0.0
  0
LINE
  5
D1F
330
2
100
AcDbEntity
  8
YKK_N1
  6
Continuous
100
AcDbLine
 10
6421.0
 20
6465.75012021
 30
0.0
 11
6421.0
 21
6448.75012021
 31
0.0
  0
CIRCLE
  5
D20
330
2
100
AcDbEntity
  8
YKK_N1
  6
Continuous
100
AcDbCircle
 10
6421.0
 20
6465.75012021
 30
0.0
 40
5.0
  0
LINE
  5
D21
330
2
100
AcDbEntity
  8
YKK_N1
  6
Continuous
100
AcDbLine
 10
6471.0
 20
6362.14757921
 30
0.0
 11
6421.0
 21
6448.75012021
 31
0.0
  0
LINE
  5
D22
330
2
100
AcDbEntity
  8
YKK_N1
  6
Continuous
100
AcDbLine
 10
6371.0
 20
5365.35306021
 30
0.0
 11
6471.0
 21
5365.35306021
 31
0.0
  0
LINE
  5
D23
330
2
100
AcDbEntity
  8
YKK_N1
  6
Continuous
100
AcDbLine
 10
6371.0
 20
5365.35306021
 30
0.0
 11
6421.0
 21
5278.75052021
 31
0.0
  0
LINE
  5
D24
330
2
100
AcDbEntity
  8
YKK_N1
  6
Continuous
100
AcDbLine
 10
6471.0
 20
5365.35306021
 30
0.0
 11
6421.0
 21
5278.75052021
 31
0.0
  0
LINE
  5
D25
330
2
100
AcDbEntity
  8
YKK_N1
  6
Continuous
100
AcDbLine
 10
6421.0
 20
6448.75012021
 30
0.0
 11
6421.0
 21
5278.75012021
 31
0.0
  0
LINE
  5
D26
330
2
100
AcDbEntity
  8
YKK_N1
  6
Continuous
100
AcDbLine
 10
6296.0
 20
5278.75012021
 30
0.0
 11
6421.0
 21
5278.75012021
 31
0.0
  0
LINE
  5
D27
330
2
100
AcDbEntity
  8
YKK_N1
  6
Continuous
100
AcDbLine
 10
6296.0
 20
6465.75012021
 30
0.0
 11
6621.0
 21
6465.75012021
 31
0.0
  0
LINE
  5
D28
330
2
100
AcDbEntity
  8
YKK_N1
  6
Continuous
100
AcDbLine
 10
6296.0
 20
6448.75012021
 30
0.0
 11
6421.0
 21
6448.75012021
 31
0.0
  0
LINE
  5
D29
330
2
100
AcDbEntity
  8
YKK_N1
  6
Continuous
100
AcDbLine
 10
6621.0
 20
6465.75012021
 30
0.0
 11
6621.0
 21
5272.25012021
 31
0.0
  0
LINE
  5
D2A
330
2
100
AcDbEntity
  8
YKK_N1
  6
Continuous
100
AcDbLine
 10
6571.0
 20
6379.14757921
 30
0.0
 11
6671.0
 21
6379.14757921
 31
0.0
  0
LINE
  5
D2B
330
2
100
AcDbEntity
  8
YKK_N1
  6
Continuous
100
AcDbLine
 10
6571.0
 20
6379.14757921
 30
0.0
 11
6621.0
 21
6465.75012021
 31
0.0
  0
LINE
  5
D2C
330
2
100
AcDbEntity
  8
YKK_N1
  6
Continuous
100
AcDbLine
 10
6671.0
 20
6379.14757921
 30
0.0
 11
6621.0
 21
6465.75012021
 31
0.0
  0
LINE
  5
D2D
330
2
100
AcDbEntity
  8
YKK_N1
  6
Continuous
100
AcDbLine
 10
6571.0
 20
5358.85266021
 30
0.0
 11
6671.0
 21
5358.85266021
 31
0.0
  0
LINE
  5
D2E
330
2
100
AcDbEntity
  8
YKK_N1
  6
Continuous
100
AcDbLine
 10
6571.0
 20
5358.85266021
 30
0.0
 11
6621.0
 21
5272.25012021
 31
0.0
  0
LINE
  5
D2F
330
2
100
AcDbEntity
  8
YKK_N1
  6
Continuous
100
AcDbLine
 10
6671.0
 20
5358.85266021
 30
0.0
 11
6621.0
 21
5272.25012021
 31
0.0
  0
TEXT
  5
D30
330
2
100
AcDbEntity
  8
YKK_N1
  6
Continuous
100
AcDbText
 10
6601.5
 20
5397.85570136
 30
0.0
 40
45.0
  1
ジョイント枠出来高JH=1193.5
 50
90.0
 41
1.122581
  7
MX_NOTE_STANDARD
 11
6579.0
 21
5397.85570136
 31
0.0
100
AcDbText
 73
     2
  0
LINE
  5
D31
330
2
100
AcDbEntity
  8
YKK_N1
  6
Continuous
100
AcDbLine
 10
6296.0
 20
5272.25012021
 30
0.0
 11
6621.0
 21
5272.25012021
 31
0.0
  0
LINE
  5
D32
330
2
100
AcDbEntity
  8
YKK_N1
100
AcDbLine
 10
6421.0
 20
5278.75012021
 30
0.0
 11
6421.0
 21
5272.25012021
 31
0.0
  0
CIRCLE
  5
D33
330
2
100
AcDbEntity
  8
YKK_N1
  6
Continuous
100
AcDbCircle
 10
6421.0
 20
5272.25012021
 30
0.0
 40
5.0
  0
TEXT
  5
D34
330
2
100
AcDbEntity
  8
YKK_N1
  6
Continuous
100
AcDbText
 10
6409.0
 20
5124.45801032
 30
0.0
 40
60.0
  1
6.5
 50
90.0
  7
MX_NOTE_STANDARD
 11
6379.0
 21
5124.45801032
 31
0.0
100
AcDbText
 73
     2
  0
ENDSEC
  0
SECTION
  2
OBJECTS
  0
DICTIONARY
  5
1E
330
0
100
AcDbDictionary
281
     1
  3
ACAD_BACKGROUND
350
6EF
  3
ACAD_CIP_PREVIOUS_PRODUCT_INFO
350
9D
  3
ACAD_COLOR
350
7B
  3
ACAD_DETAILVIEWSTYLE
350
95
  3
ACAD_GROUP
350
1C
  3
ACAD_LAYOUT
350
7C
  3
ACAD_MATERIAL
350
49
  3
ACAD_MLEADERSTYLE
350
91
  3
ACAD_MLINESTYLE
350
1D
  3
ACAD_PLOTSETTINGS
350
97
  3
ACAD_PLOTSTYLENAME
350
47
  3
ACAD_RENDER_ACTIVE_RAPIDRT_SETTINGS
350
A7
  3
ACAD_RENDER_ACTIVE_SETTINGS
350
744
  3
ACAD_SCALELIST
350
7F
  3
ACAD_SECTIONVIEWSTYLE
350
93
  3
ACAD_TABLESTYLE
350
7D
  3
ACAD_VISUALSTYLE
350
62
  3
ACDB_RECOMPOSE_DATA
350
DEC
  3
AcDbVariableDictionary
350
74B
  0
DICTIONARY
  5
705
330
16
100
AcDbDictionary
280
     1
281
     1
  0
DICTIONARY
  5
116
330
E
100
AcDbDictionary
280
     1
281
     1
  3
ACAD_LAYERSTATES
360
117
  0
DICTIONARY
  5
B2
330
6
100
AcDbDictionary
280
     1
281
     1
  3
ADSK_XREC_LAYER_RECONCILED
360
B3
  0
DICTIONARY
  5
B4
330
24
100
AcDbDictionary
280
     1
281
     1
  3
ADSK_XREC_LAYER_RECONCILED
360
B5
  0
DICTIONARY
  5
105
330
104
100
AcDbDictionary
280
     1
281
     1
  0
DICTIONARY
  5
107
330
106
100
AcDbDictionary
280
     1
281
     1
  0
DICTIONARY
  5
109
330
108
100
AcDbDictionary
280
     1
281
     1
  0
DICTIONARY
  5
10B
330
10A
100
AcDbDictionary
280
     1
281
     1
  0
DICTIONARY
  5
10D
330
10C
100
AcDbDictionary
280
     1
281
     1
  0
DICTIONARY
  5
10F
330
10E
100
AcDbDictionary
280
     1
281
     1
  0
DICTIONARY
  5
3
330
2
100
AcDbDictionary
280
     1
281
     1
  3
ACAD_LAYOUTSELFREF
360
4
  0
DICTIONARY
  5
A
330
9
100
AcDbDictionary
280
     1
281
     1
  3
ACAD_LAYOUTSELFREF
360
B
  0
DICTIONARY
  5
6EF
102
{ACAD_REACTORS
330
1E
102
}
330
1E
100
AcDbDictionary
281
     1
  0
XRECORD
  5
9D
102
{ACAD_REACTORS
330
1E
102
}
330
1E
100
AcDbXrecord
280
     1
300
ACD
300
2018
300
86830ACD_2018_0F
  0
DICTIONARY
  5
7B
102
{ACAD_REACTORS
330
1E
102
}
330
1E
100
AcDbDictionary
281
     1
  0
DICTIONARY
  5
95
102
{ACAD_REACTORS
330
1E
102
}
330
1E
100
AcDbDictionary
281
     1
  3
Imperial24
350
96
  3
Metric50
350
119
  0
DICTIONARY
  5
1C
102
{ACAD_REACTORS
330
1E
102
}
330
1E
100
AcDbDictionary
281
     1
  0
DICTIONARY
  5
7C
102
{ACAD_REACTORS
330
1E
102
}
330
1E
100
AcDbDictionary
281
     1
  3
Model
350
98
  3
レイアウト1
350
99
  0
DICTIONARY
  5
49
102
{ACAD_REACTORS
330
1E
102
}
330
1E
100
AcDbDictionary
281
     1
  3
ByBlock
350
52
  3
ByLayer
350
4A
  3
Global
350
5A
  0
DICTIONARY
  5
91
102
{ACAD_REACTORS
330
1E
102
}
330
1E
100
AcDbDictionary
281
     1
  3
Standard
350
92
  0
DICTIONARY
  5
1D
102
{ACAD_REACTORS
330
1E
102
}
330
1E
100
AcDbDictionary
281
     1
  3
STANDARD
350
1F
  0
DICTIONARY
  5
97
102
{ACAD_REACTORS
330
1E
102
}
330
1E
100
AcDbDictionary
281
     1
  0
ACDBDICTIONARYWDFLT
  5
47
102
{ACAD_REACTORS
330
1E
102
}
330
1E
100
AcDbDictionary
281
     1
  3
Normal
350
48
100
AcDbDictionaryWithDefault
340
48
  0
RAPIDRTRENDERSETTINGS
  5
A7
102
{ACAD_REACTORS
330
1E
102
}
330
1E
100
AcDbRenderSettings
 90
        2
  1
中
290
     1
290
     0
290
     1
290
     1
  1

  1
5 レンダリング レベルを適用
 90
        0
100
AcDbRapidRTRenderSettings
 90
        3
 70
     0
 90
        5
 90
        1
 70
     1
 70
     2
 40
3.0
 40
3.0
290
     1
  0
MENTALRAYRENDERSETTINGS
  5
744
102
{ACAD_XDICTIONARY
360
745
102
}
102
{ACAD_REACTORS
330
1E
102
}
330
1E
100
AcDbRenderSettings
 90
        2
  1
中間
290
     1
290
     1
290
     1
290
     1
  1

  1

 90
        0
100
AcDbMentalRayRenderSettings
 90
        2
 90
        0
 90
        1
 70
     2
 40
3.0
 40
3.0
 40
0.05
 40
0.05
 40
0.05
 40
0.05
 70
     0
290
     0
290
     1
 90
        5
 90
        5
 90
        5
290
     0
 90
      500
290
     0
 40
1.0
 90
    10000
 90
        5
 90
        5
 90
        5
290
     0
 90
      200
290
     0
290
     0
290
     0
 40
1.0
 40
1.0
 40
1500.0
 70
     0
 70
     0
 40
10.0
 70
     0
 70
     0
290
     0
  1

 90
       32
 70
     0
 90
     1048
290
     0
 40
1.0
  0
DICTIONARY
  5
7F
102
{ACAD_REACTORS
330
1E
102
}
330
1E
100
AcDbDictionary
281
     1
  3
A0
350
80
  3
A1
350
81
  3
A2
350
82
  3
A3
350
83
  3
A4
350
84
  3
A5
350
85
  3
A6
350
86
  3
A7
350
87
  3
A8
350
88
  3
A9
350
89
  3
B0
350
8A
  3
B1
350
8B
  3
B2
350
8C
  3
B3
350
8D
  3
B4
350
8E
  3
B5
350
8F
  3
B6
350
90
  0
DICTIONARY
  5
93
102
{ACAD_REACTORS
330
1E
102
}
330
1E
100
AcDbDictionary
281
     1
  3
Imperial24
350
94
  3
Metric50
350
118
  0
DICTIONARY
  5
7D
102
{ACAD_REACTORS
330
1E
102
}
330
1E
100
AcDbDictionary
281
     1
  3
Standard
350
7E
  0
DICTIONARY
  5
62
102
{ACAD_REACTORS
330
1E
102
}
330
1E
100
AcDbDictionary
281
     1
  3
2dWireframe
350
68
  3
Basic
350
67
  3
Brighten
350
6E
  3
ColorChange
350
72
  3
Conceptual
350
6B
  3
Dim
350
6D
  3
EdgeColorOff
350
7A
  3
Facepattern
350
71
  3
Flat
350
63
  3
FlatWithEdges
350
64
  3
Gouraud
350
65
  3
GouraudWithEdges
350
66
  3
Hidden
350
6A
  3
JitterOff
350
78
  3
Linepattern
350
70
  3
OverhangOff
350
79
  3
Realistic
350
6C
  3
Shaded
350
77
  3
Shaded with edges
350
76
  3
Shades of Gray
350
73
  3
Sketchy
350
74
  3
Thicken
350
6F
  3
Wireframe
350
69
  3
X-Ray
350
75
  0
XRECORD
  5
DEC
102
{ACAD_REACTORS
330
1E
102
}
330
1E
100
AcDbXrecord
280
     1
 90
        1
330
7E
  0
DICTIONARY
  5
74B
102
{ACAD_REACTORS
330
1E
102
}
330
1E
100
AcDbDictionary
281
     1
  3
CANNOSCALE
350
750
  3
CMLEADERSTYLE
350
74D
  3
CTABLESTYLE
350
74C
  3
CVIEWDETAILSTYLE
350
74E
  3
CVIEWSECTIONSTYLE
350
74F
  3
XCLIPFRAME
350
DEA
  0
DICTIONARY
  5
117
102
{ACAD_REACTORS
330
116
102
}
330
116
100
AcDbDictionary
281
     1
  0
XRECORD
  5
B3
102
{ACAD_REACTORS
330
B2
102
}
330
B2
100
AcDbXrecord
280
     1
290
     1
  0
XRECORD
  5
B5
102
{ACAD_REACTORS
330
B4
102
}
330
B4
100
AcDbXrecord
280
     1
290
     1
  0
XRECORD
  5
4
102
{ACAD_REACTORS
330
3
102
}
330
3
100
AcDbXrecord
280
     1
340
2
  0
XRECORD
  5
B
102
{ACAD_REACTORS
330
A
102
}
330
A
100
AcDbXrecord
280
     1
340
9
  0
ACDBDETAILVIEWSTYLE
  5
96
102
{ACAD_XDICTIONARY
360
E25
102
}
102
{ACAD_REACTORS
330
95
102
}
330
95
100
AcDbModelDocViewStyle
 70
     0
  3
Imperial24
290
     0
100
AcDbDetailViewStyle
 70
     0
 71
     0
 90
        3
 71
     1
340
10
 62
   256
 40
0.24
340
0
 62
   256
 40
0.24
300

 40
0.36
280
     3
 71
     2
340
7
 90
       25
 62
   256
 71
     3
340
10
 62
   256
 40
0.24
 90
        1
 40
0.75
 90
        1
300
%<\AcVar ViewType \f "%tc1">% %<\AcVar ViewDetailId>%\PSCALE %<\AcVar ViewScale \f "%sn">%
 71
     4
340
7
 90
       25
 62
   256
340
7
 90
       25
 62
   256
280
     0
  0
ACDBDETAILVIEWSTYLE
  5
119
102
{ACAD_XDICTIONARY
360
E29
102
}
102
{ACAD_REACTORS
330
95
102
}
330
95
100
AcDbModelDocViewStyle
 70
     0
  3
Metric50
290
     0
100
AcDbDetailViewStyle
 70
     0
 71
     0
 90
        3
 71
     1
340
10
 62
   256
 40
5.0
340
0
 62
   256
 40
5.0
300

 40
0.0
280
     1
 71
     2
340
7
 90
       25
 62
   256
 71
     3
340
10
 62
   256
 40
5.0
 90
        0
 40
15.0
 90
        1
300
%<\AcVar ViewDetailId>% (%<\AcVar ViewScale \f "%sn">%)
 71
     4
340
7
 90
       25
 62
   256
340
7
 90
       25
 62
   256
280
     0
  0
LAYOUT
  5
98
102
{ACAD_XDICTIONARY
360
742
102
}
102
{ACAD_REACTORS
330
7C
102
}
330
7C
100
AcDbPlotSettings
  1

  2
FX ApeosPort-V C7776
  4
A4
  6

 40
4.90008307
 41
4.90005493
 42
4.90008545
 43
4.90008545
 44
210.01567078
 45
297.01065063
 46
0.0
 47
0.0
 48
0.0
 49
0.0
140
0.0
141
0.0
142
1.0
143
6240.87038063
 70
  1712
 72
     0
 73
     0
 74
     0
  7
monochrome.ctb
 75
     0
147
0.00016023
 76
     0
 77
     2
 78
   300
148
38988.52545419
149
1987.59756046
100
AcDbLayout
  1
Model
 70
     1
 71
     0
 10
0.0
 20
0.0
 11
12.0
 21
9.0
 12
0.0
 22
0.0
 32
0.0
 14
0.0
 24
0.0
 34
0.0
 15
0.0
 25
0.0
 35
0.0
146
0.0
 13
0.0
 23
0.0
 33
0.0
 16
1.0
 26
0.0
 36
0.0
 17
0.0
 27
1.0
 37
0.0
 76
     0
330
2
331
45
  0
LAYOUT
  5
99
102
{ACAD_REACTORS
330
7C
102
}
330
7C
100
AcDbPlotSettings
  1

  2
FX ApeosPort-V C7776
  4
A4
  6

 40
4.90008307
 41
4.90005493
 42
4.90008545
 43
4.90008545
 44
210.01567078
 45
297.01065063
 46
0.0
 47
0.0
 48
0.0
 49
0.0
140
0.0
141
0.0
142
1.0
143
1.0
 70
   688
 72
     0
 73
     0
 74
     5
  7
monochrome.ctb
 75
    16
147
1.0
 76
     0
 77
     2
 78
   300
148
0.0
149
0.0
100
AcDbLayout
  1
レイアウト1
 70
     0
 71
     1
 10
0.0
 20
0.0
 11
12.0
 21
9.0
 12
0.0
 22
0.0
 32
0.0
 14
1.00000000E+20
 24
1.00000000E+20
 34
1.00000000E+20
 15
-1.00000000E+20
 25
-1.00000000E+20
 35
-1.00000000E+20
146
0.0
 13
0.0
 23
0.0
 33
0.0
 16
1.0
 26
0.0
 36
0.0
 17
0.0
 27
1.0
 37
0.0
 76
     0
330
9
  0
MATERIAL
  5
52
102
{ACAD_XDICTIONARY
360
53
102
}
102
{ACAD_REACTORS
330
49
102
}
330
49
100
AcDbMaterial
  1
ByBlock
 72
     0
 43
0.02083333
 43
0.0
 43
0.0
 43
0.0
 43
0.0
 43
0.02083333
 43
0.0
 43
0.0
 43
0.0
 43
0.0
 43
1.0
 43
0.0
 43
0.0
 43
0.0
 43
0.0
 43
1.0
 77
     0
 47
0.02083333
 47
0.0
 47
0.0
 47
0.0
 47
0.0
 47
0.02083333
 47
0.0
 47
0.0
 47
0.0
 47
0.0
 47
1.0
 47
0.0
 47
0.0
 47
0.0
 47
0.0
 47
1.0
171
     0
 49
0.02083333
 49
0.0
 49
0.0
 49
0.0
 49
0.0
 49
0.02083333
 49
0.0
 49
0.0
 49
0.0
 49
0.0
 49
1.0
 49
0.0
 49
0.0
 49
0.0
 49
0.0
 49
1.0
175
     0
142
0.02083333
142
0.0
142
0.0
142
0.0
142
0.0
142
0.02083333
142
0.0
142
0.0
142
0.0
142
0.0
142
1.0
142
0.0
142
0.0
142
0.0
142
0.0
142
1.0
179
     0
144
0.02083333
144
0.0
144
0.0
144
0.0
144
0.0
144
0.02083333
144
0.0
144
0.0
144
0.0
144
0.0
144
1.0
144
0.0
144
0.0
144
0.0
144
0.0
144
1.0
147
0.02083333
147
0.0
147
0.0
147
0.0
147
0.0
147
0.02083333
147
0.0
147
0.0
147
0.0
147
0.0
147
1.0
147
0.0
147
0.0
147
0.0
147
0.0
147
1.0
  0
MATERIAL
  5
4A
102
{ACAD_XDICTIONARY
360
4B
102
}
102
{ACAD_REACTORS
330
49
102
}
330
49
100
AcDbMaterial
  1
ByLayer
 72
     0
 43
0.02083333
 43
0.0
 43
0.0
 43
0.0
 43
0.0
 43
0.02083333
 43
0.0
 43
0.0
 43
0.0
 43
0.0
 43
1.0
 43
0.0
 43
0.0
 43
0.0
 43
0.0
 43
1.0
 77
     0
 47
0.02083333
 47
0.0
 47
0.0
 47
0.0
 47
0.0
 47
0.02083333
 47
0.0
 47
0.0
 47
0.0
 47
0.0
 47
1.0
 47
0.0
 47
0.0
 47
0.0
 47
0.0
 47
1.0
171
     0
 49
0.02083333
 49
0.0
 49
0.0
 49
0.0
 49
0.0
 49
0.02083333
 49
0.0
 49
0.0
 49
0.0
 49
0.0
 49
1.0
 49
0.0
 49
0.0
 49
0.0
 49
0.0
 49
1.0
175
     0
142
0.02083333
142
0.0
142
0.0
142
0.0
142
0.0
142
0.02083333
142
0.0
142
0.0
142
0.0
142
0.0
142
1.0
142
0.0
142
0.0
142
0.0
142
0.0
142
1.0
179
     0
144
0.02083333
144
0.0
144
0.0
144
0.0
144
0.0
144
0.02083333
144
0.0
144
0.0
144
0.0
144
0.0
144
1.0
144
0.0
144
0.0
144
0.0
144
0.0
144
1.0
147
0.02083333
147
0.0
147
0.0
147
0.0
147
0.0
147
0.02083333
147
0.0
147
0.0
147
0.0
147
0.0
147
1.0
147
0.0
147
0.0
147
0.0
147
0.0
147
1.0
  0
MATERIAL
  5
5A
102
{ACAD_XDICTIONARY
360
5B
102
}
102
{ACAD_REACTORS
330
49
102
}
330
49
100
AcDbMaterial
  1
Global
 72
     0
 43
0.02083333
 43
0.0
 43
0.0
 43
0.0
 43
0.0
 43
0.02083333
 43
0.0
 43
0.0
 43
0.0
 43
0.0
 43
1.0
 43
0.0
 43
0.0
 43
0.0
 43
0.0
 43
1.0
 77
     0
 47
0.02083333
 47
0.0
 47
0.0
 47
0.0
 47
0.0
 47
0.02083333
 47
0.0
 47
0.0
 47
0.0
 47
0.0
 47
1.0
 47
0.0
 47
0.0
 47
0.0
 47
0.0
 47
1.0
171
     0
 49
0.02083333
 49
0.0
 49
0.0
 49
0.0
 49
0.0
 49
0.02083333
 49
0.0
 49
0.0
 49
0.0
 49
0.0
 49
1.0
 49
0.0
 49
0.0
 49
0.0
 49
0.0
 49
1.0
175
     0
142
0.02083333
142
0.0
142
0.0
142
0.0
142
0.0
142
0.02083333
142
0.0
142
0.0
142
0.0
142
0.0
142
1.0
142
0.0
142
0.0
142
0.0
142
0.0
142
1.0
179
     0
144
0.02083333
144
0.0
144
0.0
144
0.0
144
0.0
144
0.02083333
144
0.0
144
0.0
144
0.0
144
0.0
144
1.0
144
0.0
144
0.0
144
0.0
144
0.0
144
1.0
147
0.02083333
147
0.0
147
0.0
147
0.0
147
0.0
147
0.02083333
147
0.0
147
0.0
147
0.0
147
0.0
147
1.0
147
0.0
147
0.0
147
0.0
147
0.0
147
1.0
  0
MLEADERSTYLE
  5
92
102
{ACAD_XDICTIONARY
360
E21
102
}
102
{ACAD_REACTORS
330
91
102
}
330
91
100
AcDbMLeaderStyle
170
     2
171
     1
172
     0
 90
        2
 40
0.0
 41
0.0
173
     1
 91
-1056964608
340
12
 92
       -2
290
     1
 42
0.09
291
     1
 43
0.36
  3
Standard
 44
0.18
300

342
10
174
     1
178
     6
175
     1
176
     0
 93
-1056964608
 45
0.18
292
     0
297
     0
 46
0.18
 94
-1056964608
 47
1.0
 49
1.0
140
1.0
293
     1
141
0.0
294
     1
177
     0
142
1.0
295
     0
296
     0
143
0.125
1001
ACAD_MLEADERVER
1070
     2
  0
MLINESTYLE
  5
1F
102
{ACAD_REACTORS
330
1D
102
}
330
1D
100
AcDbMlineStyle
  2
STANDARD
 70
     0
  3

 62
   256
 51
90.0
 52
90.0
 71
     2
 49
0.5
 62
   256
  6
BYLAYER
 49
-0.5
 62
   256
  6
BYLAYER
  0
ACDBPLACEHOLDER
  5
48
102
{ACAD_REACTORS
330
47
102
}
330
47
  0
DICTIONARY
  5
745
330
744
100
AcDbDictionary
280
     1
281
     1
  3
ADSK_XREC_MENTALRAYSETTINGSINFO
360
746
  0
SCALE
  5
80
102
{ACAD_REACTORS
330
7F
102
}
330
7F
100
AcDbScale
 70
     0
300
1:1
140
1.0
141
1.0
290
     1
  0
SCALE
  5
81
102
{ACAD_REACTORS
330
7F
102
}
330
7F
100
AcDbScale
 70
     0
300
1/128" = 1'-0"
140
0.0078125
141
12.0
290
     0
  0
SCALE
  5
82
102
{ACAD_REACTORS
330
7F
102
}
330
7F
100
AcDbScale
 70
     0
300
1/64" = 1'-0"
140
0.015625
141
12.0
290
     0
  0
SCALE
  5
83
102
{ACAD_REACTORS
330
7F
102
}
330
7F
100
AcDbScale
 70
     0
300
1/32" = 1'-0"
140
0.03125
141
12.0
290
     0
  0
SCALE
  5
84
102
{ACAD_REACTORS
330
7F
102
}
330
7F
100
AcDbScale
 70
     0
300
1/16" = 1'-0"
140
0.0625
141
12.0
290
     0
  0
SCALE
  5
85
102
{ACAD_REACTORS
330
7F
102
}
330
7F
100
AcDbScale
 70
     0
300
3/32" = 1'-0"
140
0.09375
141
12.0
290
     0
  0
SCALE
  5
86
102
{ACAD_REACTORS
330
7F
102
}
330
7F
100
AcDbScale
 70
     0
300
1/8" = 1'-0"
140
0.125
141
12.0
290
     0
  0
SCALE
  5
87
102
{ACAD_REACTORS
330
7F
102
}
330
7F
100
AcDbScale
 70
     0
300
3/16" = 1'-0"
140
0.1875
141
12.0
290
     0
  0
SCALE
  5
88
102
{ACAD_REACTORS
330
7F
102
}
330
7F
100
AcDbScale
 70
     0
300
1/4" = 1'-0"
140
0.25
141
12.0
290
     0
  0
SCALE
  5
89
102
{ACAD_REACTORS
330
7F
102
}
330
7F
100
AcDbScale
 70
     0
300
3/8" = 1'-0"
140
0.375
141
12.0
290
     0
  0
SCALE
  5
8A
102
{ACAD_REACTORS
330
7F
102
}
330
7F
100
AcDbScale
 70
     0
300
1/2" = 1'-0"
140
0.5
141
12.0
290
     0
  0
SCALE
  5
8B
102
{ACAD_REACTORS
330
7F
102
}
330
7F
100
AcDbScale
 70
     0
300
3/4" = 1'-0"
140
0.75
141
12.0
290
     0
  0
SCALE
  5
8C
102
{ACAD_REACTORS
330
7F
102
}
330
7F
100
AcDbScale
 70
     0
300
1" = 1'-0"
140
1.0
141
12.0
290
     0
  0
SCALE
  5
8D
102
{ACAD_REACTORS
330
7F
102
}
330
7F
100
AcDbScale
 70
     0
300
1-1/2" = 1'-0"
140
1.5
141
12.0
290
     0
  0
SCALE
  5
8E
102
{ACAD_REACTORS
330
7F
102
}
330
7F
100
AcDbScale
 70
     0
300
3" = 1'-0"
140
3.0
141
12.0
290
     0
  0
SCALE
  5
8F
102
{ACAD_REACTORS
330
7F
102
}
330
7F
100
AcDbScale
 70
     0
300
6" = 1'-0"
140
6.0
141
12.0
290
     0
  0
SCALE
  5
90
102
{ACAD_REACTORS
330
7F
102
}
330
7F
100
AcDbScale
 70
     0
300
1'-0" = 1'-0"
140
12.0
141
12.0
290
     0
  0
ACDBSECTIONVIEWSTYLE
  5
94
102
{ACAD_XDICTIONARY
360
E23
102
}
102
{ACAD_REACTORS
330
93
102
}
330
93
100
AcDbModelDocViewStyle
 70
     0
  3
Imperial24
290
     0
100
AcDbSectionViewStyle
 70
     0
 71
     0
 90
       78
 71
     1
340
10
 62
   256
 40
0.24
340
0
340
0
 62
   256
 40
0.24
300
I, O, Q, S, X, Z
 40
0.48
 90
        3
 40
0.18
 90
        1
 71
     2
340
7
 90
       25
 62
   256
340
7
 90
       50
 62
   256
 40
0.24
 40
0.0
 40
0.24
 71
     3
340
10
 62
   256
 40
0.24
 90
        1
 40
0.75
 90
        1
300
%<\AcVar ViewType \f "%tc1">% %<\AcVar ViewSectionStartId>%-%<\AcVar ViewSectionEndId>%\PSCALE %<\AcVar ViewScale \f "%sn">%
 71
     4
 62
   256
 62
   257
300
ANSI31
 40
1.0
 90
        0
290
     0
290
     0
 90
        6
 40
0.0
 40
1.57079633
 40
0.26179939
 40
1.30899694
 40
-0.26179939
 40
1.83259571
  0
ACDBSECTIONVIEWSTYLE
  5
118
102
{ACAD_XDICTIONARY
360
E27
102
}
102
{ACAD_REACTORS
330
93
102
}
330
93
100
AcDbModelDocViewStyle
 70
     0
  3
Metric50
290
     0
100
AcDbSectionViewStyle
 70
     0
 71
     0
 90
      102
 71
     1
340
10
 62
   256
 40
5.0
340
0
340
0
 62
   256
 40
5.0
300
I, O, Q, S, X, Z
 40
10.0
 90
        0
 40
2.5
 90
        0
 71
     2
340
7
 90
       25
 62
   256
340
7
 90
       50
 62
   256
 40
5.0
 40
2.5
 40
5.0
 71
     3
340
10
 62
   256
 40
5.0
 90
        0
 40
15.0
 90
        1
300
%<\AcVar ViewSectionStartId>%-%<\AcVar ViewSectionEndId>% (%<\AcVar ViewScale \f "%sn">%)
 71
     4
 62
   256
 62
   257
300
ANSI31
 40
1.0
 90
        0
290
     0
290
     0
 90
        6
 40
0.0
 40
1.57079633
 40
0.26179939
 40
1.30899694
 40
-0.26179939
 40
1.83259571
  0
TABLESTYLE
  5
7E
102
{ACAD_XDICTIONARY
360
6FA
102
}
102
{ACAD_REACTORS
330
7D
102
}
330
7D
100
AcDbTableStyle
  3
Standard
 70
     0
 71
     0
 40
0.06
 41
0.06
280
     0
281
     0
  7
STANDARD
140
0.18
170
     2
 62
     0
 63
     7
283
     0
274
    -2
284
     1
 64
     0
275
    -2
285
     1
 65
     0
276
    -2
286
     1
 66
     0
277
    -2
287
     1
 67
     0
278
    -2
288
     1
 68
     0
279
    -2
289
     1
 69
     0
  7
STANDARD
140
0.25
170
     5
 62
     0
 63
     7
283
     0
274
    -2
284
     1
 64
     0
275
    -2
285
     1
 65
     0
276
    -2
286
     1
 66
     0
277
    -2
287
     1
 67
     0
278
    -2
288
     1
 68
     0
279
    -2
289
     1
 69
     0
  7
STANDARD
140
0.18
170
     5
 62
     0
 63
     7
283
     0
274
    -2
284
     1
 64
     0
275
    -2
285
     1
 65
     0
276
    -2
286
     1
 66
     0
277
    -2
287
     1
 67
     0
278
    -2
288
     1
 68
     0
279
    -2
289
     1
 69
     0
  0
VISUALSTYLE
  5
68
102
{ACAD_XDICTIONARY
360
DFA
102
}
102
{ACAD_REACTORS
330
62
102
}
330
62
100
AcDbVisualStyle
  2
2dWireframe
 70
     4
 71
     0
 72
     2
 73
     0
 90
        0
 40
-0.6
 41
-30.0
 62
     5
 63
     7
421
 16777215
 74
     1
 91
        4
 64
     7
 65
   257
 75
     1
175
     1
 42
1.0
 92
        0
 66
   257
 43
1.0
 76
     1
 77
     6
 78
     2
 67
     7
 79
     5
170
     0
171
     0
290
     0
174
     0
 93
        1
 44
0.0
173
     0
291
     0
 45
0.0
1001
ACAD
1000
AcDbSavedByObjectVersion
1070
     0
  0
VISUALSTYLE
  5
67
102
{ACAD_XDICTIONARY
360
DF8
102
}
102
{ACAD_REACTORS
330
62
102
}
330
62
100
AcDbVisualStyle
  2
Basic
 70
     7
 71
     1
 72
     0
 73
     1
 90
        0
 40
-0.6
 41
-30.0
 62
     5
 63
     7
421
 16777215
 74
     0
 91
        4
 64
     7
 65
   257
 75
     1
175
     1
 42
1.0
 92
        8
 66
     7
 43
1.0
 76
     1
 77
     6
 78
     2
 67
     7
 79
     5
170
     0
171
     0
290
     0
174
     0
 93
        1
 44
0.0
173
     0
291
     1
 45
0.0
1001
ACAD
1000
AcDbSavedByObjectVersion
1070
     0
  0
VISUALSTYLE
  5
6E
102
{ACAD_XDICTIONARY
360
E06
102
}
102
{ACAD_REACTORS
330
62
102
}
330
62
100
AcDbVisualStyle
  2
Brighten
 70
    12
 71
     2
 72
     2
 73
     0
 90
        0
 40
-0.6
 41
-30.0
 62
     5
 63
     7
421
 16777215
 74
     1
 91
        4
 64
     7
 65
   257
 75
     1
175
     1
 42
1.0
 92
        8
 66
     7
 43
1.0
 76
     1
 77
     6
 78
     2
 67
     7
 79
     5
170
     0
171
     0
290
     0
174
     0
 93
        1
 44
50.0
173
     0
291
     1
 45
0.0
1001
ACAD
1000
AcDbSavedByObjectVersion
1070
     0
  0
VISUALSTYLE
  5
72
102
{ACAD_XDICTIONARY
360
E0E
102
}
102
{ACAD_REACTORS
330
62
102
}
330
62
100
AcDbVisualStyle
  2
ColorChange
 70
    16
 71
     2
 72
     2
 73
     3
 90
        0
 40
-0.6
 41
-30.0
 62
     5
 63
     8
421
  8421504
 74
     1
 91
        4
 64
     7
 65
   257
 75
     1
175
     1
 42
1.0
 92
        8
 66
     8
424
  8421504
 43
1.0
 76
     1
 77
     6
 78
     2
 67
     7
 79
     5
170
     0
171
     0
290
     0
174
     0
 93
        1
 44
0.0
173
     0
291
     1
 45
0.0
1001
ACAD
1000
AcDbSavedByObjectVersion
1070
     0
  0
VISUALSTYLE
  5
6B
102
{ACAD_XDICTIONARY
360
E00
102
}
102
{ACAD_REACTORS
330
62
102
}
330
62
100
AcDbVisualStyle
  2
Conceptual
 70
     9
 71
     3
 72
     2
 73
     0
 90
        0
 40
-0.6
 41
-30.0
 62
     5
 63
     7
421
 16777215
 74
     2
 91
        2
 64
     7
 65
   257
 75
     1
175
     1
 42
179.0
 92
        8
 66
     7
 43
1.0
 76
     1
 77
     6
 78
     2
 67
     7
 79
     3
170
     0
171
     0
290
     0
174
     0
 93
        1
 44
0.0
173
     0
291
     0
 45
0.0
1001
ACAD
1000
AcDbSavedByObjectVersion
1070
     0
  0
VISUALSTYLE
  5
6D
102
{ACAD_XDICTIONARY
360
E04
102
}
102
{ACAD_REACTORS
330
62
102
}
330
62
100
AcDbVisualStyle
  2
Dim
 70
    11
 71
     2
 72
     2
 73
     0
 90
        0
 40
-0.6
 41
-30.0
 62
     5
 63
     7
421
 16777215
 74
     1
 91
        4
 64
     7
 65
   257
 75
     1
175
     1
 42
1.0
 92
        8
 66
     7
 43
1.0
 76
     1
 77
     6
 78
     2
 67
     7
 79
     5
170
     0
171
     0
290
     0
174
     0
 93
        1
 44
-50.0
173
     0
291
     1
 45
0.0
1001
ACAD
1000
AcDbSavedByObjectVersion
1070
     0
  0
VISUALSTYLE
  5
7A
102
{ACAD_XDICTIONARY
360
E1E
102
}
102
{ACAD_REACTORS
330
62
102
}
330
62
100
AcDbVisualStyle
  2
EdgeColorOff
 70
    22
 71
     2
 72
     2
 73
     0
 90
        0
 40
-0.6
 41
-30.0
 62
     5
 63
     7
421
 16777215
 74
     1
 91
        4
 64
     7
 65
   257
 75
     1
175
     1
 42
1.0
 92
        8
 66
     7
 43
1.0
 76
     1
 77
     6
 78
     2
 67
     7
 79
     5
170
     0
171
     0
290
     0
174
     0
 93
        1
 44
0.0
173
     0
291
     1
 45
0.0
1001
ACAD
1000
AcDbSavedByObjectVersion
1070
     0
  0
VISUALSTYLE
  5
71
102
{ACAD_XDICTIONARY
360
E0C
102
}
102
{ACAD_REACTORS
330
62
102
}
330
62
100
AcDbVisualStyle
  2
Facepattern
 70
    15
 71
     2
 72
     2
 73
     0
 90
        0
 40
-0.6
 41
-30.0
 62
     5
 63
     7
421
 16777215
 74
     1
 91
        4
 64
     7
 65
   257
 75
     1
175
     1
 42
1.0
 92
        8
 66
     7
 43
1.0
 76
     1
 77
     6
 78
     2
 67
     7
 79
     5
170
     0
171
     0
290
     0
174
     0
 93
        1
 44
0.0
173
     0
291
     1
 45
0.0
1001
ACAD
1000
AcDbSavedByObjectVersion
1070
     0
  0
VISUALSTYLE
  5
63
102
{ACAD_XDICTIONARY
360
DF0
102
}
102
{ACAD_REACTORS
330
62
102
}
330
62
100
AcDbVisualStyle
  2
Flat
 70
     0
 71
     2
 72
     1
 73
     1
 90
        2
 40
-0.6
 41
30.0
 62
     5
 63
     7
421
 16777215
 74
     0
 91
        0
 64
     7
 65
   257
 75
     1
175
     1
 42
1.0
 92
        8
 66
     7
 43
1.0
 76
     1
 77
     6
 78
     2
 67
     7
 79
     5
170
     0
171
     0
290
     0
174
     0
 93
       13
 44
0.0
173
     0
291
     1
 45
0.0
1001
ACAD
1000
AcDbSavedByObjectVersion
1070
     0
  0
VISUALSTYLE
  5
64
102
{ACAD_XDICTIONARY
360
DF2
102
}
102
{ACAD_REACTORS
330
62
102
}
330
62
100
AcDbVisualStyle
  2
FlatWithEdges
 70
     1
 71
     2
 72
     1
 73
     1
 90
        2
 40
-0.6
 41
30.0
 62
     5
 63
     7
421
 16777215
 74
     1
 91
        0
 64
     7
 65
   257
 75
     1
175
     1
 42
1.0
 92
        0
 66
   257
 43
1.0
 76
     1
 77
     6
 78
     2
 67
     7
 79
     5
170
     0
171
     0
290
     0
174
     0
 93
       13
 44
0.0
173
     0
291
     1
 45
0.0
1001
ACAD
1000
AcDbSavedByObjectVersion
1070
     0
  0
VISUALSTYLE
  5
65
102
{ACAD_XDICTIONARY
360
DF4
102
}
102
{ACAD_REACTORS
330
62
102
}
330
62
100
AcDbVisualStyle
  2
Gouraud
 70
     2
 71
     2
 72
     2
 73
     1
 90
        2
 40
-0.6
 41
30.0
 62
     5
 63
     7
421
 16777215
 74
     0
 91
        0
 64
     7
 65
   257
 75
     1
175
     1
 42
1.0
 92
        0
 66
     7
 43
1.0
 76
     1
 77
     6
 78
     2
 67
     7
 79
     5
170
     0
171
     0
290
     0
174
     0
 93
       13
 44
0.0
173
     0
291
     1
 45
0.0
1001
ACAD
1000
AcDbSavedByObjectVersion
1070
     0
  0
VISUALSTYLE
  5
66
102
{ACAD_XDICTIONARY
360
DF6
102
}
102
{ACAD_REACTORS
330
62
102
}
330
62
100
AcDbVisualStyle
  2
GouraudWithEdges
 70
     3
 71
     2
 72
     2
 73
     1
 90
        2
 40
-0.6
 41
30.0
 62
     5
 63
     7
421
 16777215
 74
     1
 91
        0
 64
     7
 65
   257
 75
     1
175
     1
 42
1.0
 92
        0
 66
   257
 43
1.0
 76
     1
 77
     6
 78
     2
 67
     7
 79
     5
170
     0
171
     0
290
     0
174
     0
 93
       13
 44
0.0
173
     0
291
     1
 45
0.0
1001
ACAD
1000
AcDbSavedByObjectVersion
1070
     0
  0
VISUALSTYLE
  5
6A
102
{ACAD_XDICTIONARY
360
DFE
102
}
102
{ACAD_REACTORS
330
62
102
}
330
62
100
AcDbVisualStyle
  2
Hidden
 70
     6
 71
     1
 72
     2
 73
     2
 90
        0
 40
-0.6
 41
-30.0
 62
     5
 63
     7
421
 16777215
 74
     2
 91
        2
 64
     7
 65
   257
 75
     2
175
     1
 42
40.0
 92
        0
 66
   257
 43
1.0
 76
     1
 77
     6
 78
     2
 67
     7
 79
     3
170
     0
171
     0
290
     0
174
     0
 93
        1
 44
0.0
173
     0
291
     0
 45
0.0
1001
ACAD
1000
AcDbSavedByObjectVersion
1070
     0
  0
VISUALSTYLE
  5
78
102
{ACAD_XDICTIONARY
360
E1A
102
}
102
{ACAD_REACTORS
330
62
102
}
330
62
100
AcDbVisualStyle
  2
JitterOff
 70
    20
 71
     2
 72
     2
 73
     0
 90
        0
 40
-0.6
 41
-30.0
 62
     5
 63
     7
421
 16777215
 74
     1
 91
        4
 64
     7
 65
   257
 75
     1
175
     1
 42
1.0
 92
       10
 66
     7
 43
1.0
 76
     1
 77
     6
 78
     2
 67
     7
 79
     5
170
     0
171
     0
290
     0
174
     0
 93
        1
 44
0.0
173
     0
291
     1
 45
0.0
1001
ACAD
1000
AcDbSavedByObjectVersion
1070
     0
  0
VISUALSTYLE
  5
70
102
{ACAD_XDICTIONARY
360
E0A
102
}
102
{ACAD_REACTORS
330
62
102
}
330
62
100
AcDbVisualStyle
  2
Linepattern
 70
    14
 71
     2
 72
     2
 73
     0
 90
        0
 40
-0.6
 41
-30.0
 62
     5
 63
     7
421
 16777215
 74
     1
 91
        4
 64
     7
 65
   257
 75
     7
175
     7
 42
1.0
 92
        8
 66
     7
 43
1.0
 76
     1
 77
     6
 78
     2
 67
     7
 79
     5
170
     0
171
     0
290
     0
174
     0
 93
        1
 44
0.0
173
     0
291
     1
 45
0.0
1001
ACAD
1000
AcDbSavedByObjectVersion
1070
     0
  0
VISUALSTYLE
  5
79
102
{ACAD_XDICTIONARY
360
E1C
102
}
102
{ACAD_REACTORS
330
62
102
}
330
62
100
AcDbVisualStyle
  2
OverhangOff
 70
    21
 71
     2
 72
     2
 73
     0
 90
        0
 40
-0.6
 41
-30.0
 62
     5
 63
     7
421
 16777215
 74
     1
 91
        4
 64
     7
 65
   257
 75
     1
175
     1
 42
1.0
 92
        9
 66
     7
 43
1.0
 76
     1
 77
     6
 78
     2
 67
     7
 79
     5
170
     0
171
     0
290
     0
174
     0
 93
        1
 44
0.0
173
     0
291
     1
 45
0.0
1001
ACAD
1000
AcDbSavedByObjectVersion
1070
     0
  0
VISUALSTYLE
  5
6C
102
{ACAD_XDICTIONARY
360
E02
102
}
102
{ACAD_REACTORS
330
62
102
}
330
62
100
AcDbVisualStyle
  2
Realistic
 70
     8
 71
     2
 72
     2
 73
     0
 90
        2
 40
-0.6
 41
30.0
 62
     5
 63
     7
421
 16777215
 74
     0
 91
        0
 64
     7
 65
   257
 75
     1
175
     1
 42
1.0
 92
        8
 66
   257
 43
1.0
 76
     1
 77
     6
 78
     2
 67
     7
 79
     3
170
     0
171
     0
290
     0
174
     0
 93
       13
 44
0.0
173
     0
291
     0
 45
0.0
1001
ACAD
1000
AcDbSavedByObjectVersion
1070
     0
  0
VISUALSTYLE
  5
77
102
{ACAD_XDICTIONARY
360
E18
102
}
102
{ACAD_REACTORS
330
62
102
}
330
62
100
AcDbVisualStyle
  2
Shaded
 70
    27
 71
     2
 72
     2
 73
     1
 90
        2
 40
-0.6
 41
30.0
 62
     5
 63
     7
421
 16777215
 74
     0
 91
        4
 64
     7
 65
   257
 75
     1
175
     1
 42
1.0
 92
        8
 66
   257
 43
1.0
 76
     1
 77
     6
 78
     2
 67
     8
425
  7895160
 79
     3
170
     0
171
     0
290
     0
174
     0
 93
        5
 44
0.0
173
     0
291
     0
 45
0.0
1001
ACAD
1000
AcDbSavedByObjectVersion
1070
     0
  0
VISUALSTYLE
  5
76
102
{ACAD_XDICTIONARY
360
E16
102
}
102
{ACAD_REACTORS
330
62
102
}
330
62
100
AcDbVisualStyle
  2
Shaded with edges
 70
    26
 71
     2
 72
     2
 73
     1
 90
        2
 40
-0.6
 41
30.0
 62
     5
 63
     7
421
 16777215
 74
     1
 91
        2
 64
     7
 65
   257
 75
     2
175
     1
 42
1.0
 92
        8
 66
   257
 43
1.0
 76
     1
 77
     6
 78
     2
 67
     7
 79
     3
170
     0
171
     0
290
     0
174
     0
 93
        5
 44
0.0
173
     0
291
     0
 45
0.0
1001
ACAD
1000
AcDbSavedByObjectVersion
1070
     0
  0
VISUALSTYLE
  5
73
102
{ACAD_XDICTIONARY
360
E10
102
}
102
{ACAD_REACTORS
330
62
102
}
330
62
100
AcDbVisualStyle
  2
Shades of Gray
 70
    23
 71
     2
 72
     2
 73
     3
 90
        0
 40
-0.6
 41
-30.0
 62
     5
 63
     7
421
 16777215
 74
     2
 91
        2
 64
     7
 65
     7
 75
     1
175
     1
 42
40.0
 92
        8
 66
     7
 43
1.0
 76
     1
 77
     6
 78
     2
 67
     7
 79
     3
170
     0
171
     0
290
     0
174
     0
 93
        1
 44
0.0
173
     0
291
     0
 45
0.0
1001
ACAD
1000
AcDbSavedByObjectVersion
1070
     0
  0
VISUALSTYLE
  5
74
102
{ACAD_XDICTIONARY
360
E12
102
}
102
{ACAD_REACTORS
330
62
102
}
330
62
100
AcDbVisualStyle
  2
Sketchy
 70
    24
 71
     1
 72
     2
 73
     2
 90
        0
 40
-0.6
 41
-30.0
 62
     5
 63
     7
421
 16777215
 74
     2
 91
        2
 64
     7
 65
     7
 75
     1
175
     1
 42
40.0
 92
       11
 66
     7
 43
1.0
 76
     1
 77
     6
 78
     2
 67
     7
 79
     6
170
     0
171
     0
290
     0
174
     0
 93
        1
 44
0.0
173
     0
291
     0
 45
0.0
1001
ACAD
1000
AcDbSavedByObjectVersion
1070
     0
  0
VISUALSTYLE
  5
6F
102
{ACAD_XDICTIONARY
360
E08
102
}
102
{ACAD_REACTORS
330
62
102
}
330
62
100
AcDbVisualStyle
  2
Thicken
 70
    13
 71
     2
 72
     2
 73
     0
 90
        0
 40
-0.6
 41
-30.0
 62
     5
 63
     7
421
 16777215
 74
     1
 91
        4
 64
     7
 65
   257
 75
     1
175
     1
 42
1.0
 92
       12
 66
     7
 43
1.0
 76
     1
 77
     6
 78
     2
 67
     7
 79
     5
170
     0
171
     0
290
     0
174
     0
 93
        1
 44
0.0
173
     0
291
     1
 45
0.0
1001
ACAD
1000
AcDbSavedByObjectVersion
1070
     0
  0
VISUALSTYLE
  5
69
102
{ACAD_XDICTIONARY
360
DFC
102
}
102
{ACAD_REACTORS
330
62
102
}
330
62
100
AcDbVisualStyle
  2
Wireframe
 70
     5
 71
     0
 72
     2
 73
     0
 90
        0
 40
-0.6
 41
-30.0
 62
     5
 63
     7
421
 16777215
 74
     1
 91
        4
 64
     7
 65
   257
 75
     1
175
     1
 42
1.0
 92
        0
 66
   257
 43
1.0
 76
     1
 77
     6
 78
     2
 67
     7
 79
     3
170
     0
171
     0
290
     0
174
     0
 93
        1
 44
0.0
173
     0
291
     0
 45
0.0
1001
ACAD
1000
AcDbSavedByObjectVersion
1070
     0
  0
VISUALSTYLE
  5
75
102
{ACAD_XDICTIONARY
360
E14
102
}
102
{ACAD_REACTORS
330
62
102
}
330
62
100
AcDbVisualStyle
  2
X-Ray
 70
    25
 71
     2
 72
     2
 73
     1
 90
        1
 40
0.5
 41
-30.0
 62
     5
 63
     7
421
 16777215
 74
     1
 91
        0
 64
     7
 65
   257
 75
     1
175
     1
 42
1.0
 92
        8
 66
     7
 43
1.0
 76
     1
 77
     6
 78
     2
 67
     7
 79
     3
170
     0
171
     0
290
     0
174
     0
 93
       13
 44
0.0
173
     0
291
     0
 45
0.0
1001
ACAD
1000
AcDbSavedByObjectVersion
1070
     0
  0
DICTIONARYVAR
  5
750
102
{ACAD_REACTORS
330
74B
102
}
330
74B
100
DictionaryVariables
280
     0
  1
1:1
  0
DICTIONARYVAR
  5
74D
102
{ACAD_REACTORS
330
74B
102
}
330
74B
100
DictionaryVariables
280
     0
  1
STANDARD
  0
DICTIONARYVAR
  5
74C
102
{ACAD_REACTORS
330
74B
102
}
330
74B
100
DictionaryVariables
280
     0
  1
STANDARD
  0
DICTIONARYVAR
  5
74E
102
{ACAD_REACTORS
330
74B
102
}
330
74B
100
DictionaryVariables
280
     0
  1
Imperial24
  0
DICTIONARYVAR
  5
74F
102
{ACAD_REACTORS
330
74B
102
}
330
74B
100
DictionaryVariables
280
     0
  1
Imperial24
  0
DICTIONARYVAR
  5
DEA
102
{ACAD_REACTORS
330
74B
102
}
330
74B
100
DictionaryVariables
280
     0
  1
2
  0
DICTIONARY
  5
E25
330
96
100
AcDbDictionary
280
     1
281
     1
  3
ACAD_XREC_ROUNDTRIP
360
E26
  0
DICTIONARY
  5
E29
330
119
100
AcDbDictionary
280
     1
281
     1
  3
ACAD_XREC_ROUNDTRIP
360
E2A
  0
DICTIONARY
  5
742
330
98
100
AcDbDictionary
280
     1
281
     1
  3
ADSK_XREC_LAYOUTTHUMBNAIL
360
743
  0
DICTIONARY
  5
53
330
52
100
AcDbDictionary
280
     1
281
     1
  3
ACAD_XREC_ROUNDTRIP
360
DEE
  3
BUMPTILE
360
55
  3
DIFFUSETILE
360
54
  3
OPACITYTILE
360
58
  3
REFLECTIONTILE
360
57
  3
REFRACTIONTILE
360
59
  3
SPECULARTILE
360
56
  0
DICTIONARY
  5
4B
330
4A
100
AcDbDictionary
280
     1
281
     1
  3
ACAD_XREC_ROUNDTRIP
360
DED
  3
BUMPTILE
360
4D
  3
DIFFUSETILE
360
4C
  3
OPACITYTILE
360
50
  3
REFLECTIONTILE
360
4F
  3
REFRACTIONTILE
360
51
  3
SPECULARTILE
360
4E
  0
DICTIONARY
  5
5B
330
5A
100
AcDbDictionary
280
     1
281
     1
  3
ACAD_XREC_ROUNDTRIP
360
DEF
  3
BUMPTILE
360
5D
  3
DIFFUSETILE
360
5C
  3
OPACITYTILE
360
60
  3
REFLECTIONTILE
360
5F
  3
REFRACTIONTILE
360
61
  3
SPECULARTILE
360
5E
  0
DICTIONARY
  5
E21
330
92
100
AcDbDictionary
280
     1
281
     1
  3
ACAD_XREC_ROUNDTRIP
360
E22
  0
XRECORD
  5
746
102
{ACAD_REACTORS
330
745
102
}
330
745
100
AcDbXrecord
280
     1
 70
     2
 71
     3
 72
     0
  0
DICTIONARY
  5
E23
330
94
100
AcDbDictionary
280
     1
281
     1
  3
ACAD_XREC_ROUNDTRIP
360
E24
  0
DICTIONARY
  5
E27
330
118
100
AcDbDictionary
280
     1
281
     1
  3
ACAD_XREC_ROUNDTRIP
360
E28
  0
DICTIONARY
  5
6FA
330
7E
100
AcDbDictionary
280
     1
281
     1
  3
ACAD_ROUNDTRIP_2008_TABLESTYLE_CELLSTYLEMAP
360
DEB
  3
ACAD_XREC_ROUNDTRIP
360
E20
  0
DICTIONARY
  5
DFA
330
68
100
AcDbDictionary
280
     1
281
     1
  3
ACAD_XREC_ROUNDTRIP
360
DFB
  0
DICTIONARY
  5
DF8
330
67
100
AcDbDictionary
280
     1
281
     1
  3
ACAD_XREC_ROUNDTRIP
360
DF9
  0
DICTIONARY
  5
E06
330
6E
100
AcDbDictionary
280
     1
281
     1
  3
ACAD_XREC_ROUNDTRIP
360
E07
  0
DICTIONARY
  5
E0E
330
72
100
AcDbDictionary
280
     1
281
     1
  3
ACAD_XREC_ROUNDTRIP
360
E0F
  0
DICTIONARY
  5
E00
330
6B
100
AcDbDictionary
280
     1
281
     1
  3
ACAD_XREC_ROUNDTRIP
360
E01
  0
DICTIONARY
  5
E04
330
6D
100
AcDbDictionary
280
     1
281
     1
  3
ACAD_XREC_ROUNDTRIP
360
E05
  0
DICTIONARY
  5
E1E
330
7A
100
AcDbDictionary
280
     1
281
     1
  3
ACAD_XREC_ROUNDTRIP
360
E1F
  0
DICTIONARY
  5
E0C
330
71
100
AcDbDictionary
280
     1
281
     1
  3
ACAD_XREC_ROUNDTRIP
360
E0D
  0
DICTIONARY
  5
DF0
330
63
100
AcDbDictionary
280
     1
281
     1
  3
ACAD_XREC_ROUNDTRIP
360
DF1
  0
DICTIONARY
  5
DF2
330
64
100
AcDbDictionary
280
     1
281
     1
  3
ACAD_XREC_ROUNDTRIP
360
DF3
  0
DICTIONARY
  5
DF4
330
65
100
AcDbDictionary
280
     1
281
     1
  3
ACAD_XREC_ROUNDTRIP
360
DF5
  0
DICTIONARY
  5
DF6
330
66
100
AcDbDictionary
280
     1
281
     1
  3
ACAD_XREC_ROUNDTRIP
360
DF7
  0
DICTIONARY
  5
DFE
330
6A
100
AcDbDictionary
280
     1
281
     1
  3
ACAD_XREC_ROUNDTRIP
360
DFF
  0
DICTIONARY
  5
E1A
330
78
100
AcDbDictionary
280
     1
281
     1
  3
ACAD_XREC_ROUNDTRIP
360
E1B
  0
DICTIONARY
  5
E0A
330
70
100
AcDbDictionary
280
     1
281
     1
  3
ACAD_XREC_ROUNDTRIP
360
E0B
  0
DICTIONARY
  5
E1C
330
79
100
AcDbDictionary
280
     1
281
     1
  3
ACAD_XREC_ROUNDTRIP
360
E1D
  0
DICTIONARY
  5
E02
330
6C
100
AcDbDictionary
280
     1
281
     1
  3
ACAD_XREC_ROUNDTRIP
360
E03
  0
DICTIONARY
  5
E18
330
77
100
AcDbDictionary
280
     1
281
     1
  3
ACAD_XREC_ROUNDTRIP
360
E19
  0
DICTIONARY
  5
E16
330
76
100
AcDbDictionary
280
     1
281
     1
  3
ACAD_XREC_ROUNDTRIP
360
E17
  0
DICTIONARY
  5
E10
330
73
100
AcDbDictionary
280
     1
281
     1
  3
ACAD_XREC_ROUNDTRIP
360
E11
  0
DICTIONARY
  5
E12
330
74
100
AcDbDictionary
280
     1
281
     1
  3
ACAD_XREC_ROUNDTRIP
360
E13
  0
DICTIONARY
  5
E08
330
6F
100
AcDbDictionary
280
     1
281
     1
  3
ACAD_XREC_ROUNDTRIP
360
E09
  0
DICTIONARY
  5
DFC
330
69
100
AcDbDictionary
280
     1
281
     1
  3
ACAD_XREC_ROUNDTRIP
360
DFD
  0
DICTIONARY
  5
E14
330
75
100
AcDbDictionary
280
     1
281
     1
  3
ACAD_XREC_ROUNDTRIP
360
E15
  0
XRECORD
  5
E26
102
{ACAD_REACTORS
330
E25
102
}
330
E25
100
AcDbXrecord
280
     1
102
DISPLAYNAME
  1
Imperial24
102
FLAGS
 90
        0
  0
XRECORD
  5
E2A
102
{ACAD_REACTORS
330
E29
102
}
330
E29
100
AcDbXrecord
280
     1
102
DISPLAYNAME
  1
Metric50
102
FLAGS
 90
        0
  0
XRECORD
  5
743
102
{ACAD_REACTORS
330
742
102
}
330
742
100
AcDbXrecord
280
     1
310
2800000000010000630000000100080000000000006300000100000001000000000100000000000000000000FFFFFF00000000000000000000000000000000210000007B000000D6000000BD0000004200000021330000106600000899000008CC000008FF00000000330000333300006633000099330000CC330008FF3300
310
63006600DE336600FF666600EF996600BDCC660042FF66002100990018339900106699001099990010CC990010FF99000800CC000033CC000066CC000099CC0039CCCC00CEFFCC00FF00FF00FF33FF00EF66FF00BD99FF0042CCFF0029FFFF004A00003342330033216600331899003318CC003308FF003300003333003333
310
33086633336B993333CECC3333FFFF3333FF006633EF336633BD666633C6996633CECC6633CEFF6633C600993373339933186699331899993300CC993300FF99330000CC330833CC336B66CC33CE99CC33FFCCCC33FFFFCC33F700FF33FF33FF33FF66FF33FF99FF33FFCCFF33DEFFFF337B0000661833006600660066FF99
310
0066FFCC0066FFFF0066FF003366FF333366FF663366FF993366FFCC3366FFFF3366E7006666E7336666FF666666FF996666DECC666673FF666600009966FF339966FF669966FF999966FFCC9966FFFF9966FF00CC66FF33CC66FF66CC66FF99CC667BCCCC6684FFCC66C600FF66FF33FF66FF66FF66C699FF6600CCFF66FF
310
FFFF66FF000099FF330099FF660099FF990099FFCC0099FFFF0099FF003399FF333399186633991899339973CC3399E7FF3399FF006699D633669900666699FF996699FFCC6699FFFF6699FF009999FF339999FF669999FF999999FFCC9999FFFF99992100CC991833CC996B66CC99DE99CC99FFCCCC99D6FFCC990000FF99
310
FF33FF99FF66FF99FF99FF99FFCCFF99FFFFFF99FF0000CCFF3300CCFF6600CCFF9900CC52CC00CC5AFF00CCBD0033CCF73333CCFF6633CCCE9933CC00CC33CCFFFF33CCFF0066CCFF3366CCFF6666CCFF9966CCFFCC66CCFFFF66CCFF0099CCFF3399CCD66699CCD69999CCF7CC99CCFFFF99CCEF00CCCC8C33CCCC0066CC
310
CCFF99CCCCFFCCCCCCFFFFCCCCFF00FFCCFF33FFCCFF66FFCCFF99FFCCFFCCFFCCFFFFFFCCFF0000FFFF3300FFFF6600FFEF9900FFC6CC00FF4AFF00FF000033FFFF3333FFFF6633FFFF9933FFFFCC33FFFFFF33FFFF0066FFFF3366FFFF6666FFFF9966FFE7CC66FFE7FF66FFD60099FF8C3399FF4A6699FF089999FF00CC
310
99FFFFFF99FFFF00CCFFFF33CCFFFF66CCFFFF99CCFFFFCCCCFFFFFFCCFFFF00FFFFFF33FFFF7366FFFF7399FFFF4ACCFFFF10FFFFFF08000000000D0D0D001A1A1AFF282828FF353535FF434343FF505050FF5D5D5DFF6B6B6BFF787878FF868686FF93939308A1A1A108AEAEAE08BBBBBB00C9C9C900D6D6D600E4E4E400
310
F1F1F100FFFFFF000000000000000000000000000000000000000000000000000000000000000000000000000000000000000000000000000000000000000000000000000000000000000000000000000000000000000000000000000000000000000000000000000000000000000000000000000000000000000000000000
310
00000000000000000000000000000000000000000000000000000000000000000000000000000000000000000000000000000000000000000000000000000000000000000000000000000000000000000000000000000000000000000000000000000000000000000000000000000000000000000000000000000000000000
310
0000000000000000000000000000000000000000000000000000000000000000000000000000000000000000000000000000000000000000000000000000000000000000000000000000000000000000000000000000000000000000000000000000000000000000000000000000F5F5F5F5F5F5F5F5F5F5F5F5F5F5F5F5F5
310
F5F5F5F5F5F5F5F5F5F5F5F5F5F5F5F5F5F5F5F5F5F5F5F5F5F5F5F5F5F5F5F5F5F5F5F5F5F5F5F5F5F5F5F5F5F5F5F5F5F5F5F5F5F5F5F5F5F5F5F5F5F5F5F5F5F5F5F5F5F5F5F5F5F5F5F5F5F5F5F5F5F5F5F5F5F5F5F5F5F5F5F5F5F5F5F5F5F5F5F5F5F5F5F5F5F5F5F5F5F5F5F5F5F5F5F5F5F5F50000000000000000
310
00000000000000000000000000000000000000000000000000000000000000000000000000000000000000000000000000000000000000000000000000000000000000000000000000000000000000000000000000000000000000000000000000000000000000000000000000000000F50000000000000000000000000000
310
000000000000000000000000000000000000000000000000000000000000000000000000000000000000000000000000000000000000000000000000000000000000000000000000000000000000000000000000000000000000000000000000000000000000000000000000000000000000000000F50000F5000000000000
310
000000000000000000000000000000000000000000000000000000000000000000000000000000000000000000000000000000000000000000000000000000000000000000000000000000000000000000000000000000000000000000000000000000000000000000000000000000000000F5000000000000000000000000
310
0000000000000000000000000000000000000000000000000000000000000000000000000000000000000000000000000000000000000000000000000000000000000000000000000000000000000000000000000000000000000000000000000000000000000000000000000000000000000000000000F50000F500000000
310
0000000000000000000000000000000000000000000000000000000000000000000000000000000000000000000000000000000000000000000000000000000000000000000000000000000000000000000000000000000000000000000000000000000000000000000000000000000000000000F500000000000000000000
310
00000000000000000000000000000000000000000000000000000000000000000000000000000000000000000000000000000000000000000000000000000000000000000000000000000000000000000000000000000000000000000000000000000000000000000000000000000000000000000000000000F50000F50000
310
00000000000000000000000000000000000000000000000000000000000000000000000000000000000000000000000000000000000000000000000000000000000000000000000000000000000000000000000000000000000000000000000000000000000000000000000000000000000000000000F50000000000000000
310
000000000000000000000000000000000000000000000000000000000000000000000000000000000000000000000000000000000000000000000000000000000000000000000000000000000000000000000000000000000000000000000000000000000000000000000000000000000000000000000000000000F50000F5
310
000000000000000000000000000000000000000000000000000000000000000000000000000000000000000000000000000000000000000000000000000000000000000000000000000000000000000000000000000000000000000000000000000000000000000000000000000000000000000000000000F5000000000000
310
0000000000000000000000000000000000000000000000000000000000000000000000000000000000000000000000000000000000000000000000000000000000000000000000000000000000000000000000000000000000000000000000000000000000000000000000000000000000000000000000000000000000F500
310
00F5000000000000000000000000000000000000000000000000000000000000000000000000000000000000000000000000000000000000000000000000000000000000000000000000000000000000000000000000000000000000000000000000000000000000000000000000000000000000000000000000F500000000
310
00000000000000000000000000000000000000000000000000000000000000000000000000000000000000000000000000000000000000000000000000000000000000000000000000000000000000000000000000000000000000000000000000000000000000000000000000000000000000000000000000000000000000
310
F50000F5000000000000000000000000000000000000000000000000000000000000000000000000000000000000000000000000000000000000000000000000000000000000000000000000000000000000000000000000000000000000000000000000000000000000000000000000000000000000000000000000F50000
310
00000000000000000000000000000000000000000000000000000000000000000000000000000000000000000000000000000000000000000000000000000000000000000000000000000000000000000000000000000000000000000000000000000000000000000000000000000000000000000000000000000000000000
310
0000F50000F5000000000000000000000000000000000000000000000000000000000000000000000000000000000000000000000000000000000000000000000000000000000000000000000000000000000000000000000000000000000000000000000000000000000000000000000000000000000000000000000000F5
310
00000000000000000000000000000000000000000000000000000000000000000000000000000000000000000000000000000000000000000000000000000000000000000000000000000000000000000000000000000000000000000000000000000000000000000000000000000000000000000000000000000000000000
310
00000000F50000F50000000000000000000000000000000000000000000000000000000000000000000000000000000000000000000000000000000000000000000000000000000000000000000000000000000000000000000000000000000000000000000000000000000000000000000000000000000000000000000000
310
00F50000000000000000000000000000000000000000000000000000000000000000000000000000000000000000000000000000000000000000000000000000000000000000000000000000000000000000000000000000000000000000000000000000000000000000000000000000000000000000000000000000000000
310
000000000000F50000F5000000000000000000000000000000000000000000000000000000000000000000000000000000000000000000000000000000000000000000000000000000000000000000000000000000000000000000000000000000000000000000000000000000000000000000000000000000000000000000
310
000000F5000000000000000000000000000000000000000000000000000000000000000000000000000000000000000000000000000000000000000000000000000000000000000000000000000000000000000000000000000000000000000000000000000000000000000000000000000000000000000000000000000000
310
0000000000000000F50000F500000000000000000000000000000000000000000000000000000000000000000000000000000000000000000000000000000000000000000000000000000000000000000000000000000000000000000000000000000000000000000000000000000000000000000000000000000000000000
310
0000000000F500000000000000000000000000000000000000000000000000000000000000000000000000000000000000000000000000000000000000000000000000000000000000000000000000000000000000000000000000000000000000000000000000000000000000000000000000000000000000000000000000
310
00000000000000000000F50000F50000000000000000000000000000000000000000000000000000000000000000000000000000000000000000000000000000000000000000000000000000000000000000000000000000000000000000000000000000000000000000000000000000000000000000000000000000000000
310
00000000000000F50000000000000000000000000000000000000000000000000000000000000000000000000000000000000000000000000000000000000000000000000000000000000000000000000000000000000000000000000000000000000000000000000000000000000000000000000000000000000000000000
310
000000000000000000000000F50000F5000000000000000000000000000000000000000000000000000000000000000000000000000000000000000000000000000000000000000000000000000000000000000000000000000000000000000000000000000000000000000000000000000000000000000000000000000000
310
000000000000000000F5000000000000000000000000000000000000000000000000000000000000000000000000000000000000000000000000000000000000000000000000000000000000000000000000000000000000000000000000000000000000000000000000000000000000000000000000000000000000000000
310
0000000000000000000000000000F50000F500000000000000000000000000000000000000000000000000000000000000000000000000000000000000000000000000000000000000000000000000000000000000000000000000000000000000000000000000000000000000000000000000000000000000000000000000
310
0000000000000000000000F500000000000000000000000000000000000000000000000000000000000000000000000000000000000000000000000000000000000000000000000000000000000000000000000000000000000000000000000000000000000000000000000000000000000000000000000000000000000000
310
00000000000000000000000000000000F50000F50000000000000000000000000000000000000000000000000000000000000000000000000000000000000000000000000000000000000000000000000000000000000000000000000000000000000000000000000000000000000000000000000000000000000000000000
310
00000000000000000000000000F50000000000000000000000000000000000000000000000000000000000000000000000000000000000000000000000000000000000000000000000000000000000000000000000000000000000000000000000000000000000000000000000000000000000000000000000000000000000
310
000000000000000000000000000000000000F50000F5000000000000000000000000000000000000000000000000000000000000000000000000000000000000000000000000000000000000000000000000000000000000000000000000000000000000000000000000000000000000000000000000000000000000000000
310
000000000000000000000000000000F5000000000000000000000000000000000000000000000000000000000000000000000000000000000000000000000000000000000000000000000000000000000000000000000000000000000000000000000000000000000000000000000000000000000000000000000000000000
310
0000000000000000000000000000000000000000F50000F500000000000000000000000000000000000000000000000000000000000000000000000000000000000000000000000000000000000000000000000000000000000000000000000000000000000000000000000000000000000000000000000000000000000000
310
0000000000000000000000000000000000F500000000000000000000000000000000000000000000000000000000000000000000000000000000000000000000000000000000000000000000000000000000000000000000000000000000000000000000000000000000000000000000000000000000000000000000000000
310
00000000000000000000000000000000000000000000F50000F50000000000000000000000000000000000000000000000000000000000000000000000000000000000000000000000000000000000000000000000000000000000000000000000000000000000000000000000000000000000000000000000000000000000
310
00000000000000000000000000000000000000F50000000000000000000000000000000000000000000000000000000000000000000000000000000000000000000000000000000000000000000000000000000000000000000000000000000000000000000000000000000000000000000000000000000000000000000000
310
000000000000000000000000000000000000000000000000F50000F5000000000000000000000000000000000000000000000000000000000000000000000000000000000000000000000000000000000000000000000000000000000000000000000000000000000000000000000000000000000000000000000000000000
310
000000000000000000000000000000000000000000F5000000000000000000000000000000000000000000000000000000000000000000000000000000000000000000000000000000000000000000000000000000000000000000000000000000000000000000000000000000000000000000000000000000000000000000
310
0000000000000000000000000000000000000000000000000000F50000F500000000000000000000000000000000000000000000000000000000000000000000000000000000000000000000000000000000000000000000000000000000000000000000000000000000000000000000000000000000000000000000000000
310
0000000000000000000000000000000000000000000000F500000000000000000000000000000000000000000000000000000000000000000000000000000000000000000000000000000000000000000000000000000000000000000000000000000000000000000000000000000000000000000000000000000000000000
310
00000000000000000000000000000000000000000000000000000000F50000F50000000000000000000000000000000000000000000000000000000000000000000000000000000000000000000000000000000000000000000000000000000000000000000000000000000000000000000000000000000000000000000000
310
00000000000000000000000000000000000000000000000000F50000000000000000000000000000000000000000000000000000000000000000000000000000000000000000DC0000000000000000000000000000DC0000000000000000000000000000000000000000000000000000000000000000000000000000000000
310
000000000000000000000000000000000000000000000000000000000000F50000F5000000000000000000000000000000000000000000000000000000000000000000000000000000000000000000000000000000000000000000000000000000000000000000000000000000000000000000000000000000000000000000
310
000000000000000000000000000000000000000000000000000000F500000000000000000000000000000000000000000000000000000000000000000000000000000000000000DCDCDCDCDCDCDCDCDCDCDCDCDCDCDCDCDCDC0000000000000000000000000000000000000000000000000000000000000000000000000000
310
0000000000000000000000000000000000000000000000000000000000000000F50000F500000000000000000000000000000000000000000000000000000000000000000000000000000000000000000000000000000000000000000000000000000000000000000000000000000000000000000000000000000000000000
310
0000000000000000000000000000000000000000000000000000000000F500000000000000000000000000000000000000000000000000000000000000000000000000000000000000DCDC0000000000000000000000000000DCDC000000000000000000000000000000000000000000000000000000000000000000000000
310
00000000000000000000000000000000000000000000000000000000000000000000F50000F50000000000000000000000000000000000000000000000000000000000000000000000000000000000000000000000000000000000000000000000000000000000000000000000000000000000000000000000000000000000
310
00000000000000000000000000000000000000000000000000000000000000F5000000000000000000000000000000000000000000000000000000000000000000000000000000000000DCDCDCDCDCDCDCDCDCDCDCDCDCDCDCDCDCDCDCDC000000000000000000000000000000000000000000000000000000000000000000
310
000000000000000000000000000000000000000000000000000000000000000000000000F50000F5000000000000000000000000000000000000000000000000000000000000000000000000000000000000000000000000000000000000000000000000000000000000000000000000000000000000000000000000000000
310
000000000000000000000000000000000000000000000000000000000000000000F500000000000000000000000000000000000000000000000000000000000000000000000000000000000000DCDC0000000000000000000000000000DCDC0000000000000000000000000000000000000000000000000000000000000000
310
0000000000000000000000000000000000000000000000000000000000000000000000000000F50000F500000000000000000000000000000000000000000000000000000000000000000000000000000000000000000000000000000000000000000000000000000000000000000000000000000000000000000000000000
310
0000000000000000000000000000000000000000000000000000000000000000000000F5000000000000000000000000000000000000000000000000000000000000000000000000000000000000DCDCDCDCDCDCDCDCDCDCDCDCDCDCDCDCDCDCDCDC0000000000000000000000000000000000000000000000000000000000
310
00000000000000000000000000000000000000000000000000000000000000000000000000000000F50000F50000000000000000000000000000000000000000000000000000000000000000000000000000000000000000000000000000000000000000000000000000000000000000000000000000000000000000000000
310
00000000000000000000000000000000000000000000000000000000000000000000000000F500000000000000000000000000000000000000000000000000000000000000000000000000000000000000DC00000000000000000000000000000000DC00000000000000000000000000000000000000000000000000000000
310
000000000000000000000000000000000000000000000000000000000000000000000000000000000000F50000F5000000000000000000000000000000000000000000000000000000000000000000000000000000000000000000000000000000000000000000000000000000000000000000000000000000000000000000
310
000000000000000000000000000000000000000000000000000000000000000000000000000000F500000000000000000000000000000000000000000000000000000000000000000000000000000000000000DCDC00000000000000000000000000DCDCDC0000000000000000000000000000000000000000000000000000
310
0000000000000000000000000000000000000000000000000000000000000000000000000000000000000000F50000F500000000000000000000000000000000000000000000000000000000000000000000000000000000000000000000000000000000000000000000000000000000000000000000000000000000000000
310
0000000000000000000000000000000000000000000000000000000000000000000000000000000000F500000000000000000000000000000000000000000000000000000000000000000000000000000000000000DC000000000000000000000000000000DCDC000000000000000000000000000000000000000000000000
310
00000000000000000000000000000000000000000000000000000000000000000000000000000000000000000000F50000F50000000000000000000000000000000000000000000000000000000000000000000000000000000000000000000000000000000000000000000000000000000000000000000000000000000000
310
00000000000000000000000000000000000000000000000000000000000000000000000000000000000000F5000000000000000000000000000000000000000000000000000000000000000000000000000000000000F50F0F0F0F0F0F0F0F0F0F0F0FDC0F0F0F0F0FF5DC0000000000000000000000000000000000000000
310
000000000000000000000000000000000000000000000000000000000000000000000000000000000000000000000000F50000F5000000000000000000000000000000000000000000000000000000000000000000000000000000000000000000000000000000000000000000000000000000000000000000000000000000
310
000000000000000000000000000000000000000000000000000000000000000000000000000000000000000000F5000000000000000000000000000000000000000000000000000000000000000000000000000000000000F52D2D2D2D2D2D2D2D2D2D2D2DDCDCDC2D2D2DDCDCDC0000000000000000000000000000000000
310
0000000000000000000000000000000000000000000000000000000000000000000000000000000000000000000000000000F50000F500000000000000000000000000000000000000000000000000000000000000000000000000000000000000000000000000000000000000000000000000000000000000000000000000
310
0000000000000000000000000000000000000000000000000000000000000000000000000000000000000000000000F5000000000000000000000000000000000000000000000000000000000000000000000000000000000000F52D2D2D2D2D2D2D2D2D2D2D2DDCDCDC2D2D2DDCDCDC000000000000000000000000000000
310
00000000000000000000000000000000000000000000000000000000000000000000000000000000000000000000000000000000F50000F50000000000000000000000000000000000000000000000000000000000000000000000000000000000000000000000000000000000000000000000000000000000000000000000
310
00000000000000000000000000000000000000000000000000000000000000000000000000000000000000000000000000F500000000000000000000000000000000000000000000000000000000000000000000000000000000000000000000000000000000000000DC000000000000DC0000000000000000000000000000
310
000000000000000000000000000000000000000000000000000000000000000000000000000000000000000000000000000000000000F50000F5000000000000000000000000000000000000000000000000000000000000000000000000000000000000000000000000000000000000000000000000000000000000000000
310
000000000000000000000000000000000000000000000000000000000000000000000000000000000000000000000000000000F5000000000000000000000000000000000000000000000000000000000000000000000000000000000000000000000000000000000000000000000000000000000000000000000000000000
310
0000000000000000000000000000000000000000000000000000000000000000000000000000000000000000000000000000000000000000F50000F500000000000000000000000000000000000000000000000000000000000000000000000000000000000000000000000000000000000000000000000000000000000000
310
0000000000000000000000000000000000000000000000000000000000000000000000000000000000000000000000000000000000F500000000000000000000000000000000000000000000000000000000000000000000000000000000000000000000000000000000000000000000000000000000000000000000000000
310
00000000000000000000000000000000000000000000000000000000000000000000000000000000000000000000000000000000000000000000F50000F50000000000000000000000000000000000000000000000000000000000000000000000000000000000000000000000000000000000000000000000000000000000
310
00000000000000000000000000000000000000000000000000000000000000000000000000000000000000000000000000000000000000F50000000000000000000000000000000000000000000000000000000000000000000000000000000000000000000000000000000000000000000000000000000000000000000000
310
000000000000000000000000000000000000000000000000000000000000000000000000000000000000000000000000000000000000000000000000F50000F5000000000000000000000000000000000000000000000000000000000000000000000000000000000000000000000000000000000000000000000000000000
310
000000000000000000000000000000000000000000000000000000000000000000000000000000000000000000000000000000000000000000F5000000000000000000000000000000000000000000000000000000000000000000000000000000000000000000000000000000000000000000000000000000000000000000
310
0000000000000000000000000000000000000000000000000000000000000000000000000000000000000000000000000000000000000000000000000000F50000F500000000000000000000000000000000000000000000000000000000000000000000000000000000000000000000000000000000000000000000000000
310
0000000000000000000000000000000000000000000000000000000000000000000000000000000000000000000000000000000000000000000000F500000000000000000000000000000000000000000000000000000000000000000000000000000000000000000000000000000000000000000000000000000000000000
310
00000000000000000000000000000000000000000000000000000000000000000000000000000000000000000000000000000000000000000000000000000000F50000F50000000000000000000000000000000000000000000000000000000000000000000000000000000000000000000000000000000000000000000000
310
00000000000000000000000000000000000000000000000000000000000000000000000000000000000000000000000000000000000000000000000000F50000000000000000000000000000000000000000000000000000000000000000000000000000000000000000000000000000000000000000000000000000000000
310
000000000000000000000000000000000000000000000000000000000000000000000000000000000000000000000000000000000000000000000000000000000000F50000F5000000000000000000000000000000000000000000000000000000000000000000000000000000000000000000000000000000000000000000
310
000000000000000000000000000000000000000000000000000000000000000000000000000000000000000000000000000000000000000000000000000000F5000000000000000000000000000000000000000000000000000000000000000000000000000000000000000000000000000000000000000000000000000000
310
0000000000000000000000000000000000000000000000000000000000000000000000000000000000000000000000000000000000000000000000000000000000000000F50000F500000000000000000000000000000000000000000000000000000000000000000000000000000000000000000000000000000000000000
310
0000000000000000000000000000000000000000000000000000000000000000000000000000000000000000000000000000000000000000000000000000000000F500000000000000000000000000000000000000000000000000000000000000000000000000000000000000000000000000000000000000000000000000
310
00000000000000000000000000000000000000000000000000000000000000000000000000000000000000000000000000000000000000000000000000000000000000000000F50000F50000000000000000000000000000000000000000000000000000000000000000000000000000000000000000000000000000000000
310
00000000000000000000000000000000000000000000000000000000000000000000000000000000000000000000000000000000000000000000000000000000000000F50000000000000000000000000000000000000000000000000000000000000000000000000000000000000000000000000000000000000000000000
310
000000000000000000000000000000000000000000000000000000000000000000000000000000000000000000000000000000000000000000000000000000000000000000000000F50000F5000000000000000000000000000000000000000000000000000000000000000000000000000000000000000000000000000000
310
000000000000000000000000000000000000000000000000000000000000000000000000000000000000000000000000000000000000000000000000000000000000000000F5000000000000000000000000000000000000000000000000000000000000000000000000000000000000000000000000000000000000000000
310
0000000000000000000000000000000000000000000000000000000000000000000000000000000000000000000000000000000000000000000000000000000000000000000000000000F50000F500000000000000000000000000000000000000000000000000000000000000000000000000000000000000000000000000
310
0000000000000000000000000000000000000000000000000000000000000000000000000000000000000000000000000000000000000000000000000000000000000000000000F500000000000000000000000000000000000000000000000000000000000000000000000000000000000000000000000000000000000000
310
00000000000000000000000000000000000000000000000000000000000000000000000000000000000000000000000000000000000000000000000000000000000000000000000000000000F50000F50000000000000000000000000000000000000000000000000000000000000000000000000000000000000000000000
310
00000000000000000000000000000000000000000000000000000000000000000000000000000000000000000000000000000000000000000000000000000000000000000000000000F50000000000000000000000000000000000000000000000000000000000000000000000000000000000000000000000000000000000
310
000000000000000000000000000000000000000000000000000000000000000000000000000000000000000000000000000000000000000000000000000000000000000000000000000000000000F50000F5000000000000000000000000000000000000000000000000000000000000000000000000000000000000000000
310
000000000000000000000000000000000000000000000000000000000000000000000000000000000000000000000000000000000000000000000000000000000000000000000000000000F500000000000000000000000000000000000000000000000000000000000000000000000000000000000000DCDCDCDCDCDCDCDC
310
DCDCDCDCDCDCDCDCDCDC00000000000000000000000000000000000000000000000000000000000000000000000000000000000000000000000000000000000000000000000000000000000000000000F50000F500000000000000000000000000000000000000000000000000000000000000000000000000000000000000
310
0000000000000000000000000000000000000000000000000000000000000000000000000000000000000000000000000000000000000000000000000000000000000000000000000000000000F500000000000000000000000000000000000000000000000000000000000000000000000000000000000000DCDC000000DC
310
DCDCDCDCDCDCDC000000DCDC0000000000000000000000000000000000DCDCDCDC00000000000000000000000000000000000000000000000000000000000000000000000000000000000000000000000000F50000F50000000000000000000000000000000000000000000000000000000000000000000000000000000000
310
00000000000000000000000000000000000000000000000000000000000000000000000000000000000000000000000000000000000000000000000000000000000000000000000000000000000000F5000000000000000000000000000000000000000000000000000000000000000000000000000000000000DCDCDCDCDC
310
DCDCDCDCDCDCDCDCDCDCDCDCDCDCDC0000000000000000000000000000DCDCDCDCDCDC00000000000000000000000000000000000000000000000000000000000000000000000000000000000000000000000000F50000F5000000000000000000000000000000000000000000000000000000000000000000000000000000
310
000000000000000000000000000000000000000000000000000000000000000000000000000000000000000000000000000000000000000000000000000000000000000000000000000000000000000000F5000000000000000000000000000000000000000000000000000000000000000000000000000000000000DCDCDC
310
0000000000DCDCDCDC0000000000DCDCDCDC00000000000000000000000000DCDCDCDCDCDC0000DC00000000000000000000000000000000000000000000000000000000000000000000000000000000000000000000F50000F500000000000000000000000000000000000000000000000000000000000000000000000000
310
0000000000000000000000000000000000000000000000000000000000000000000000000000000000000000000000000000000000000000000000000000000000000000000000000000000000000000000000F500000000000000000000000000000000000000000000000000000000000000000000000000000000000000
310
2D2D2D2D2D2D2D2D2D2D2D2D2D2D2D2D2D2DDCDC0000000000000000000000000000002DF5F5000000DC00000000000000000000000000000000000000000000000000000000000000000000000000000000000000000000F50000F50000000000000000000000000000000000000000000000000000000000000000000000
310
00000000000000000000000000000000000000000000000000000000000000000000000000000000000000000000000000000000000000000000000000000000000000000000000000000000000000000000000000F50000000000000000000000000000000000000000000000000000000000000000000000000000000000
310
00002D2D2D2D2D2D2D2D2D2D2D2D2D2D2D2D2D2DDCDCDCDCDC0000000000000000000000002D2D2DDCDCDCDCDCDCDCDCDC0000000000000000000000000000000000000000000000000000000000000000000000000000000000F50000F5000000000000000000000000000000000000000000000000000000000000000000
310
000000000000000000000000000000000000000000000000000000000000000000000000000000000000000000000000000000000000000000000000000000000000000000000000000000000000000000000000000000F5000000000000000000000000000000000000000000000000000000000000000000000000000000
310
000000002D2D2D2D2D2D2D2D2D2D2D2D2D2D2D2D2D2D00DCDCDC000000000000000000000000002D2D2D00DC00DCDCDCDCDC000000000000000000000000000000000000000000000000000000000000000000000000000000000000F50000F500000000000000000000000000000000000000000000000000000000000000
310
0000000000000000000000000000000000000000000000000000000000000000000000000000000000000000000000000000000000000000000000000000000000000000000000000000000000000000000000000000000000F500000000000000000000000000000000000000000000000000000000000000000000000000
310
0000000000002D2D0000000000002D2D0000000000002D2D00DCDCDC000000000000000000000000002D2D2D00000000DCDCDCDC000000000000000000000000000000000000000000000000000000000000000000000000000000000000F50000F50000000000000000000000000000000000000000000000000000000000
310
00000000000000000000000000000000000000000000000000000000000000000000000000000000000000000000000000000000000000000000000000000000000000000000000000000000000000000000000000000000000000F50000000000000000000000000000000000000000000000000000000000000000000000
310
00000000000000002D2D0000000000002D2D0000000000002D2DDCDCDCDC000000000000000000000000002D2D2D000000DCDCDCDCDC000000000000000000000000000000000000000000000000000000000000000000000000000000000000F50000F5000000000000000000000000000000000000000000000000000000
310
000000000000000000000000000000000000000000000000000000000000000000000000000000000000000000000000000000000000000000000000000000000000000000000000000000000000000000000000000000000000000000F5000000000000000000000000000000000000000000000000000000000000000000
310
000000000000000000002D2D0000000000002D2D0000000000002D2DDCDCDCDC000000000000000000000000002D2D2D000000DCDCDCDCDC000000000000000000000000000000000000000000000000000000000000000000000000000000000000F50000F500000000000000000000000000000000000000000000000000
310
0000000000000000000000000000000000000000000000000000000000000000000000000000000000000000000000000000000000000000000000000000000000000000000000000000000000000000000000000000000000000000000000F500000000000000000000000000000000000000000000000000000000000000
310
0000000000000000000000002D2D0000000000002D2D0000000000002D2DDCDCDCDC00000000000000000000000000DCDC2D000000DCDCDCDCDC000000000000000000000000000000000000000000000000000000000000000000000000000000000000F50000F50000000000000000000000000000000000000000000000
310
00000000000000000000000000000000000000000000000000000000000000000000000000000000000000000000000000000000000000000000000000000000000000000000000000000000000000000000000000000000000000000000000000F50000000000000000000000000000000000000000000000000000000000
310
00000000000000000000000000002D2D0000000000002D2D002D2D2D00002D2DDCDCDCDC000000000000000000000000DCDCDCDC000000DCDCDCDCDC000000000000000000000000000000000000000000000000000000000000000000000000000000000000F50000F5000000000000000000000000000000000000000000
310
000000000000000000000000000000000000000000000000000000000000000000000000000000000000000000000000000000000000000000000000000000000000000000000000000000000000000000000000000000000000000000000000000000F5000000000000000000000000000000000000000000000000000000
310
000000000000000000000000000000002D2D00002D2D2D002D2D002D2D2D00002D2DDCDCDCDC000000000000000000000000DCDCDCDC000000DCDCDCDCDC000000000000000000000000000000000000000000000000000000000000000000000000000000000000F50000F500000000000000000000000000000000000000
310
0000000000000000000000000000000000000000000000000000000000000000000000000000000000000000000000000000000000000000000000000000000000000000000000000000000000000000000000000000000000000000000000000000000000F500000000000000000000000000000000000000000000000000
310
0000000000000000000000000000000000002D2D00002D2D2D002D2D0000000000002D2DDCDCDCDC000000000000000000000000002D2D2D000000DCDCDCDCDC000000000000000000000000000000000000000000000000000000000000000000000000000000000000F50000F50000000000000000000000000000000000
310
00000000000000000000000000000000000000000000000000000000000000000000000000000000000000000000000000000000000000000000000000000000000000000000000000000000000000000000000000000000000000000000000000000000000000F50000000000000000000000000000000000000000000000
310
00000000000000000000000000000000000000002D2D0000000000002D2D0000000000002D2D00DCDCDC000000000000000000000000002D2D2D00000000DCDCDCDC000000000000000000000000000000000000000000000000000000000000000000000000000000000000F50000F5000000000000000000000000000000
310
000000000000000000000000000000000000000000000000000000000000000000000000000000000000000000000000000000000000000000000000000000000000000000000000000000000000000000000000000000000000000000000000000000000000000000F5000000000000000000000000000000000000000000
310
000000000000000000000000000000000000000000002D2D2D2D2D2D2D2D2D2D2D2D2D2D2D2D2D2D00DCDCDCDC0000000000000000000000002D2D2D00DC00DCDCDCDCDCDC0000000000000000000000000000000000000000000000000000000000000000000000000000000000F50000F500000000000000000000000000
310
0000000000000000000000000000000000000000000000000000000000000000000000000000000000000000000000000000000000000000000000000000000000000000000000000000000000000000000000000000000000000000000000000000000000000000000000F500000000000000000000000000000000000000
310
0000000000000000000000000000000000000000000000002D2D2D2D2D2D2D2D2D2D2D2D2D2D2D2D2D2DDCDCDCDC000000000000000000000000002D2D2DDCDCDCDCDCDCDCDC000000000000000000000000000000000000000000000000000000000000000000000000000000000000F50000F50000000000000000000000
310
00000000000000000000000000000000000000000000000000000000000000000000000000000000000000000000000000000000000000000000000000000000000000000000000000000000000000000000000000000000000000000000000000000000000000000000000000F50000000000000000000000000000000000
310
00000000000000000000000000000000000000000000000000002D2D2D2D2D2D2D2D2D2D2D2D2D2D2D2D2D2DDCDC0000000000000000000000000000002DF5F5000000DC00DC0000000000000000000000000000000000000000000000000000000000000000000000000000000000000000F50000F5000000000000000000
310
000000000000000000000000000000000000000000000000000000000000000000000000000000000000000000000000000000000000000000000000000000000000000000000000000000000000000000000000000000000000000000000000000000000000000000000000000000F5000000000000000000000000000000
310
0000000000000000000000000000000000000000000000000000000000000000000000000000000000000000000000000000000000000000000000000000000000000000000000000000000000000000000000000000000000000000000000000000000000000000000000000000000000000000F50000F500000000000000
310
0000000000000000000000000000000000000000000000000000000000000000000000000000000000000000000000000000000000000000000000000000000000000000000000000000000000000000000000000000000000000000000000000000000000000000000000000000000000F500000000000000000000000000
310
00000000000000000000000000000000000000000000000000000000000000000000000000000000000000000000000000000000000000000000000000000000000000000000000000000000000000000000000000000000000000000000000000000000000000000000000000000000000000000000F50000F50000000000
310
00000000000000000000000000000000000000000000000000000000000000000000000000000000000000000000000000000000000000000000000000000000000000000000000000000000000000000000000000000000000000000000000000000000000000000000000000000000000000F50000000000000000000000
310
000000000000000000000000000000000000000000000000000000000000000000000000000000000000000000000000000000000000000000000000000000000000000000000000000000000000000000000000000000000000000000000000000000000000000000000000000000000000000000000000F50000F5000000
310
000000000000000000000000000000000000000000000000000000000000000000000000000000000000000000000000000000000000000000000000000000000000000000000000000000000000000000000000000000000000000000000000000000000000000000000000000000000000000000F5000000000000000000
310
0000000000000000000000000000000000000000000000000000000000000000000000000000000000000000000000000000000000000000000000000000000000000000000000000000000000000000000000000000000000000000000000000000000000000000000000000000000000000000000000000000F50000F500
310
0000000000000000000000000000000000000000000000000000000000000000000000000000000000000000000000000000000000000000000000000000000000000000000000000000000000000000000000000000000000000000000000000000000000000000000000000000000000000000000000F500000000000000
310
00000000000000000000000000000000000000000000000000000000000000000000000000000000000000000000000000000000000000000000000000000000000000000000000000000000000000000000000000000000000000000000000000000000000000000000000000000000000000000000000000000000F50000
310
F5000000000000000000000000000000000000000000000000000000000000000000000000000000000000000000000000000000000000000000000000000000000000000000000000000000000000000000000000000000000000000000000000000000000000000000000000000000000000000000000000F50000000000
310
000000000000000000000000000000000000000000000000000000000000000000000000000000000000000000000000000000000000000000000000000000000000000000000000000000000000000000000000000000000000000000000000000000000000000000000000000000000000000000000000000000000000F5
310
0000F5000000000000000000000000000000000000000000000000000000000000000000000000000000000000000000000000000000000000000000000000000000000000000000000000000000000000000000000000000000000000000000000000000000000000000000000000000000000000000000000000F5000000
310
00000000000000000000000000000000000000000000000000000000000000000000000000000000000000000000000000000000000000000000000000000000000000000000000000000000000000000000000000000000000000000000000000000000000000000000000000000000000000000000000000000000000000
310
00F50000F5000000000000000000000000000000000000000000000000000000000000000000000000000000000000000000000000000000000000000000000000000000000000000000000000000000000000000000000000000000000000000000000000000000000000000000000000000000000000000000000000F500
310
00000000000000000000000000000000000000000000000000000000000000000000000000000000000000000000000000000000000000000000000000000000000000000000000000000000000000000000000000000000000000000000000000000000000000000000000000000000000000000000000000000000000000
310
000000F50000F5000000000000000000000000000000000000000000000000000000000000000000000000000000000000000000000000000000000000000000000000000000000000000000000000000000000000000000000000000000000000000000000000000000000000000000000000000000000000000000000000
310
F5000000000000000000000000000000000000000000000000000000000000000000000000000000000000000000000000000000000000000000000000000000000000000000000000000000000000000000000000000000000000000000000000000000000000000000000000000000000000000000000000000000000000
310
0000000000F50000F500000000000000000000000000000000000000000000000000000000000000000000000000000000000000000000000000000000000000000000000000000000000000000000000000000000000000000000000000000000000000000000000000000000000000000000000000000000000000000000
310
0000F500000000000000000000000000000000000000000000000000000000000000000000000000000000000000000000000000000000000000000000000000000000000000000000000000000000000000000000000000000000000000000000000000000000000000000000000000000000000000000000000000000000
310
00000000000000F50000F50000000000000000000000000000000000000000000000000000000000000000000000000000000000000000000000000000000000000000000000000000000000000000000000000000000000000000000000000000000000000000000000000000000000000000000000000000000000000000
310
00000000F50000000000000000000000000000000000000000000000000000000000000000000000000000000000000000000000000000000000000000000000000000000000000000000000000000000000000000000000000000000000000000000000000000000000000000000000000000000000000000000000000000
310
000000000000000000F50000F5000000000000000000000000000000000000000000000000000000000000000000000000000000000000000000000000000000000000000000000000000000000000000000000000000000000000000000000000000000000000000000000000000000000000000000000000000000000000
310
000000000000F5000000000000000000000000000000000000000000000000000000000000000000000000000000000000000000000000000000000000000000000000000000000000000000000000000000000000000000000000000000000000000000000000000000000000000000000000000000000000000000000000
310
0000000000000000000000F50000F500000000000000000000000000000000000000000000000000000000000000000000000000000000000000000000000000000000000000000000000000000000000000000000000000000000000000000000000000000000000000000000000000000000000000000000000000000000
310
0000000000000000F500000000000000000000000000000000000000000000000000000000000000000000000000000000000000000000000000000000000000000000000000000000000000000000000000000000000000000000000000000000000000000000000000000000000000000000000000000000000000000000
310
00000000000000000000000000F50000F50000000000000000000000000000000000000000000000000000000000000000000000000000000000000000000000000000000000000000000000000000000000000000000000000000000000000000000000000000000000000000000000000000000000000000000000000000
310
00000000000000000000F50000000000000000000000000000000000000000000000000000000000000000000000000000000000000000000000000000000000000000000000000000000000000000000000000000000000000000000000000000000000000000000000000000000000000000000000000000000000000000
310
000000000000000000000000000000F50000F5000000000000000000000000000000000000000000000000000000000000000000000000000000000000000000000000000000000000000000000000000000000000000000000000000000000000000000000000000000000000000000000000000000000000000000000000
310
000000000000000000000000F5000000000000000000000000000000000000000000000000000000000000000000000000000000000000000000000000000000000000000000000000000000000000000000000000000000000000000000000000000000000000000000000000000000000000000000000000000000000000
310
0000000000000000000000000000000000F50000F500000000000000000000000000000000000000000000000000000000000000000000000000000000000000000000000000000000000000000000000000000000000000000000000000000000000000000000000000000000000000000000000000000000000000000000
310
0000000000000000000000000000F500000000000000000000000000000000000000000000000000000000000000000000000000000000000000000000000000000000000000000000000000000000000000000000000000000000000000000000000000000000000000000000000000000000000000000000000000000000
310
00000000000000000000000000000000000000F50000F50000000000000000000000000000000000000000000000000000000000000000000000000000000000000000000000000000000000000000000000000000000000000000000000000000000000000000000000000000000000000000000000000000000000000000
310
00000000000000000000000000000000F50000000000000000000000000000000000000000000000000000000000000000000000000000000000000000000000000000000000000000000000000000000000000000000000000000000000000000000000000000000000000000000000000000000000000000000000000000
310
000000000000000000000000000000000000000000F50000F5000000000000000000000000000000000000000000000000000000000000000000000000000000000000000000000000000000000000000000000000000000000000000000000000000000000000000000000000000000000000000000000000000000000000
310
000000000000000000000000000000000000F5000000000000000000000000000000000000000000000000000000000000000000000000000000000000000000000000000000000000000000000000000000000000000000000000000000000000000000000000000000000000000000000000000000000000000000000000
310
0000000000000000000000000000000000000000000000F50000F500000000000000000000000000000000000000000000000000000000000000000000000000000000000000000000000000000000000000000000000000000000000000000000000000000000000000000000000000000000000000000000000000000000
310
0000000000000000000000000000000000000000F500000000000000000000000000000000000000000000000000000000000000000000000000000000000000000000000000000000000000000000000000000000000000000000000000000000000000000000000000000000000000000000000000000000000000000000
310
00000000000000000000000000000000000000000000000000F50000F50000000000000000000000000000000000000000000000000000000000000000000000000000000000000000000000000000000000000000000000000000000000000000000000000000000000000000000000000000000000000000000000000000
310
00000000000000000000000000000000000000000000F50000000000000000000000000000000000000000000000000000000000000000000000000000000000000000000000000000000000000000000000000000000000000000000000000000000000000000000000000000000000000000000000000000000000000000
310
000000000000000000000000000000000000000000000000000000F50000F5000000000000000000000000000000000000000000000000000000000000000000000000000000000000000000000000000000000000000000000000000000000000000000000000000000000000000000000000000000000000000000000000
310
000000000000000000000000000000000000000000000000F5000000000000000000000000000000000000000000000000000000000000000000000000000000000000000000000000000000000000000000000000000000000000000000000000000000000000000000000000000000000000000000000000000000000000
310
0000000000000000000000000000000000000000000000000000000000F50000F500000000000000000000000000000000000000000000000000000000000000000000000000000000000000000000000000000000000000000000000000000000000000000000000000000000000000000000000000000000000000000000
310
0000000000000000000000000000000000000000000000000000F500000000000000000000000000000000000000000000000000000000000000000000000000000000000000000000000000000000000000000000000000000000000000000000000000000000000000000000000000000000000000000000000000000000
310
00000000000000000000000000000000000000000000000000000000000000F50000F50000000000000000000000000000000000000000000000000000000000000000000000000000000000000000000000000000000000000000000000000000000000000000000000000000000000000000000000000000000000000000
310
00000000000000000000000000000000000000000000000000000000F50000000000000000000000000000000000000000000000000000000000000000000000000000000000000000000000000000000000000000000000000000000000000000000000000000000000000000000000000000000000000000000000000000
310
000000000000000000000000000000000000000000000000000000000000000000F50000F5000000000000000000000000000000000000000000000000000000000000000000000000000000000000000000000000000000000000000000000000000000000000000000000000000000000000000000000000000000000000
310
000000000000000000000000000000000000000000000000000000000000F5000000000000000000000000000000000000000000000000000000000000000000000000000000000000000000000000000000000000000000000000000000000000000000000000000000000000000000000000000000000000000000000000
310
0000000000000000000000000000000000000000000000000000000000000000000000F50000F500000000000000000000000000000000000000000000000000000000000000000000000000000000000000000000000000000000000000000000000000000000000000000000000000000000000000000000000000000000
310
0000000000000000000000000000000000000000000000000000000000000000F500000000000000000000000000000000000000000000000000000000000000000000000000000000000000000000000000000000000000000000000000000000000000000000000000000000000000000000000000000000000000000000
310
00000000000000000000000000000000000000000000000000000000000000000000000000F50000F50000000000000000000000000000000000000000000000000000000000000000000000000000000000000000000000000000000000000000000000000000000000000000000000000000000000000000000000000000
310
00000000000000000000000000000000000000000000000000000000000000000000F50000000000000000000000000000000000000000000000000000000000000000000000000000000000000000000000000000000000000000000000000000000000000000000000000000000000000000000000000000000000000000
310
000000000000000000000000000000000000000000000000000000000000000000000000000000F50000F5000000000000000000000000000000000000000000000000000000000000000000000000000000000000000000000000000000000000000000000000000000000000000000000000000000000000000000000000
310
000000000000000000000000000000000000000000000000000000000000000000000000F5F5F5F5F5F5F5F5F5F5F5F5F5F5F5F5F5F5F5F5F5F5F5F5F5F5F5F5F5F5F5F5F5F5F5F5F5F5F5F5F5F5F5F5F5F5F5F5F5F5F5F5F5F5F5F5F5F5F5F5F5F5F5F5F5F5F5F5F5F5F5F5F5F5F5F5F5F5F5F5F5F5F5F5F5F5F5F5F5F5F5
310
F5F5F5F5F5F5F5F5F5F5F5F5F5F5F5F5F5F5F5F5F5F5F5F5F5F5F5F5F5F5F5F5F5F5F5F5F5F5F5F5F5F50000F500000000000000000000000000000000000000000000000000000000000000000000000000000000000000000000000000000000000000000000000000000000000000000000000000000000000000000000
310
0000000000000000000000000000000000000000000000000000000000000000000000000000F5F5F5F5F5F5F5F5F5F5F5F5F5F5F50000000000000000000000000000000000000000000000000000000000000000000000000000000000000000000000000000000000000000000000000000000000000000000000000000
310
00000000000000000000000000000000000000000000000000000000000000000000000000000000000000F50000F50000000000000000000000000000000000000000000000000000000000000000000000000000000000000000000000000000000000000000000000000000000000000000000000000000000000000000
310
00000000000000000000000000000000000000000000000000000000000000000000000000000000F5F5F5F5F5F5F5F5F5F5F5F5F5F5F5F5F5F5F5F5F5F5F5F5F5F5F5F5F5F5F5F5F5F5F5F5F5F5F5F5F5F5F5F5F5F5F5F5F5F5F5F5F5F5F5F5F5F5F5F5F5F5F5F5F5F5F5F5F5F5F5F5F5F5F5F5F5F5F5F5F5F5F5F5F5F5F5
310
F5F5F5F5F5F5F5F5F5F5F5F5F5F5F5F5F5F5F5F5F5F5F5F5F5F5F5F5F5F5F5F5F5F5F5F5F5F5F5F5F5F5F5F5F5F50000F5000000000000000000000000000000000000000000000000000000000000000000000000000000000000000000000000000000000000000000000000000000000000000000000000000000000000
310
000000000000000000000000000000000000000000000000000000000000000000000000000000000000F5F5F5F5F5F5F5F5F5F5F5F5F5F5F5F5F5F5F5F5F5F5F5F5F5F5F5F5F5F5F5F5F5F5F5F5F5F5F5F5F5F5F5F5F5F5F5F5F5000000000000000000000000000000000000000000000000000000000000000000000000
310
0000000000000000000000000000000000000000000000000000000000000000000000000000000000000000000000F50000F500000000000000000000000000000000000000000000000000000000000000000000000000000000000000000000000000000000000000000000000000000000000000000000000000000000
310
0000000000000000000000000000000000000000000000000000000000000000000000000000000000000000F5F5F5F5F5F5F5F5F5F5F5F5F5F5F5F5F5F5F5F5F5F5F5F5F5F5F5F5F5F5F5F5F5F5F5F5F5F5F5F5F5F5F5F5F5F5F5F5F5F5F5F5F5F5F5F5F5F5F5F5F5F5F5F5F5F5F5F5F5F5F5F5F5F5F5F5F5F5F5F5F5F5F5
310
F5F5F5F5F5F5F5F5F5F5F5F5F5F5F5F5F5F5F5F5F5F5F5F5F5F5F5F5F5F5F5F5F5F5F5F5F5F5F5F5F5F5F5F5F5F5F5F5F5F50000F50000000000000000000000000000000000000000000000000000000000000000000000000000000000000000000000000000000000000000000000000000000000000000000000000000
310
00000000000000000000000000000000000000000000000000000000000000000000000000000000000000000000F50000F5F5F5F5F5F5F5F5F5F500F5F5F5F5F5F5F5F5F5F5F5F5F500F5F5F5F5F500F5F5F5F5F5000000000000000000000000000000000000000000000000000000000000000000000000000000000000
310
000000F5F5F5F5F5F5F5F5F5F5F5F5F5F5F5F5F5F5F5F5F5F5F5F5F5F5F5F5F5F5F5F5F5F5F5F5F5F5F5F5F5F5F5F5F5F5F5F5F50000F5000000000000000000000000000000000000000000000000000000000000000000000000000000000000000000000000000000000000000000000000000000000000000000000000
310
000000000000000000000000000000000000000000000000000000000000000000000000000000000000000000000000F5F5F5F5F5F5F5F5F5F5F5F5F5F5F5F5F5F5F5F5F5F5F5F5F5F5F5F5F5F5F5F5F5F5F5F5F5F5F5F5F5F5F5F5F5F5F5F5F5F5F5F5F5F5F5F5F5F5F5F5F5F5F5F5F5F5F5F5F5F5F5F5F5F5F5F5F5F5F5
310
F5F5F5F5F5F5F5F5F5F5F5F5F5F5F5F5F5F5F5F5F5F5F5F5F5F5F5F5F5F5F5F5F5F5F5F5F5F5F5F5F5F5F5F5F5F5F5F5F5F5F5F5F5F5F5F5F500000000000000000000000000000000000000000000000000000000000000000000000000000000000000000000000000000000000000000000000000000000000000000000
310
00000000000000000000000000000000000000000000000000000000000000000000000000000000000000000000000000000000000000000000000000000000000000000000000000000000000000000000000000000000000000000000000000000000000000000000000000000000000000000000000000000000000000
310
0000000000000000000000000000000000000000000000000000000000000000000000000000000000000000000000000000000000000000000000000000000000000000000000000000000000000000000000000000000000000000000000000000000000000000000000000000000000000000000000
  0
XRECORD
  5
DEE
102
{ACAD_REACTORS
330
53
102
}
330
53
100
AcDbXrecord
280
     1
102
MATERIAL
148
0.0
149
0.0
149
0.0
 93
        0
 94
      127
282
     0
 72
     0
 77
     0
171
     0
175
     0
179
     0
273
     0
  0
XRECORD
  5
55
102
{ACAD_REACTORS
330
53
102
}
330
53
100
AcDbXrecord
280
     1
270
     1
271
     1
  0
XRECORD
  5
54
102
{ACAD_REACTORS
330
53
102
}
330
53
100
AcDbXrecord
280
     1
270
     1
271
     1
  0
XRECORD
  5
58
102
{ACAD_REACTORS
330
53
102
}
330
53
100
AcDbXrecord
280
     1
270
     1
271
     1
  0
XRECORD
  5
57
102
{ACAD_REACTORS
330
53
102
}
330
53
100
AcDbXrecord
280
     1
270
     1
271
     1
  0
XRECORD
  5
59
102
{ACAD_REACTORS
330
53
102
}
330
53
100
AcDbXrecord
280
     1
270
     1
271
     1
  0
XRECORD
  5
56
102
{ACAD_REACTORS
330
53
102
}
330
53
100
AcDbXrecord
280
     1
270
     1
271
     1
  0
XRECORD
  5
DED
102
{ACAD_REACTORS
330
4B
102
}
330
4B
100
AcDbXrecord
280
     1
102
MATERIAL
148
0.0
149
0.0
149
0.0
 93
        0
 94
      127
282
     0
 72
     0
 77
     0
171
     0
175
     0
179
     0
273
     0
  0
XRECORD
  5
4D
102
{ACAD_REACTORS
330
4B
102
}
330
4B
100
AcDbXrecord
280
     1
270
     1
271
     1
  0
XRECORD
  5
4C
102
{ACAD_REACTORS
330
4B
102
}
330
4B
100
AcDbXrecord
280
     1
270
     1
271
     1
  0
XRECORD
  5
50
102
{ACAD_REACTORS
330
4B
102
}
330
4B
100
AcDbXrecord
280
     1
270
     1
271
     1
  0
XRECORD
  5
4F
102
{ACAD_REACTORS
330
4B
102
}
330
4B
100
AcDbXrecord
280
     1
270
     1
271
     1
  0
XRECORD
  5
51
102
{ACAD_REACTORS
330
4B
102
}
330
4B
100
AcDbXrecord
280
     1
270
     1
271
     1
  0
XRECORD
  5
4E
102
{ACAD_REACTORS
330
4B
102
}
330
4B
100
AcDbXrecord
280
     1
270
     1
271
     1
  0
XRECORD
  5
DEF
102
{ACAD_REACTORS
330
5B
102
}
330
5B
100
AcDbXrecord
280
     1
102
MATERIAL
148
0.0
149
0.0
149
0.0
 93
        0
 94
      127
282
     0
 72
     0
 77
     0
171
     0
175
     0
179
     0
273
     0
  0
XRECORD
  5
5D
102
{ACAD_REACTORS
330
5B
102
}
330
5B
100
AcDbXrecord
280
     1
270
     1
271
     1
  0
XRECORD
  5
5C
102
{ACAD_REACTORS
330
5B
102
}
330
5B
100
AcDbXrecord
280
     1
270
     1
271
     1
  0
XRECORD
  5
60
102
{ACAD_REACTORS
330
5B
102
}
330
5B
100
AcDbXrecord
280
     1
270
     1
271
     1
  0
XRECORD
  5
5F
102
{ACAD_REACTORS
330
5B
102
}
330
5B
100
AcDbXrecord
280
     1
270
     1
271
     1
  0
XRECORD
  5
61
102
{ACAD_REACTORS
330
5B
102
}
330
5B
100
AcDbXrecord
280
     1
270
     1
271
     1
  0
XRECORD
  5
5E
102
{ACAD_REACTORS
330
5B
102
}
330
5B
100
AcDbXrecord
280
     1
270
     1
271
     1
  0
XRECORD
  5
E22
102
{ACAD_REACTORS
330
E21
102
}
330
E21
100
AcDbXrecord
280
     1
102
ACAD_ROUNDTRIP_2012_MLEADER_STYLE
298
     1
  0
XRECORD
  5
E24
102
{ACAD_REACTORS
330
E23
102
}
330
E23
100
AcDbXrecord
280
     1
102
DISPLAYNAME
  1
Imperial24
102
FLAGS
 90
        0
  0
XRECORD
  5
E28
102
{ACAD_REACTORS
330
E27
102
}
330
E27
100
AcDbXrecord
280
     1
102
DISPLAYNAME
  1
Metric50
102
FLAGS
 90
        0
  0
CELLSTYLEMAP
  5
DEB
102
{ACAD_REACTORS
330
6FA
102
}
330
6FA
100
AcDbCellStyleMap
 90
        3
300
CELLSTYLE
  1
TABLEFORMAT_BEGIN
 90
        5
170
     1
 91
        0
 92
    32768
 62
   257
 93
        1
300
CONTENTFORMAT
  1
CONTENTFORMAT_BEGIN
 90
        0
 91
        0
 92
      512
 93
        0
300

 40
0.0
140
1.0
 94
        5
 62
     0
340
10
144
0.25
309
CONTENTFORMAT_END
171
     0
 94
        0
309
TABLEFORMAT_END
  1
CELLSTYLE_BEGIN
 90
        1
 91
        1
300
_TITLE
309
CELLSTYLE_END
300
CELLSTYLE
  1
TABLEFORMAT_BEGIN
 90
        5
170
     1
 91
        0
 92
        0
 62
   257
 93
        1
300
CONTENTFORMAT
  1
CONTENTFORMAT_BEGIN
 90
        0
 91
        0
 92
      512
 93
        0
300

 40
0.0
140
1.0
 94
        5
 62
     0
340
10
144
0.18
309
CONTENTFORMAT_END
171
     0
 94
        0
309
TABLEFORMAT_END
  1
CELLSTYLE_BEGIN
 90
        2
 91
        1
300
_HEADER
309
CELLSTYLE_END
300
CELLSTYLE
  1
TABLEFORMAT_BEGIN
 90
        5
170
     1
 91
        0
 92
        0
 62
   257
 93
        1
300
CONTENTFORMAT
  1
CONTENTFORMAT_BEGIN
 90
        0
 91
        0
 92
      512
 93
        0
300

 40
0.0
140
1.0
 94
        2
 62
     0
340
10
144
0.18
309
CONTENTFORMAT_END
171
     0
 94
        0
309
TABLEFORMAT_END
  1
CELLSTYLE_BEGIN
 90
        3
 91
        2
300
_DATA
309
CELLSTYLE_END
  0
XRECORD
  5
E20
102
{ACAD_REACTORS
330
6FA
102
}
330
6FA
100
AcDbXrecord
280
     1
102
ACAD_ROUNDTRIP_PRE2007_TABLESTYLE
 90
      512
 91
        0
  1

 92
      512
 93
        0
  2

 94
      512
 95
        0
  3

  0
XRECORD
  5
DFB
102
{ACAD_REACTORS
330
DFA
102
}
330
DFA
100
AcDbXrecord
280
     1
102
RTVSPost2010Prop28
280
     1
102
RTVSPost2010PropOp28
 70
     1
102
RTVSPost2010Prop29
280
     1
102
RTVSPost2010PropOp29
 70
     1
102
RTVSPost2010Prop30
280
     0
102
RTVSPost2010PropOp30
 70
     1
102
RTVSPost2010Prop31
280
     0
102
RTVSPost2010PropOp31
 70
     1
102
RTVSPost2010Prop32
280
     0
102
RTVSPost2010PropOp32
 70
     1
102
RTVSPost2010Prop33
280
     0
102
RTVSPost2010PropOp33
 70
     1
102
RTVSPost2010Prop34
280
     0
102
RTVSPost2010PropOp34
 70
     1
102
RTVSPost2010Prop35
280
     0
102
RTVSPost2010PropOp35
 70
     1
102
RTVSPost2010Prop36
280
     0
102
RTVSPost2010PropOp36
 70
     1
102
RTVSPost2010Prop37
 90
       50
102
RTVSPost2010PropOp37
 70
     1
102
RTVSPost2010Prop38
140
0.0
102
RTVSPost2010PropOp38
 70
     1
102
RTVSPost2010Prop39
140
1.0
102
RTVSPost2010PropOp39
 70
     1
102
RTVSPost2010Prop40
 90
        0
102
RTVSPost2010PropOp40
 70
     1
102
RTVSPost2010Prop41ColorIndex
 90
       18
102
RTVSPost2010Prop41ColorRGB
 90
        0
102
RTVSPost2010PropOp41
 70
     1
102
RTVSPost2010Prop42
 90
       50
102
RTVSPost2010PropOp42
 70
     1
102
RTVSPost2010Prop43
 90
        3
102
RTVSPost2010PropOp43
 70
     1
102
RTVSPost2010Prop44ColorIndex
 90
        5
102
RTVSPost2010Prop44ColorRGB
 90
      255
102
RTVSPost2010PropOp44
 70
     1
102
RTVSPost2010Prop45
280
     0
102
RTVSPost2010PropOp45
 70
     1
102
RTVSPost2010Prop46
 90
       50
102
RTVSPost2010PropOp46
 70
     1
102
RTVSPost2010Prop47
 90
       50
102
RTVSPost2010PropOp47
 70
     1
102
RTVSPost2010Prop48
 90
       50
102
RTVSPost2010PropOp48
 70
     1
102
RTVSPost2010Prop49
280
     0
102
RTVSPost2010PropOp49
 70
     1
102
RTVSPost2010Prop50
 90
       50
102
RTVSPost2010PropOp50
 70
     1
102
RTVSPost2010Prop51ColorIndex
 90
      256
102
RTVSPost2010Prop51ColorRGB
 90
-16777216
102
RTVSPost2010PropOp51
 70
     0
102
RTVSPost2010Prop52
140
1.0
102
RTVSPost2010PropOp52
 70
     0
102
RTVSPost2010Prop53
 90
        2
102
RTVSPost2010PropOp53
 70
     1
102
RTVSPost2010Prop54
  1
strokes_ogs.tif
102
RTVSPost2010PropOp54
 70
     1
102
RTVSPost2010Prop55
280
     0
102
RTVSPost2010PropOp55
 70
     1
102
RTVSPost2010Prop56
140
1.0
102
RTVSPost2010PropOp56
 70
     1
102
RTVSPost2010Prop57
140
1.0
102
RTVSPost2010PropOp57
 70
     1
102
RTVSPropertyOp0
 70
     1
102
RTVSPropertyOp1
 70
     1
102
RTVSPropertyOp2
 70
     1
102
RTVSPropertyOp3
 70
     1
102
RTVSPropertyOp4
 70
     1
102
RTVSPropertyOp5
 70
     1
102
RTVSPropertyOp6
 70
     1
102
RTVSPropertyOp7
 70
     1
102
RTVSPropertyOp8
 70
     1
102
RTVSPropertyOp9
 70
     1
102
RTVSPropertyOp10
 70
     1
102
RTVSPropertyOp11
 70
     1
102
RTVSPropertyOp12
 70
     1
102
RTVSPropertyOp13
 70
     1
102
RTVSPropertyOp14
 70
     1
102
RTVSPropertyOp15
 70
     1
102
RTVSPropertyOp16
 70
     1
102
RTVSPropertyOp17
 70
     1
102
RTVSPropertyOp18
 70
     1
102
RTVSPropertyOp19
 70
     1
102
RTVSPropertyOp20
 70
     1
102
RTVSPropertyOp21
 70
     1
102
RTVSPropertyOp22
 70
     1
102
RTVSPropertyOp23
 70
     1
102
RTVSPropertyOp24
 70
     1
102
RTVSPropertyOp25
 70
     1
102
RTVSPropertyOp26
 70
     1
102
RTVSPropertyOp27
 70
     1
102
RTVSPropertyOp28
 70
     1
102
RTVSPropertyOp29
 70
     1
102
RTVSPropertyOp30
 70
     1
102
RTVSPropertyOp31
 70
     1
102
RTVSPropertyOp32
 70
     1
102
RTVSPropertyOp33
 70
     1
102
RTVSPropertyOp34
 70
     1
102
RTVSPropertyOp35
 70
     1
102
RTVSPropertyOp36
 70
     1
102
RTVSPropertyOp37
 70
     1
102
RTVSPropertyOp38
 70
     1
102
RTVSPropertyOp39
 70
     1
102
RTVSPropertyOp40
 70
     1
102
RTVSPropertyOp41
 70
     1
102
RTVSPropertyOp42
 70
     1
102
RTVSPropertyOp43
 70
     1
102
RTVSPropertyOp44
 70
     1
102
RTVSPropertyOp45
 70
     1
102
RTVSPropertyOp46
 70
     1
102
RTVSPropertyOp47
 70
     1
102
RTVSPropertyOp48
 70
     1
102
RTVSPropertyOp49
 70
     1
102
RTVSPropertyOp50
 70
     1
102
RTVSPropertyOp51
 70
     0
102
RTVSPropertyOp52
 70
     0
102
RTVSPropertyOp53
 70
     1
102
RTVSPropertyOp54
 70
     1
102
RTVSPropertyOp55
 70
     1
102
RTVSPropertyOp56
 70
     1
102
RTVSPropertyOp57
 70
     1
102
RTVSPropertyOp58
 70
     1
102
RTVSPropertyOp59
 70
     1
102
RTVSPropertyOp60
 70
     1
102
RTVSPropertyOp61
 70
     1
102
RTVSPropertyOp62
 70
     1
  0
XRECORD
  5
DF9
102
{ACAD_REACTORS
330
DF8
102
}
330
DF8
100
AcDbXrecord
280
     1
102
RTVSPost2010Prop28
280
     0
102
RTVSPost2010PropOp28
 70
     1
102
RTVSPost2010Prop29
280
     1
102
RTVSPost2010PropOp29
 70
     1
102
RTVSPost2010Prop30
280
     1
102
RTVSPost2010PropOp30
 70
     1
102
RTVSPost2010Prop31
280
     0
102
RTVSPost2010PropOp31
 70
     1
102
RTVSPost2010Prop32
280
     0
102
RTVSPost2010PropOp32
 70
     1
102
RTVSPost2010Prop33
280
     0
102
RTVSPost2010PropOp33
 70
     1
102
RTVSPost2010Prop34
280
     0
102
RTVSPost2010PropOp34
 70
     1
102
RTVSPost2010Prop35
280
     0
102
RTVSPost2010PropOp35
 70
     1
102
RTVSPost2010Prop36
280
     0
102
RTVSPost2010PropOp36
 70
     1
102
RTVSPost2010Prop37
 90
       50
102
RTVSPost2010PropOp37
 70
     1
102
RTVSPost2010Prop38
140
0.0
102
RTVSPost2010PropOp38
 70
     1
102
RTVSPost2010Prop39
140
1.0
102
RTVSPost2010PropOp39
 70
     1
102
RTVSPost2010Prop40
 90
        0
102
RTVSPost2010PropOp40
 70
     1
102
RTVSPost2010Prop41ColorIndex
 90
       18
102
RTVSPost2010Prop41ColorRGB
 90
        0
102
RTVSPost2010PropOp41
 70
     1
102
RTVSPost2010Prop42
 90
       50
102
RTVSPost2010PropOp42
 70
     1
102
RTVSPost2010Prop43
 90
        3
102
RTVSPost2010PropOp43
 70
     1
102
RTVSPost2010Prop44ColorIndex
 90
        5
102
RTVSPost2010Prop44ColorRGB
 90
      255
102
RTVSPost2010PropOp44
 70
     1
102
RTVSPost2010Prop45
280
     0
102
RTVSPost2010PropOp45
 70
     1
102
RTVSPost2010Prop46
 90
       50
102
RTVSPost2010PropOp46
 70
     1
102
RTVSPost2010Prop47
 90
       50
102
RTVSPost2010PropOp47
 70
     1
102
RTVSPost2010Prop48
 90
       50
102
RTVSPost2010PropOp48
 70
     1
102
RTVSPost2010Prop49
280
     0
102
RTVSPost2010PropOp49
 70
     1
102
RTVSPost2010Prop50
 90
       50
102
RTVSPost2010PropOp50
 70
     1
102
RTVSPost2010Prop51ColorIndex
 90
      256
102
RTVSPost2010Prop51ColorRGB
 90
-16777216
102
RTVSPost2010PropOp51
 70
     0
102
RTVSPost2010Prop52
140
1.0
102
RTVSPost2010PropOp52
 70
     0
102
RTVSPost2010Prop53
 90
        2
102
RTVSPost2010PropOp53
 70
     1
102
RTVSPost2010Prop54
  1
strokes_ogs.tif
102
RTVSPost2010PropOp54
 70
     1
102
RTVSPost2010Prop55
280
     0
102
RTVSPost2010PropOp55
 70
     1
102
RTVSPost2010Prop56
140
1.0
102
RTVSPost2010PropOp56
 70
     1
102
RTVSPost2010Prop57
140
1.0
102
RTVSPost2010PropOp57
 70
     1
102
RTVSPropertyOp0
 70
     1
102
RTVSPropertyOp1
 70
     1
102
RTVSPropertyOp2
 70
     1
102
RTVSPropertyOp3
 70
     1
102
RTVSPropertyOp4
 70
     1
102
RTVSPropertyOp5
 70
     1
102
RTVSPropertyOp6
 70
     1
102
RTVSPropertyOp7
 70
     1
102
RTVSPropertyOp8
 70
     1
102
RTVSPropertyOp9
 70
     1
102
RTVSPropertyOp10
 70
     1
102
RTVSPropertyOp11
 70
     1
102
RTVSPropertyOp12
 70
     1
102
RTVSPropertyOp13
 70
     1
102
RTVSPropertyOp14
 70
     1
102
RTVSPropertyOp15
 70
     1
102
RTVSPropertyOp16
 70
     1
102
RTVSPropertyOp17
 70
     1
102
RTVSPropertyOp18
 70
     1
102
RTVSPropertyOp19
 70
     1
102
RTVSPropertyOp20
 70
     1
102
RTVSPropertyOp21
 70
     1
102
RTVSPropertyOp22
 70
     1
102
RTVSPropertyOp23
 70
     1
102
RTVSPropertyOp24
 70
     1
102
RTVSPropertyOp25
 70
     1
102
RTVSPropertyOp26
 70
     1
102
RTVSPropertyOp27
 70
     1
102
RTVSPropertyOp28
 70
     1
102
RTVSPropertyOp29
 70
     1
102
RTVSPropertyOp30
 70
     1
102
RTVSPropertyOp31
 70
     1
102
RTVSPropertyOp32
 70
     1
102
RTVSPropertyOp33
 70
     1
102
RTVSPropertyOp34
 70
     1
102
RTVSPropertyOp35
 70
     1
102
RTVSPropertyOp36
 70
     1
102
RTVSPropertyOp37
 70
     1
102
RTVSPropertyOp38
 70
     1
102
RTVSPropertyOp39
 70
     1
102
RTVSPropertyOp40
 70
     1
102
RTVSPropertyOp41
 70
     1
102
RTVSPropertyOp42
 70
     1
102
RTVSPropertyOp43
 70
     1
102
RTVSPropertyOp44
 70
     1
102
RTVSPropertyOp45
 70
     1
102
RTVSPropertyOp46
 70
     1
102
RTVSPropertyOp47
 70
     1
102
RTVSPropertyOp48
 70
     1
102
RTVSPropertyOp49
 70
     1
102
RTVSPropertyOp50
 70
     1
102
RTVSPropertyOp51
 70
     0
102
RTVSPropertyOp52
 70
     0
102
RTVSPropertyOp53
 70
     1
102
RTVSPropertyOp54
 70
     1
102
RTVSPropertyOp55
 70
     1
102
RTVSPropertyOp56
 70
     1
102
RTVSPropertyOp57
 70
     1
102
RTVSPropertyOp58
 70
     1
102
RTVSPropertyOp59
 70
     1
102
RTVSPropertyOp60
 70
     1
102
RTVSPropertyOp61
 70
     1
102
RTVSPropertyOp62
 70
     1
  0
XRECORD
  5
E07
102
{ACAD_REACTORS
330
E06
102
}
330
E06
100
AcDbXrecord
280
     1
102
RTVSPost2010Prop28
280
     0
102
RTVSPost2010PropOp28
 70
     1
102
RTVSPost2010Prop29
280
     1
102
RTVSPost2010PropOp29
 70
     1
102
RTVSPost2010Prop30
280
     1
102
RTVSPost2010PropOp30
 70
     1
102
RTVSPost2010Prop31
280
     0
102
RTVSPost2010PropOp31
 70
     1
102
RTVSPost2010Prop32
280
     0
102
RTVSPost2010PropOp32
 70
     1
102
RTVSPost2010Prop33
280
     0
102
RTVSPost2010PropOp33
 70
     1
102
RTVSPost2010Prop34
280
     0
102
RTVSPost2010PropOp34
 70
     1
102
RTVSPost2010Prop35
280
     0
102
RTVSPost2010PropOp35
 70
     1
102
RTVSPost2010Prop36
280
     0
102
RTVSPost2010PropOp36
 70
     1
102
RTVSPost2010Prop37
 90
       50
102
RTVSPost2010PropOp37
 70
     1
102
RTVSPost2010Prop38
140
0.0
102
RTVSPost2010PropOp38
 70
     1
102
RTVSPost2010Prop39
140
1.0
102
RTVSPost2010PropOp39
 70
     1
102
RTVSPost2010Prop40
 90
        0
102
RTVSPost2010PropOp40
 70
     1
102
RTVSPost2010Prop41ColorIndex
 90
       18
102
RTVSPost2010Prop41ColorRGB
 90
        0
102
RTVSPost2010PropOp41
 70
     1
102
RTVSPost2010Prop42
 90
       50
102
RTVSPost2010PropOp42
 70
     1
102
RTVSPost2010Prop43
 90
        3
102
RTVSPost2010PropOp43
 70
     1
102
RTVSPost2010Prop44ColorIndex
 90
        5
102
RTVSPost2010Prop44ColorRGB
 90
      255
102
RTVSPost2010PropOp44
 70
     1
102
RTVSPost2010Prop45
280
     0
102
RTVSPost2010PropOp45
 70
     1
102
RTVSPost2010Prop46
 90
       50
102
RTVSPost2010PropOp46
 70
     1
102
RTVSPost2010Prop47
 90
       50
102
RTVSPost2010PropOp47
 70
     1
102
RTVSPost2010Prop48
 90
       50
102
RTVSPost2010PropOp48
 70
     1
102
RTVSPost2010Prop49
280
     0
102
RTVSPost2010PropOp49
 70
     1
102
RTVSPost2010Prop50
 90
       50
102
RTVSPost2010PropOp50
 70
     1
102
RTVSPost2010Prop51ColorIndex
 90
      256
102
RTVSPost2010Prop51ColorRGB
 90
-16777216
102
RTVSPost2010PropOp51
 70
     0
102
RTVSPost2010Prop52
140
1.0
102
RTVSPost2010PropOp52
 70
     0
102
RTVSPost2010Prop53
 90
        2
102
RTVSPost2010PropOp53
 70
     1
102
RTVSPost2010Prop54
  1
strokes_ogs.tif
102
RTVSPost2010PropOp54
 70
     1
102
RTVSPost2010Prop55
280
     0
102
RTVSPost2010PropOp55
 70
     1
102
RTVSPost2010Prop56
140
1.0
102
RTVSPost2010PropOp56
 70
     1
102
RTVSPost2010Prop57
140
1.0
102
RTVSPost2010PropOp57
 70
     1
102
RTVSPropertyOp0
 70
     1
102
RTVSPropertyOp1
 70
     1
102
RTVSPropertyOp2
 70
     1
102
RTVSPropertyOp3
 70
     1
102
RTVSPropertyOp4
 70
     1
102
RTVSPropertyOp5
 70
     1
102
RTVSPropertyOp6
 70
     1
102
RTVSPropertyOp7
 70
     1
102
RTVSPropertyOp8
 70
     1
102
RTVSPropertyOp9
 70
     1
102
RTVSPropertyOp10
 70
     1
102
RTVSPropertyOp11
 70
     1
102
RTVSPropertyOp12
 70
     1
102
RTVSPropertyOp13
 70
     1
102
RTVSPropertyOp14
 70
     1
102
RTVSPropertyOp15
 70
     1
102
RTVSPropertyOp16
 70
     1
102
RTVSPropertyOp17
 70
     1
102
RTVSPropertyOp18
 70
     1
102
RTVSPropertyOp19
 70
     1
102
RTVSPropertyOp20
 70
     1
102
RTVSPropertyOp21
 70
     1
102
RTVSPropertyOp22
 70
     1
102
RTVSPropertyOp23
 70
     1
102
RTVSPropertyOp24
 70
     1
102
RTVSPropertyOp25
 70
     1
102
RTVSPropertyOp26
 70
     1
102
RTVSPropertyOp27
 70
     1
102
RTVSPropertyOp28
 70
     1
102
RTVSPropertyOp29
 70
     1
102
RTVSPropertyOp30
 70
     1
102
RTVSPropertyOp31
 70
     1
102
RTVSPropertyOp32
 70
     1
102
RTVSPropertyOp33
 70
     1
102
RTVSPropertyOp34
 70
     1
102
RTVSPropertyOp35
 70
     1
102
RTVSPropertyOp36
 70
     1
102
RTVSPropertyOp37
 70
     1
102
RTVSPropertyOp38
 70
     1
102
RTVSPropertyOp39
 70
     1
102
RTVSPropertyOp40
 70
     1
102
RTVSPropertyOp41
 70
     1
102
RTVSPropertyOp42
 70
     1
102
RTVSPropertyOp43
 70
     1
102
RTVSPropertyOp44
 70
     1
102
RTVSPropertyOp45
 70
     1
102
RTVSPropertyOp46
 70
     1
102
RTVSPropertyOp47
 70
     1
102
RTVSPropertyOp48
 70
     1
102
RTVSPropertyOp49
 70
     1
102
RTVSPropertyOp50
 70
     1
102
RTVSPropertyOp51
 70
     0
102
RTVSPropertyOp52
 70
     0
102
RTVSPropertyOp53
 70
     1
102
RTVSPropertyOp54
 70
     1
102
RTVSPropertyOp55
 70
     1
102
RTVSPropertyOp56
 70
     1
102
RTVSPropertyOp57
 70
     1
102
RTVSPropertyOp58
 70
     1
102
RTVSPropertyOp59
 70
     1
102
RTVSPropertyOp60
 70
     1
102
RTVSPropertyOp61
 70
     1
102
RTVSPropertyOp62
 70
     1
  0
XRECORD
  5
E0F
102
{ACAD_REACTORS
330
E0E
102
}
330
E0E
100
AcDbXrecord
280
     1
102
RTVSPost2010Prop28
280
     0
102
RTVSPost2010PropOp28
 70
     1
102
RTVSPost2010Prop29
280
     1
102
RTVSPost2010PropOp29
 70
     1
102
RTVSPost2010Prop30
280
     1
102
RTVSPost2010PropOp30
 70
     1
102
RTVSPost2010Prop31
280
     0
102
RTVSPost2010PropOp31
 70
     1
102
RTVSPost2010Prop32
280
     0
102
RTVSPost2010PropOp32
 70
     1
102
RTVSPost2010Prop33
280
     0
102
RTVSPost2010PropOp33
 70
     1
102
RTVSPost2010Prop34
280
     0
102
RTVSPost2010PropOp34
 70
     1
102
RTVSPost2010Prop35
280
     0
102
RTVSPost2010PropOp35
 70
     1
102
RTVSPost2010Prop36
280
     0
102
RTVSPost2010PropOp36
 70
     1
102
RTVSPost2010Prop37
 90
       50
102
RTVSPost2010PropOp37
 70
     1
102
RTVSPost2010Prop38
140
0.0
102
RTVSPost2010PropOp38
 70
     1
102
RTVSPost2010Prop39
140
1.0
102
RTVSPost2010PropOp39
 70
     1
102
RTVSPost2010Prop40
 90
        0
102
RTVSPost2010PropOp40
 70
     1
102
RTVSPost2010Prop41ColorIndex
 90
       18
102
RTVSPost2010Prop41ColorRGB
 90
        0
102
RTVSPost2010PropOp41
 70
     1
102
RTVSPost2010Prop42
 90
       50
102
RTVSPost2010PropOp42
 70
     1
102
RTVSPost2010Prop43
 90
        3
102
RTVSPost2010PropOp43
 70
     1
102
RTVSPost2010Prop44ColorIndex
 90
        5
102
RTVSPost2010Prop44ColorRGB
 90
      255
102
RTVSPost2010PropOp44
 70
     1
102
RTVSPost2010Prop45
280
     0
102
RTVSPost2010PropOp45
 70
     1
102
RTVSPost2010Prop46
 90
       50
102
RTVSPost2010PropOp46
 70
     1
102
RTVSPost2010Prop47
 90
       50
102
RTVSPost2010PropOp47
 70
     1
102
RTVSPost2010Prop48
 90
       50
102
RTVSPost2010PropOp48
 70
     1
102
RTVSPost2010Prop49
280
     0
102
RTVSPost2010PropOp49
 70
     1
102
RTVSPost2010Prop50
 90
       50
102
RTVSPost2010PropOp50
 70
     1
102
RTVSPost2010Prop51ColorIndex
 90
      256
102
RTVSPost2010Prop51ColorRGB
 90
-16777216
102
RTVSPost2010PropOp51
 70
     0
102
RTVSPost2010Prop52
140
1.0
102
RTVSPost2010PropOp52
 70
     0
102
RTVSPost2010Prop53
 90
        2
102
RTVSPost2010PropOp53
 70
     1
102
RTVSPost2010Prop54
  1
strokes_ogs.tif
102
RTVSPost2010PropOp54
 70
     1
102
RTVSPost2010Prop55
280
     0
102
RTVSPost2010PropOp55
 70
     1
102
RTVSPost2010Prop56
140
1.0
102
RTVSPost2010PropOp56
 70
     1
102
RTVSPost2010Prop57
140
1.0
102
RTVSPost2010PropOp57
 70
     1
102
RTVSPropertyOp0
 70
     1
102
RTVSPropertyOp1
 70
     1
102
RTVSPropertyOp2
 70
     1
102
RTVSPropertyOp3
 70
     1
102
RTVSPropertyOp4
 70
     1
102
RTVSPropertyOp5
 70
     1
102
RTVSPropertyOp6
 70
     1
102
RTVSPropertyOp7
 70
     1
102
RTVSPropertyOp8
 70
     1
102
RTVSPropertyOp9
 70
     1
102
RTVSPropertyOp10
 70
     1
102
RTVSPropertyOp11
 70
     1
102
RTVSPropertyOp12
 70
     1
102
RTVSPropertyOp13
 70
     1
102
RTVSPropertyOp14
 70
     1
102
RTVSPropertyOp15
 70
     1
102
RTVSPropertyOp16
 70
     1
102
RTVSPropertyOp17
 70
     1
102
RTVSPropertyOp18
 70
     1
102
RTVSPropertyOp19
 70
     1
102
RTVSPropertyOp20
 70
     1
102
RTVSPropertyOp21
 70
     1
102
RTVSPropertyOp22
 70
     1
102
RTVSPropertyOp23
 70
     1
102
RTVSPropertyOp24
 70
     1
102
RTVSPropertyOp25
 70
     1
102
RTVSPropertyOp26
 70
     1
102
RTVSPropertyOp27
 70
     1
102
RTVSPropertyOp28
 70
     1
102
RTVSPropertyOp29
 70
     1
102
RTVSPropertyOp30
 70
     1
102
RTVSPropertyOp31
 70
     1
102
RTVSPropertyOp32
 70
     1
102
RTVSPropertyOp33
 70
     1
102
RTVSPropertyOp34
 70
     1
102
RTVSPropertyOp35
 70
     1
102
RTVSPropertyOp36
 70
     1
102
RTVSPropertyOp37
 70
     1
102
RTVSPropertyOp38
 70
     1
102
RTVSPropertyOp39
 70
     1
102
RTVSPropertyOp40
 70
     1
102
RTVSPropertyOp41
 70
     1
102
RTVSPropertyOp42
 70
     1
102
RTVSPropertyOp43
 70
     1
102
RTVSPropertyOp44
 70
     1
102
RTVSPropertyOp45
 70
     1
102
RTVSPropertyOp46
 70
     1
102
RTVSPropertyOp47
 70
     1
102
RTVSPropertyOp48
 70
     1
102
RTVSPropertyOp49
 70
     1
102
RTVSPropertyOp50
 70
     1
102
RTVSPropertyOp51
 70
     0
102
RTVSPropertyOp52
 70
     0
102
RTVSPropertyOp53
 70
     1
102
RTVSPropertyOp54
 70
     1
102
RTVSPropertyOp55
 70
     1
102
RTVSPropertyOp56
 70
     1
102
RTVSPropertyOp57
 70
     1
102
RTVSPropertyOp58
 70
     1
102
RTVSPropertyOp59
 70
     1
102
RTVSPropertyOp60
 70
     1
102
RTVSPropertyOp61
 70
     1
102
RTVSPropertyOp62
 70
     1
  0
XRECORD
  5
E01
102
{ACAD_REACTORS
330
E00
102
}
330
E00
100
AcDbXrecord
280
     1
102
RTVSPost2010Prop28
280
     0
102
RTVSPost2010PropOp28
 70
     1
102
RTVSPost2010Prop29
280
     1
102
RTVSPost2010PropOp29
 70
     1
102
RTVSPost2010Prop30
280
     1
102
RTVSPost2010PropOp30
 70
     1
102
RTVSPost2010Prop31
280
     0
102
RTVSPost2010PropOp31
 70
     1
102
RTVSPost2010Prop32
280
     0
102
RTVSPost2010PropOp32
 70
     1
102
RTVSPost2010Prop33
280
     0
102
RTVSPost2010PropOp33
 70
     1
102
RTVSPost2010Prop34
280
     0
102
RTVSPost2010PropOp34
 70
     1
102
RTVSPost2010Prop35
280
     0
102
RTVSPost2010PropOp35
 70
     1
102
RTVSPost2010Prop36
280
     0
102
RTVSPost2010PropOp36
 70
     1
102
RTVSPost2010Prop37
 90
       50
102
RTVSPost2010PropOp37
 70
     1
102
RTVSPost2010Prop38
140
0.0
102
RTVSPost2010PropOp38
 70
     1
102
RTVSPost2010Prop39
140
1.0
102
RTVSPost2010PropOp39
 70
     1
102
RTVSPost2010Prop40
 90
        0
102
RTVSPost2010PropOp40
 70
     1
102
RTVSPost2010Prop41ColorIndex
 90
       18
102
RTVSPost2010Prop41ColorRGB
 90
        0
102
RTVSPost2010PropOp41
 70
     1
102
RTVSPost2010Prop42
 90
       50
102
RTVSPost2010PropOp42
 70
     1
102
RTVSPost2010Prop43
 90
        3
102
RTVSPost2010PropOp43
 70
     1
102
RTVSPost2010Prop44ColorIndex
 90
        5
102
RTVSPost2010Prop44ColorRGB
 90
      255
102
RTVSPost2010PropOp44
 70
     1
102
RTVSPost2010Prop45
280
     0
102
RTVSPost2010PropOp45
 70
     1
102
RTVSPost2010Prop46
 90
       50
102
RTVSPost2010PropOp46
 70
     1
102
RTVSPost2010Prop47
 90
       50
102
RTVSPost2010PropOp47
 70
     1
102
RTVSPost2010Prop48
 90
       50
102
RTVSPost2010PropOp48
 70
     1
102
RTVSPost2010Prop49
280
     0
102
RTVSPost2010PropOp49
 70
     1
102
RTVSPost2010Prop50
 90
       50
102
RTVSPost2010PropOp50
 70
     1
102
RTVSPost2010Prop51ColorIndex
 90
      256
102
RTVSPost2010Prop51ColorRGB
 90
-16777216
102
RTVSPost2010PropOp51
 70
     0
102
RTVSPost2010Prop52
140
1.0
102
RTVSPost2010PropOp52
 70
     0
102
RTVSPost2010Prop53
 90
        2
102
RTVSPost2010PropOp53
 70
     1
102
RTVSPost2010Prop54
  1
strokes_ogs.tif
102
RTVSPost2010PropOp54
 70
     1
102
RTVSPost2010Prop55
280
     0
102
RTVSPost2010PropOp55
 70
     1
102
RTVSPost2010Prop56
140
1.0
102
RTVSPost2010PropOp56
 70
     1
102
RTVSPost2010Prop57
140
1.0
102
RTVSPost2010PropOp57
 70
     1
102
RTVSPropertyOp0
 70
     1
102
RTVSPropertyOp1
 70
     1
102
RTVSPropertyOp2
 70
     1
102
RTVSPropertyOp3
 70
     1
102
RTVSPropertyOp4
 70
     1
102
RTVSPropertyOp5
 70
     1
102
RTVSPropertyOp6
 70
     1
102
RTVSPropertyOp7
 70
     1
102
RTVSPropertyOp8
 70
     1
102
RTVSPropertyOp9
 70
     1
102
RTVSPropertyOp10
 70
     1
102
RTVSPropertyOp11
 70
     1
102
RTVSPropertyOp12
 70
     1
102
RTVSPropertyOp13
 70
     1
102
RTVSPropertyOp14
 70
     1
102
RTVSPropertyOp15
 70
     1
102
RTVSPropertyOp16
 70
     1
102
RTVSPropertyOp17
 70
     1
102
RTVSPropertyOp18
 70
     1
102
RTVSPropertyOp19
 70
     1
102
RTVSPropertyOp20
 70
     1
102
RTVSPropertyOp21
 70
     1
102
RTVSPropertyOp22
 70
     1
102
RTVSPropertyOp23
 70
     1
102
RTVSPropertyOp24
 70
     1
102
RTVSPropertyOp25
 70
     1
102
RTVSPropertyOp26
 70
     1
102
RTVSPropertyOp27
 70
     1
102
RTVSPropertyOp28
 70
     1
102
RTVSPropertyOp29
 70
     1
102
RTVSPropertyOp30
 70
     1
102
RTVSPropertyOp31
 70
     1
102
RTVSPropertyOp32
 70
     1
102
RTVSPropertyOp33
 70
     1
102
RTVSPropertyOp34
 70
     1
102
RTVSPropertyOp35
 70
     1
102
RTVSPropertyOp36
 70
     1
102
RTVSPropertyOp37
 70
     1
102
RTVSPropertyOp38
 70
     1
102
RTVSPropertyOp39
 70
     1
102
RTVSPropertyOp40
 70
     1
102
RTVSPropertyOp41
 70
     1
102
RTVSPropertyOp42
 70
     1
102
RTVSPropertyOp43
 70
     1
102
RTVSPropertyOp44
 70
     1
102
RTVSPropertyOp45
 70
     1
102
RTVSPropertyOp46
 70
     1
102
RTVSPropertyOp47
 70
     1
102
RTVSPropertyOp48
 70
     1
102
RTVSPropertyOp49
 70
     1
102
RTVSPropertyOp50
 70
     1
102
RTVSPropertyOp51
 70
     0
102
RTVSPropertyOp52
 70
     0
102
RTVSPropertyOp53
 70
     1
102
RTVSPropertyOp54
 70
     1
102
RTVSPropertyOp55
 70
     1
102
RTVSPropertyOp56
 70
     1
102
RTVSPropertyOp57
 70
     1
102
RTVSPropertyOp58
 70
     1
102
RTVSPropertyOp59
 70
     1
102
RTVSPropertyOp60
 70
     1
102
RTVSPropertyOp61
 70
     1
102
RTVSPropertyOp62
 70
     1
  0
XRECORD
  5
E05
102
{ACAD_REACTORS
330
E04
102
}
330
E04
100
AcDbXrecord
280
     1
102
RTVSPost2010Prop28
280
     0
102
RTVSPost2010PropOp28
 70
     1
102
RTVSPost2010Prop29
280
     1
102
RTVSPost2010PropOp29
 70
     1
102
RTVSPost2010Prop30
280
     1
102
RTVSPost2010PropOp30
 70
     1
102
RTVSPost2010Prop31
280
     0
102
RTVSPost2010PropOp31
 70
     1
102
RTVSPost2010Prop32
280
     0
102
RTVSPost2010PropOp32
 70
     1
102
RTVSPost2010Prop33
280
     0
102
RTVSPost2010PropOp33
 70
     1
102
RTVSPost2010Prop34
280
     0
102
RTVSPost2010PropOp34
 70
     1
102
RTVSPost2010Prop35
280
     0
102
RTVSPost2010PropOp35
 70
     1
102
RTVSPost2010Prop36
280
     0
102
RTVSPost2010PropOp36
 70
     1
102
RTVSPost2010Prop37
 90
       50
102
RTVSPost2010PropOp37
 70
     1
102
RTVSPost2010Prop38
140
0.0
102
RTVSPost2010PropOp38
 70
     1
102
RTVSPost2010Prop39
140
1.0
102
RTVSPost2010PropOp39
 70
     1
102
RTVSPost2010Prop40
 90
        0
102
RTVSPost2010PropOp40
 70
     1
102
RTVSPost2010Prop41ColorIndex
 90
       18
102
RTVSPost2010Prop41ColorRGB
 90
        0
102
RTVSPost2010PropOp41
 70
     1
102
RTVSPost2010Prop42
 90
       50
102
RTVSPost2010PropOp42
 70
     1
102
RTVSPost2010Prop43
 90
        3
102
RTVSPost2010PropOp43
 70
     1
102
RTVSPost2010Prop44ColorIndex
 90
        5
102
RTVSPost2010Prop44ColorRGB
 90
      255
102
RTVSPost2010PropOp44
 70
     1
102
RTVSPost2010Prop45
280
     0
102
RTVSPost2010PropOp45
 70
     1
102
RTVSPost2010Prop46
 90
       50
102
RTVSPost2010PropOp46
 70
     1
102
RTVSPost2010Prop47
 90
       50
102
RTVSPost2010PropOp47
 70
     1
102
RTVSPost2010Prop48
 90
       50
102
RTVSPost2010PropOp48
 70
     1
102
RTVSPost2010Prop49
280
     0
102
RTVSPost2010PropOp49
 70
     1
102
RTVSPost2010Prop50
 90
       50
102
RTVSPost2010PropOp50
 70
     1
102
RTVSPost2010Prop51ColorIndex
 90
      256
102
RTVSPost2010Prop51ColorRGB
 90
-16777216
102
RTVSPost2010PropOp51
 70
     0
102
RTVSPost2010Prop52
140
1.0
102
RTVSPost2010PropOp52
 70
     0
102
RTVSPost2010Prop53
 90
        2
102
RTVSPost2010PropOp53
 70
     1
102
RTVSPost2010Prop54
  1
strokes_ogs.tif
102
RTVSPost2010PropOp54
 70
     1
102
RTVSPost2010Prop55
280
     0
102
RTVSPost2010PropOp55
 70
     1
102
RTVSPost2010Prop56
140
1.0
102
RTVSPost2010PropOp56
 70
     1
102
RTVSPost2010Prop57
140
1.0
102
RTVSPost2010PropOp57
 70
     1
102
RTVSPropertyOp0
 70
     1
102
RTVSPropertyOp1
 70
     1
102
RTVSPropertyOp2
 70
     1
102
RTVSPropertyOp3
 70
     1
102
RTVSPropertyOp4
 70
     1
102
RTVSPropertyOp5
 70
     1
102
RTVSPropertyOp6
 70
     1
102
RTVSPropertyOp7
 70
     1
102
RTVSPropertyOp8
 70
     1
102
RTVSPropertyOp9
 70
     1
102
RTVSPropertyOp10
 70
     1
102
RTVSPropertyOp11
 70
     1
102
RTVSPropertyOp12
 70
     1
102
RTVSPropertyOp13
 70
     1
102
RTVSPropertyOp14
 70
     1
102
RTVSPropertyOp15
 70
     1
102
RTVSPropertyOp16
 70
     1
102
RTVSPropertyOp17
 70
     1
102
RTVSPropertyOp18
 70
     1
102
RTVSPropertyOp19
 70
     1
102
RTVSPropertyOp20
 70
     1
102
RTVSPropertyOp21
 70
     1
102
RTVSPropertyOp22
 70
     1
102
RTVSPropertyOp23
 70
     1
102
RTVSPropertyOp24
 70
     1
102
RTVSPropertyOp25
 70
     1
102
RTVSPropertyOp26
 70
     1
102
RTVSPropertyOp27
 70
     1
102
RTVSPropertyOp28
 70
     1
102
RTVSPropertyOp29
 70
     1
102
RTVSPropertyOp30
 70
     1
102
RTVSPropertyOp31
 70
     1
102
RTVSPropertyOp32
 70
     1
102
RTVSPropertyOp33
 70
     1
102
RTVSPropertyOp34
 70
     1
102
RTVSPropertyOp35
 70
     1
102
RTVSPropertyOp36
 70
     1
102
RTVSPropertyOp37
 70
     1
102
RTVSPropertyOp38
 70
     1
102
RTVSPropertyOp39
 70
     1
102
RTVSPropertyOp40
 70
     1
102
RTVSPropertyOp41
 70
     1
102
RTVSPropertyOp42
 70
     1
102
RTVSPropertyOp43
 70
     1
102
RTVSPropertyOp44
 70
     1
102
RTVSPropertyOp45
 70
     1
102
RTVSPropertyOp46
 70
     1
102
RTVSPropertyOp47
 70
     1
102
RTVSPropertyOp48
 70
     1
102
RTVSPropertyOp49
 70
     1
102
RTVSPropertyOp50
 70
     1
102
RTVSPropertyOp51
 70
     0
102
RTVSPropertyOp52
 70
     0
102
RTVSPropertyOp53
 70
     1
102
RTVSPropertyOp54
 70
     1
102
RTVSPropertyOp55
 70
     1
102
RTVSPropertyOp56
 70
     1
102
RTVSPropertyOp57
 70
     1
102
RTVSPropertyOp58
 70
     1
102
RTVSPropertyOp59
 70
     1
102
RTVSPropertyOp60
 70
     1
102
RTVSPropertyOp61
 70
     1
102
RTVSPropertyOp62
 70
     1
  0
XRECORD
  5
E1F
102
{ACAD_REACTORS
330
E1E
102
}
330
E1E
100
AcDbXrecord
280
     1
102
RTVSPost2010Prop28
280
     0
102
RTVSPost2010PropOp28
 70
     0
102
RTVSPost2010Prop29
280
     1
102
RTVSPost2010PropOp29
 70
     0
102
RTVSPost2010Prop30
280
     1
102
RTVSPost2010PropOp30
 70
     0
102
RTVSPost2010Prop31
280
     0
102
RTVSPost2010PropOp31
 70
     0
102
RTVSPost2010Prop32
280
     0
102
RTVSPost2010PropOp32
 70
     0
102
RTVSPost2010Prop33
280
     0
102
RTVSPost2010PropOp33
 70
     0
102
RTVSPost2010Prop34
280
     0
102
RTVSPost2010PropOp34
 70
     0
102
RTVSPost2010Prop35
280
     0
102
RTVSPost2010PropOp35
 70
     0
102
RTVSPost2010Prop36
280
     0
102
RTVSPost2010PropOp36
 70
     0
102
RTVSPost2010Prop37
 90
       50
102
RTVSPost2010PropOp37
 70
     0
102
RTVSPost2010Prop38
140
0.0
102
RTVSPost2010PropOp38
 70
     0
102
RTVSPost2010Prop39
140
1.0
102
RTVSPost2010PropOp39
 70
     0
102
RTVSPost2010Prop40
 90
        0
102
RTVSPost2010PropOp40
 70
     0
102
RTVSPost2010Prop41ColorIndex
 90
       18
102
RTVSPost2010Prop41ColorRGB
 90
        0
102
RTVSPost2010PropOp41
 70
     0
102
RTVSPost2010Prop42
 90
       50
102
RTVSPost2010PropOp42
 70
     0
102
RTVSPost2010Prop43
 90
        3
102
RTVSPost2010PropOp43
 70
     0
102
RTVSPost2010Prop44ColorIndex
 90
        5
102
RTVSPost2010Prop44ColorRGB
 90
      255
102
RTVSPost2010PropOp44
 70
     0
102
RTVSPost2010Prop45
280
     0
102
RTVSPost2010PropOp45
 70
     0
102
RTVSPost2010Prop46
 90
       50
102
RTVSPost2010PropOp46
 70
     0
102
RTVSPost2010Prop47
 90
       50
102
RTVSPost2010PropOp47
 70
     0
102
RTVSPost2010Prop48
 90
       50
102
RTVSPost2010PropOp48
 70
     0
102
RTVSPost2010Prop49
280
     0
102
RTVSPost2010PropOp49
 70
     0
102
RTVSPost2010Prop50
 90
       50
102
RTVSPost2010PropOp50
 70
     0
102
RTVSPost2010Prop51ColorIndex
 90
      256
102
RTVSPost2010Prop51ColorRGB
 90
-16777216
102
RTVSPost2010PropOp51
 70
     0
102
RTVSPost2010Prop52
140
1.0
102
RTVSPost2010PropOp52
 70
     0
102
RTVSPost2010Prop53
 90
        2
102
RTVSPost2010PropOp53
 70
     0
102
RTVSPost2010Prop54
  1
strokes_ogs.tif
102
RTVSPost2010PropOp54
 70
     0
102
RTVSPost2010Prop55
280
     0
102
RTVSPost2010PropOp55
 70
     0
102
RTVSPost2010Prop56
140
1.0
102
RTVSPost2010PropOp56
 70
     0
102
RTVSPost2010Prop57
140
1.0
102
RTVSPost2010PropOp57
 70
     0
102
RTVSPropertyOp0
 70
     0
102
RTVSPropertyOp1
 70
     0
102
RTVSPropertyOp2
 70
     0
102
RTVSPropertyOp3
 70
     0
102
RTVSPropertyOp4
 70
     0
102
RTVSPropertyOp5
 70
     0
102
RTVSPropertyOp6
 70
     0
102
RTVSPropertyOp7
 70
     0
102
RTVSPropertyOp8
 70
     0
102
RTVSPropertyOp9
 70
     0
102
RTVSPropertyOp10
 70
     0
102
RTVSPropertyOp11
 70
     0
102
RTVSPropertyOp12
 70
     0
102
RTVSPropertyOp13
 70
     0
102
RTVSPropertyOp14
 70
     2
102
RTVSPropertyOp15
 70
     0
102
RTVSPropertyOp16
 70
     0
102
RTVSPropertyOp17
 70
     0
102
RTVSPropertyOp18
 70
     0
102
RTVSPropertyOp19
 70
     0
102
RTVSPropertyOp20
 70
     0
102
RTVSPropertyOp21
 70
     0
102
RTVSPropertyOp22
 70
     0
102
RTVSPropertyOp23
 70
     0
102
RTVSPropertyOp24
 70
     0
102
RTVSPropertyOp25
 70
     0
102
RTVSPropertyOp26
 70
     0
102
RTVSPropertyOp27
 70
     0
102
RTVSPropertyOp28
 70
     0
102
RTVSPropertyOp29
 70
     0
102
RTVSPropertyOp30
 70
     0
102
RTVSPropertyOp31
 70
     0
102
RTVSPropertyOp32
 70
     0
102
RTVSPropertyOp33
 70
     0
102
RTVSPropertyOp34
 70
     0
102
RTVSPropertyOp35
 70
     0
102
RTVSPropertyOp36
 70
     0
102
RTVSPropertyOp37
 70
     0
102
RTVSPropertyOp38
 70
     0
102
RTVSPropertyOp39
 70
     0
102
RTVSPropertyOp40
 70
     0
102
RTVSPropertyOp41
 70
     0
102
RTVSPropertyOp42
 70
     0
102
RTVSPropertyOp43
 70
     0
102
RTVSPropertyOp44
 70
     0
102
RTVSPropertyOp45
 70
     0
102
RTVSPropertyOp46
 70
     0
102
RTVSPropertyOp47
 70
     0
102
RTVSPropertyOp48
 70
     0
102
RTVSPropertyOp49
 70
     0
102
RTVSPropertyOp50
 70
     0
102
RTVSPropertyOp51
 70
     0
102
RTVSPropertyOp52
 70
     0
102
RTVSPropertyOp53
 70
     0
102
RTVSPropertyOp54
 70
     0
102
RTVSPropertyOp55
 70
     0
102
RTVSPropertyOp56
 70
     0
102
RTVSPropertyOp57
 70
     0
102
RTVSPropertyOp58
 70
     0
102
RTVSPropertyOp59
 70
     0
102
RTVSPropertyOp60
 70
     0
102
RTVSPropertyOp61
 70
     0
102
RTVSPropertyOp62
 70
     0
  0
XRECORD
  5
E0D
102
{ACAD_REACTORS
330
E0C
102
}
330
E0C
100
AcDbXrecord
280
     1
102
RTVSPost2010Prop28
280
     0
102
RTVSPost2010PropOp28
 70
     1
102
RTVSPost2010Prop29
280
     1
102
RTVSPost2010PropOp29
 70
     1
102
RTVSPost2010Prop30
280
     1
102
RTVSPost2010PropOp30
 70
     1
102
RTVSPost2010Prop31
280
     0
102
RTVSPost2010PropOp31
 70
     1
102
RTVSPost2010Prop32
280
     0
102
RTVSPost2010PropOp32
 70
     1
102
RTVSPost2010Prop33
280
     0
102
RTVSPost2010PropOp33
 70
     1
102
RTVSPost2010Prop34
280
     0
102
RTVSPost2010PropOp34
 70
     1
102
RTVSPost2010Prop35
280
     0
102
RTVSPost2010PropOp35
 70
     1
102
RTVSPost2010Prop36
280
     0
102
RTVSPost2010PropOp36
 70
     1
102
RTVSPost2010Prop37
 90
       50
102
RTVSPost2010PropOp37
 70
     1
102
RTVSPost2010Prop38
140
0.0
102
RTVSPost2010PropOp38
 70
     1
102
RTVSPost2010Prop39
140
1.0
102
RTVSPost2010PropOp39
 70
     1
102
RTVSPost2010Prop40
 90
        0
102
RTVSPost2010PropOp40
 70
     1
102
RTVSPost2010Prop41ColorIndex
 90
       18
102
RTVSPost2010Prop41ColorRGB
 90
        0
102
RTVSPost2010PropOp41
 70
     1
102
RTVSPost2010Prop42
 90
       50
102
RTVSPost2010PropOp42
 70
     1
102
RTVSPost2010Prop43
 90
        3
102
RTVSPost2010PropOp43
 70
     1
102
RTVSPost2010Prop44ColorIndex
 90
        5
102
RTVSPost2010Prop44ColorRGB
 90
      255
102
RTVSPost2010PropOp44
 70
     1
102
RTVSPost2010Prop45
280
     0
102
RTVSPost2010PropOp45
 70
     1
102
RTVSPost2010Prop46
 90
       50
102
RTVSPost2010PropOp46
 70
     1
102
RTVSPost2010Prop47
 90
       50
102
RTVSPost2010PropOp47
 70
     1
102
RTVSPost2010Prop48
 90
       50
102
RTVSPost2010PropOp48
 70
     1
102
RTVSPost2010Prop49
280
     0
102
RTVSPost2010PropOp49
 70
     1
102
RTVSPost2010Prop50
 90
       50
102
RTVSPost2010PropOp50
 70
     1
102
RTVSPost2010Prop51ColorIndex
 90
      256
102
RTVSPost2010Prop51ColorRGB
 90
-16777216
102
RTVSPost2010PropOp51
 70
     0
102
RTVSPost2010Prop52
140
1.0
102
RTVSPost2010PropOp52
 70
     0
102
RTVSPost2010Prop53
 90
        2
102
RTVSPost2010PropOp53
 70
     1
102
RTVSPost2010Prop54
  1
strokes_ogs.tif
102
RTVSPost2010PropOp54
 70
     1
102
RTVSPost2010Prop55
280
     0
102
RTVSPost2010PropOp55
 70
     1
102
RTVSPost2010Prop56
140
1.0
102
RTVSPost2010PropOp56
 70
     1
102
RTVSPost2010Prop57
140
1.0
102
RTVSPost2010PropOp57
 70
     1
102
RTVSPropertyOp0
 70
     1
102
RTVSPropertyOp1
 70
     1
102
RTVSPropertyOp2
 70
     1
102
RTVSPropertyOp3
 70
     1
102
RTVSPropertyOp4
 70
     1
102
RTVSPropertyOp5
 70
     1
102
RTVSPropertyOp6
 70
     1
102
RTVSPropertyOp7
 70
     1
102
RTVSPropertyOp8
 70
     1
102
RTVSPropertyOp9
 70
     1
102
RTVSPropertyOp10
 70
     1
102
RTVSPropertyOp11
 70
     1
102
RTVSPropertyOp12
 70
     1
102
RTVSPropertyOp13
 70
     1
102
RTVSPropertyOp14
 70
     1
102
RTVSPropertyOp15
 70
     1
102
RTVSPropertyOp16
 70
     1
102
RTVSPropertyOp17
 70
     1
102
RTVSPropertyOp18
 70
     1
102
RTVSPropertyOp19
 70
     1
102
RTVSPropertyOp20
 70
     1
102
RTVSPropertyOp21
 70
     1
102
RTVSPropertyOp22
 70
     1
102
RTVSPropertyOp23
 70
     1
102
RTVSPropertyOp24
 70
     1
102
RTVSPropertyOp25
 70
     1
102
RTVSPropertyOp26
 70
     1
102
RTVSPropertyOp27
 70
     1
102
RTVSPropertyOp28
 70
     1
102
RTVSPropertyOp29
 70
     1
102
RTVSPropertyOp30
 70
     1
102
RTVSPropertyOp31
 70
     1
102
RTVSPropertyOp32
 70
     1
102
RTVSPropertyOp33
 70
     1
102
RTVSPropertyOp34
 70
     1
102
RTVSPropertyOp35
 70
     1
102
RTVSPropertyOp36
 70
     1
102
RTVSPropertyOp37
 70
     1
102
RTVSPropertyOp38
 70
     1
102
RTVSPropertyOp39
 70
     1
102
RTVSPropertyOp40
 70
     1
102
RTVSPropertyOp41
 70
     1
102
RTVSPropertyOp42
 70
     1
102
RTVSPropertyOp43
 70
     1
102
RTVSPropertyOp44
 70
     1
102
RTVSPropertyOp45
 70
     1
102
RTVSPropertyOp46
 70
     1
102
RTVSPropertyOp47
 70
     1
102
RTVSPropertyOp48
 70
     1
102
RTVSPropertyOp49
 70
     1
102
RTVSPropertyOp50
 70
     1
102
RTVSPropertyOp51
 70
     0
102
RTVSPropertyOp52
 70
     0
102
RTVSPropertyOp53
 70
     1
102
RTVSPropertyOp54
 70
     1
102
RTVSPropertyOp55
 70
     1
102
RTVSPropertyOp56
 70
     1
102
RTVSPropertyOp57
 70
     1
102
RTVSPropertyOp58
 70
     1
102
RTVSPropertyOp59
 70
     1
102
RTVSPropertyOp60
 70
     1
102
RTVSPropertyOp61
 70
     1
102
RTVSPropertyOp62
 70
     1
  0
XRECORD
  5
DF1
102
{ACAD_REACTORS
330
DF0
102
}
330
DF0
100
AcDbXrecord
280
     1
102
RTVSPost2010Prop28
280
     0
102
RTVSPost2010PropOp28
 70
     1
102
RTVSPost2010Prop29
280
     1
102
RTVSPost2010PropOp29
 70
     1
102
RTVSPost2010Prop30
280
     1
102
RTVSPost2010PropOp30
 70
     1
102
RTVSPost2010Prop31
280
     0
102
RTVSPost2010PropOp31
 70
     1
102
RTVSPost2010Prop32
280
     0
102
RTVSPost2010PropOp32
 70
     1
102
RTVSPost2010Prop33
280
     0
102
RTVSPost2010PropOp33
 70
     1
102
RTVSPost2010Prop34
280
     0
102
RTVSPost2010PropOp34
 70
     1
102
RTVSPost2010Prop35
280
     0
102
RTVSPost2010PropOp35
 70
     1
102
RTVSPost2010Prop36
280
     0
102
RTVSPost2010PropOp36
 70
     1
102
RTVSPost2010Prop37
 90
       50
102
RTVSPost2010PropOp37
 70
     1
102
RTVSPost2010Prop38
140
0.0
102
RTVSPost2010PropOp38
 70
     1
102
RTVSPost2010Prop39
140
1.0
102
RTVSPost2010PropOp39
 70
     1
102
RTVSPost2010Prop40
 90
        0
102
RTVSPost2010PropOp40
 70
     1
102
RTVSPost2010Prop41ColorIndex
 90
       18
102
RTVSPost2010Prop41ColorRGB
 90
        0
102
RTVSPost2010PropOp41
 70
     1
102
RTVSPost2010Prop42
 90
       50
102
RTVSPost2010PropOp42
 70
     1
102
RTVSPost2010Prop43
 90
        3
102
RTVSPost2010PropOp43
 70
     1
102
RTVSPost2010Prop44ColorIndex
 90
        5
102
RTVSPost2010Prop44ColorRGB
 90
      255
102
RTVSPost2010PropOp44
 70
     1
102
RTVSPost2010Prop45
280
     0
102
RTVSPost2010PropOp45
 70
     1
102
RTVSPost2010Prop46
 90
       50
102
RTVSPost2010PropOp46
 70
     1
102
RTVSPost2010Prop47
 90
       50
102
RTVSPost2010PropOp47
 70
     1
102
RTVSPost2010Prop48
 90
       50
102
RTVSPost2010PropOp48
 70
     1
102
RTVSPost2010Prop49
280
     0
102
RTVSPost2010PropOp49
 70
     1
102
RTVSPost2010Prop50
 90
       50
102
RTVSPost2010PropOp50
 70
     1
102
RTVSPost2010Prop51ColorIndex
 90
      256
102
RTVSPost2010Prop51ColorRGB
 90
-16777216
102
RTVSPost2010PropOp51
 70
     0
102
RTVSPost2010Prop52
140
1.0
102
RTVSPost2010PropOp52
 70
     0
102
RTVSPost2010Prop53
 90
        2
102
RTVSPost2010PropOp53
 70
     1
102
RTVSPost2010Prop54
  1
strokes_ogs.tif
102
RTVSPost2010PropOp54
 70
     1
102
RTVSPost2010Prop55
280
     0
102
RTVSPost2010PropOp55
 70
     1
102
RTVSPost2010Prop56
140
1.0
102
RTVSPost2010PropOp56
 70
     1
102
RTVSPost2010Prop57
140
1.0
102
RTVSPost2010PropOp57
 70
     1
102
RTVSPropertyOp0
 70
     1
102
RTVSPropertyOp1
 70
     1
102
RTVSPropertyOp2
 70
     1
102
RTVSPropertyOp3
 70
     1
102
RTVSPropertyOp4
 70
     1
102
RTVSPropertyOp5
 70
     1
102
RTVSPropertyOp6
 70
     1
102
RTVSPropertyOp7
 70
     1
102
RTVSPropertyOp8
 70
     1
102
RTVSPropertyOp9
 70
     1
102
RTVSPropertyOp10
 70
     1
102
RTVSPropertyOp11
 70
     1
102
RTVSPropertyOp12
 70
     1
102
RTVSPropertyOp13
 70
     1
102
RTVSPropertyOp14
 70
     1
102
RTVSPropertyOp15
 70
     1
102
RTVSPropertyOp16
 70
     1
102
RTVSPropertyOp17
 70
     1
102
RTVSPropertyOp18
 70
     1
102
RTVSPropertyOp19
 70
     1
102
RTVSPropertyOp20
 70
     1
102
RTVSPropertyOp21
 70
     1
102
RTVSPropertyOp22
 70
     1
102
RTVSPropertyOp23
 70
     1
102
RTVSPropertyOp24
 70
     1
102
RTVSPropertyOp25
 70
     1
102
RTVSPropertyOp26
 70
     1
102
RTVSPropertyOp27
 70
     1
102
RTVSPropertyOp28
 70
     1
102
RTVSPropertyOp29
 70
     1
102
RTVSPropertyOp30
 70
     1
102
RTVSPropertyOp31
 70
     1
102
RTVSPropertyOp32
 70
     1
102
RTVSPropertyOp33
 70
     1
102
RTVSPropertyOp34
 70
     1
102
RTVSPropertyOp35
 70
     1
102
RTVSPropertyOp36
 70
     1
102
RTVSPropertyOp37
 70
     1
102
RTVSPropertyOp38
 70
     1
102
RTVSPropertyOp39
 70
     1
102
RTVSPropertyOp40
 70
     1
102
RTVSPropertyOp41
 70
     1
102
RTVSPropertyOp42
 70
     1
102
RTVSPropertyOp43
 70
     1
102
RTVSPropertyOp44
 70
     1
102
RTVSPropertyOp45
 70
     1
102
RTVSPropertyOp46
 70
     1
102
RTVSPropertyOp47
 70
     1
102
RTVSPropertyOp48
 70
     1
102
RTVSPropertyOp49
 70
     1
102
RTVSPropertyOp50
 70
     1
102
RTVSPropertyOp51
 70
     0
102
RTVSPropertyOp52
 70
     0
102
RTVSPropertyOp53
 70
     1
102
RTVSPropertyOp54
 70
     1
102
RTVSPropertyOp55
 70
     1
102
RTVSPropertyOp56
 70
     1
102
RTVSPropertyOp57
 70
     1
102
RTVSPropertyOp58
 70
     1
102
RTVSPropertyOp59
 70
     1
102
RTVSPropertyOp60
 70
     1
102
RTVSPropertyOp61
 70
     1
102
RTVSPropertyOp62
 70
     1
  0
XRECORD
  5
DF3
102
{ACAD_REACTORS
330
DF2
102
}
330
DF2
100
AcDbXrecord
280
     1
102
RTVSPost2010Prop28
280
     0
102
RTVSPost2010PropOp28
 70
     1
102
RTVSPost2010Prop29
280
     1
102
RTVSPost2010PropOp29
 70
     1
102
RTVSPost2010Prop30
280
     1
102
RTVSPost2010PropOp30
 70
     1
102
RTVSPost2010Prop31
280
     0
102
RTVSPost2010PropOp31
 70
     1
102
RTVSPost2010Prop32
280
     0
102
RTVSPost2010PropOp32
 70
     1
102
RTVSPost2010Prop33
280
     0
102
RTVSPost2010PropOp33
 70
     1
102
RTVSPost2010Prop34
280
     0
102
RTVSPost2010PropOp34
 70
     1
102
RTVSPost2010Prop35
280
     0
102
RTVSPost2010PropOp35
 70
     1
102
RTVSPost2010Prop36
280
     0
102
RTVSPost2010PropOp36
 70
     1
102
RTVSPost2010Prop37
 90
       50
102
RTVSPost2010PropOp37
 70
     1
102
RTVSPost2010Prop38
140
0.0
102
RTVSPost2010PropOp38
 70
     1
102
RTVSPost2010Prop39
140
1.0
102
RTVSPost2010PropOp39
 70
     1
102
RTVSPost2010Prop40
 90
        0
102
RTVSPost2010PropOp40
 70
     1
102
RTVSPost2010Prop41ColorIndex
 90
       18
102
RTVSPost2010Prop41ColorRGB
 90
        0
102
RTVSPost2010PropOp41
 70
     1
102
RTVSPost2010Prop42
 90
       50
102
RTVSPost2010PropOp42
 70
     1
102
RTVSPost2010Prop43
 90
        3
102
RTVSPost2010PropOp43
 70
     1
102
RTVSPost2010Prop44ColorIndex
 90
        5
102
RTVSPost2010Prop44ColorRGB
 90
      255
102
RTVSPost2010PropOp44
 70
     1
102
RTVSPost2010Prop45
280
     0
102
RTVSPost2010PropOp45
 70
     1
102
RTVSPost2010Prop46
 90
       50
102
RTVSPost2010PropOp46
 70
     1
102
RTVSPost2010Prop47
 90
       50
102
RTVSPost2010PropOp47
 70
     1
102
RTVSPost2010Prop48
 90
       50
102
RTVSPost2010PropOp48
 70
     1
102
RTVSPost2010Prop49
280
     0
102
RTVSPost2010PropOp49
 70
     1
102
RTVSPost2010Prop50
 90
       50
102
RTVSPost2010PropOp50
 70
     1
102
RTVSPost2010Prop51ColorIndex
 90
      256
102
RTVSPost2010Prop51ColorRGB
 90
-16777216
102
RTVSPost2010PropOp51
 70
     0
102
RTVSPost2010Prop52
140
1.0
102
RTVSPost2010PropOp52
 70
     0
102
RTVSPost2010Prop53
 90
        2
102
RTVSPost2010PropOp53
 70
     1
102
RTVSPost2010Prop54
  1
strokes_ogs.tif
102
RTVSPost2010PropOp54
 70
     1
102
RTVSPost2010Prop55
280
     0
102
RTVSPost2010PropOp55
 70
     1
102
RTVSPost2010Prop56
140
1.0
102
RTVSPost2010PropOp56
 70
     1
102
RTVSPost2010Prop57
140
1.0
102
RTVSPost2010PropOp57
 70
     1
102
RTVSPropertyOp0
 70
     1
102
RTVSPropertyOp1
 70
     1
102
RTVSPropertyOp2
 70
     1
102
RTVSPropertyOp3
 70
     1
102
RTVSPropertyOp4
 70
     1
102
RTVSPropertyOp5
 70
     1
102
RTVSPropertyOp6
 70
     1
102
RTVSPropertyOp7
 70
     1
102
RTVSPropertyOp8
 70
     1
102
RTVSPropertyOp9
 70
     1
102
RTVSPropertyOp10
 70
     1
102
RTVSPropertyOp11
 70
     1
102
RTVSPropertyOp12
 70
     1
102
RTVSPropertyOp13
 70
     1
102
RTVSPropertyOp14
 70
     1
102
RTVSPropertyOp15
 70
     1
102
RTVSPropertyOp16
 70
     1
102
RTVSPropertyOp17
 70
     1
102
RTVSPropertyOp18
 70
     1
102
RTVSPropertyOp19
 70
     1
102
RTVSPropertyOp20
 70
     1
102
RTVSPropertyOp21
 70
     1
102
RTVSPropertyOp22
 70
     1
102
RTVSPropertyOp23
 70
     1
102
RTVSPropertyOp24
 70
     1
102
RTVSPropertyOp25
 70
     1
102
RTVSPropertyOp26
 70
     1
102
RTVSPropertyOp27
 70
     1
102
RTVSPropertyOp28
 70
     1
102
RTVSPropertyOp29
 70
     1
102
RTVSPropertyOp30
 70
     1
102
RTVSPropertyOp31
 70
     1
102
RTVSPropertyOp32
 70
     1
102
RTVSPropertyOp33
 70
     1
102
RTVSPropertyOp34
 70
     1
102
RTVSPropertyOp35
 70
     1
102
RTVSPropertyOp36
 70
     1
102
RTVSPropertyOp37
 70
     1
102
RTVSPropertyOp38
 70
     1
102
RTVSPropertyOp39
 70
     1
102
RTVSPropertyOp40
 70
     1
102
RTVSPropertyOp41
 70
     1
102
RTVSPropertyOp42
 70
     1
102
RTVSPropertyOp43
 70
     1
102
RTVSPropertyOp44
 70
     1
102
RTVSPropertyOp45
 70
     1
102
RTVSPropertyOp46
 70
     1
102
RTVSPropertyOp47
 70
     1
102
RTVSPropertyOp48
 70
     1
102
RTVSPropertyOp49
 70
     1
102
RTVSPropertyOp50
 70
     1
102
RTVSPropertyOp51
 70
     0
102
RTVSPropertyOp52
 70
     0
102
RTVSPropertyOp53
 70
     1
102
RTVSPropertyOp54
 70
     1
102
RTVSPropertyOp55
 70
     1
102
RTVSPropertyOp56
 70
     1
102
RTVSPropertyOp57
 70
     1
102
RTVSPropertyOp58
 70
     1
102
RTVSPropertyOp59
 70
     1
102
RTVSPropertyOp60
 70
     1
102
RTVSPropertyOp61
 70
     1
102
RTVSPropertyOp62
 70
     1
  0
XRECORD
  5
DF5
102
{ACAD_REACTORS
330
DF4
102
}
330
DF4
100
AcDbXrecord
280
     1
102
RTVSPost2010Prop28
280
     0
102
RTVSPost2010PropOp28
 70
     1
102
RTVSPost2010Prop29
280
     1
102
RTVSPost2010PropOp29
 70
     1
102
RTVSPost2010Prop30
280
     1
102
RTVSPost2010PropOp30
 70
     1
102
RTVSPost2010Prop31
280
     0
102
RTVSPost2010PropOp31
 70
     1
102
RTVSPost2010Prop32
280
     0
102
RTVSPost2010PropOp32
 70
     1
102
RTVSPost2010Prop33
280
     0
102
RTVSPost2010PropOp33
 70
     1
102
RTVSPost2010Prop34
280
     0
102
RTVSPost2010PropOp34
 70
     1
102
RTVSPost2010Prop35
280
     0
102
RTVSPost2010PropOp35
 70
     1
102
RTVSPost2010Prop36
280
     0
102
RTVSPost2010PropOp36
 70
     1
102
RTVSPost2010Prop37
 90
       50
102
RTVSPost2010PropOp37
 70
     1
102
RTVSPost2010Prop38
140
0.0
102
RTVSPost2010PropOp38
 70
     1
102
RTVSPost2010Prop39
140
1.0
102
RTVSPost2010PropOp39
 70
     1
102
RTVSPost2010Prop40
 90
        0
102
RTVSPost2010PropOp40
 70
     1
102
RTVSPost2010Prop41ColorIndex
 90
       18
102
RTVSPost2010Prop41ColorRGB
 90
        0
102
RTVSPost2010PropOp41
 70
     1
102
RTVSPost2010Prop42
 90
       50
102
RTVSPost2010PropOp42
 70
     1
102
RTVSPost2010Prop43
 90
        3
102
RTVSPost2010PropOp43
 70
     1
102
RTVSPost2010Prop44ColorIndex
 90
        5
102
RTVSPost2010Prop44ColorRGB
 90
      255
102
RTVSPost2010PropOp44
 70
     1
102
RTVSPost2010Prop45
280
     0
102
RTVSPost2010PropOp45
 70
     1
102
RTVSPost2010Prop46
 90
       50
102
RTVSPost2010PropOp46
 70
     1
102
RTVSPost2010Prop47
 90
       50
102
RTVSPost2010PropOp47
 70
     1
102
RTVSPost2010Prop48
 90
       50
102
RTVSPost2010PropOp48
 70
     1
102
RTVSPost2010Prop49
280
     0
102
RTVSPost2010PropOp49
 70
     1
102
RTVSPost2010Prop50
 90
       50
102
RTVSPost2010PropOp50
 70
     1
102
RTVSPost2010Prop51ColorIndex
 90
      256
102
RTVSPost2010Prop51ColorRGB
 90
-16777216
102
RTVSPost2010PropOp51
 70
     0
102
RTVSPost2010Prop52
140
1.0
102
RTVSPost2010PropOp52
 70
     0
102
RTVSPost2010Prop53
 90
        2
102
RTVSPost2010PropOp53
 70
     1
102
RTVSPost2010Prop54
  1
strokes_ogs.tif
102
RTVSPost2010PropOp54
 70
     1
102
RTVSPost2010Prop55
280
     0
102
RTVSPost2010PropOp55
 70
     1
102
RTVSPost2010Prop56
140
1.0
102
RTVSPost2010PropOp56
 70
     1
102
RTVSPost2010Prop57
140
1.0
102
RTVSPost2010PropOp57
 70
     1
102
RTVSPropertyOp0
 70
     1
102
RTVSPropertyOp1
 70
     1
102
RTVSPropertyOp2
 70
     1
102
RTVSPropertyOp3
 70
     1
102
RTVSPropertyOp4
 70
     1
102
RTVSPropertyOp5
 70
     1
102
RTVSPropertyOp6
 70
     1
102
RTVSPropertyOp7
 70
     1
102
RTVSPropertyOp8
 70
     1
102
RTVSPropertyOp9
 70
     1
102
RTVSPropertyOp10
 70
     1
102
RTVSPropertyOp11
 70
     1
102
RTVSPropertyOp12
 70
     1
102
RTVSPropertyOp13
 70
     1
102
RTVSPropertyOp14
 70
     1
102
RTVSPropertyOp15
 70
     1
102
RTVSPropertyOp16
 70
     1
102
RTVSPropertyOp17
 70
     1
102
RTVSPropertyOp18
 70
     1
102
RTVSPropertyOp19
 70
     1
102
RTVSPropertyOp20
 70
     1
102
RTVSPropertyOp21
 70
     1
102
RTVSPropertyOp22
 70
     1
102
RTVSPropertyOp23
 70
     1
102
RTVSPropertyOp24
 70
     1
102
RTVSPropertyOp25
 70
     1
102
RTVSPropertyOp26
 70
     1
102
RTVSPropertyOp27
 70
     1
102
RTVSPropertyOp28
 70
     1
102
RTVSPropertyOp29
 70
     1
102
RTVSPropertyOp30
 70
     1
102
RTVSPropertyOp31
 70
     1
102
RTVSPropertyOp32
 70
     1
102
RTVSPropertyOp33
 70
     1
102
RTVSPropertyOp34
 70
     1
102
RTVSPropertyOp35
 70
     1
102
RTVSPropertyOp36
 70
     1
102
RTVSPropertyOp37
 70
     1
102
RTVSPropertyOp38
 70
     1
102
RTVSPropertyOp39
 70
     1
102
RTVSPropertyOp40
 70
     1
102
RTVSPropertyOp41
 70
     1
102
RTVSPropertyOp42
 70
     1
102
RTVSPropertyOp43
 70
     1
102
RTVSPropertyOp44
 70
     1
102
RTVSPropertyOp45
 70
     1
102
RTVSPropertyOp46
 70
     1
102
RTVSPropertyOp47
 70
     1
102
RTVSPropertyOp48
 70
     1
102
RTVSPropertyOp49
 70
     1
102
RTVSPropertyOp50
 70
     1
102
RTVSPropertyOp51
 70
     0
102
RTVSPropertyOp52
 70
     0
102
RTVSPropertyOp53
 70
     1
102
RTVSPropertyOp54
 70
     1
102
RTVSPropertyOp55
 70
     1
102
RTVSPropertyOp56
 70
     1
102
RTVSPropertyOp57
 70
     1
102
RTVSPropertyOp58
 70
     1
102
RTVSPropertyOp59
 70
     1
102
RTVSPropertyOp60
 70
     1
102
RTVSPropertyOp61
 70
     1
102
RTVSPropertyOp62
 70
     1
  0
XRECORD
  5
DF7
102
{ACAD_REACTORS
330
DF6
102
}
330
DF6
100
AcDbXrecord
280
     1
102
RTVSPost2010Prop28
280
     0
102
RTVSPost2010PropOp28
 70
     1
102
RTVSPost2010Prop29
280
     1
102
RTVSPost2010PropOp29
 70
     1
102
RTVSPost2010Prop30
280
     1
102
RTVSPost2010PropOp30
 70
     1
102
RTVSPost2010Prop31
280
     0
102
RTVSPost2010PropOp31
 70
     1
102
RTVSPost2010Prop32
280
     0
102
RTVSPost2010PropOp32
 70
     1
102
RTVSPost2010Prop33
280
     0
102
RTVSPost2010PropOp33
 70
     1
102
RTVSPost2010Prop34
280
     0
102
RTVSPost2010PropOp34
 70
     1
102
RTVSPost2010Prop35
280
     0
102
RTVSPost2010PropOp35
 70
     1
102
RTVSPost2010Prop36
280
     0
102
RTVSPost2010PropOp36
 70
     1
102
RTVSPost2010Prop37
 90
       50
102
RTVSPost2010PropOp37
 70
     1
102
RTVSPost2010Prop38
140
0.0
102
RTVSPost2010PropOp38
 70
     1
102
RTVSPost2010Prop39
140
1.0
102
RTVSPost2010PropOp39
 70
     1
102
RTVSPost2010Prop40
 90
        0
102
RTVSPost2010PropOp40
 70
     1
102
RTVSPost2010Prop41ColorIndex
 90
       18
102
RTVSPost2010Prop41ColorRGB
 90
        0
102
RTVSPost2010PropOp41
 70
     1
102
RTVSPost2010Prop42
 90
       50
102
RTVSPost2010PropOp42
 70
     1
102
RTVSPost2010Prop43
 90
        3
102
RTVSPost2010PropOp43
 70
     1
102
RTVSPost2010Prop44ColorIndex
 90
        5
102
RTVSPost2010Prop44ColorRGB
 90
      255
102
RTVSPost2010PropOp44
 70
     1
102
RTVSPost2010Prop45
280
     0
102
RTVSPost2010PropOp45
 70
     1
102
RTVSPost2010Prop46
 90
       50
102
RTVSPost2010PropOp46
 70
     1
102
RTVSPost2010Prop47
 90
       50
102
RTVSPost2010PropOp47
 70
     1
102
RTVSPost2010Prop48
 90
       50
102
RTVSPost2010PropOp48
 70
     1
102
RTVSPost2010Prop49
280
     0
102
RTVSPost2010PropOp49
 70
     1
102
RTVSPost2010Prop50
 90
       50
102
RTVSPost2010PropOp50
 70
     1
102
RTVSPost2010Prop51ColorIndex
 90
      256
102
RTVSPost2010Prop51ColorRGB
 90
-16777216
102
RTVSPost2010PropOp51
 70
     0
102
RTVSPost2010Prop52
140
1.0
102
RTVSPost2010PropOp52
 70
     0
102
RTVSPost2010Prop53
 90
        2
102
RTVSPost2010PropOp53
 70
     1
102
RTVSPost2010Prop54
  1
strokes_ogs.tif
102
RTVSPost2010PropOp54
 70
     1
102
RTVSPost2010Prop55
280
     0
102
RTVSPost2010PropOp55
 70
     1
102
RTVSPost2010Prop56
140
1.0
102
RTVSPost2010PropOp56
 70
     1
102
RTVSPost2010Prop57
140
1.0
102
RTVSPost2010PropOp57
 70
     1
102
RTVSPropertyOp0
 70
     1
102
RTVSPropertyOp1
 70
     1
102
RTVSPropertyOp2
 70
     1
102
RTVSPropertyOp3
 70
     1
102
RTVSPropertyOp4
 70
     1
102
RTVSPropertyOp5
 70
     1
102
RTVSPropertyOp6
 70
     1
102
RTVSPropertyOp7
 70
     1
102
RTVSPropertyOp8
 70
     1
102
RTVSPropertyOp9
 70
     1
102
RTVSPropertyOp10
 70
     1
102
RTVSPropertyOp11
 70
     1
102
RTVSPropertyOp12
 70
     1
102
RTVSPropertyOp13
 70
     1
102
RTVSPropertyOp14
 70
     1
102
RTVSPropertyOp15
 70
     1
102
RTVSPropertyOp16
 70
     1
102
RTVSPropertyOp17
 70
     1
102
RTVSPropertyOp18
 70
     1
102
RTVSPropertyOp19
 70
     1
102
RTVSPropertyOp20
 70
     1
102
RTVSPropertyOp21
 70
     1
102
RTVSPropertyOp22
 70
     1
102
RTVSPropertyOp23
 70
     1
102
RTVSPropertyOp24
 70
     1
102
RTVSPropertyOp25
 70
     1
102
RTVSPropertyOp26
 70
     1
102
RTVSPropertyOp27
 70
     1
102
RTVSPropertyOp28
 70
     1
102
RTVSPropertyOp29
 70
     1
102
RTVSPropertyOp30
 70
     1
102
RTVSPropertyOp31
 70
     1
102
RTVSPropertyOp32
 70
     1
102
RTVSPropertyOp33
 70
     1
102
RTVSPropertyOp34
 70
     1
102
RTVSPropertyOp35
 70
     1
102
RTVSPropertyOp36
 70
     1
102
RTVSPropertyOp37
 70
     1
102
RTVSPropertyOp38
 70
     1
102
RTVSPropertyOp39
 70
     1
102
RTVSPropertyOp40
 70
     1
102
RTVSPropertyOp41
 70
     1
102
RTVSPropertyOp42
 70
     1
102
RTVSPropertyOp43
 70
     1
102
RTVSPropertyOp44
 70
     1
102
RTVSPropertyOp45
 70
     1
102
RTVSPropertyOp46
 70
     1
102
RTVSPropertyOp47
 70
     1
102
RTVSPropertyOp48
 70
     1
102
RTVSPropertyOp49
 70
     1
102
RTVSPropertyOp50
 70
     1
102
RTVSPropertyOp51
 70
     0
102
RTVSPropertyOp52
 70
     0
102
RTVSPropertyOp53
 70
     1
102
RTVSPropertyOp54
 70
     1
102
RTVSPropertyOp55
 70
     1
102
RTVSPropertyOp56
 70
     1
102
RTVSPropertyOp57
 70
     1
102
RTVSPropertyOp58
 70
     1
102
RTVSPropertyOp59
 70
     1
102
RTVSPropertyOp60
 70
     1
102
RTVSPropertyOp61
 70
     1
102
RTVSPropertyOp62
 70
     1
  0
XRECORD
  5
DFF
102
{ACAD_REACTORS
330
DFE
102
}
330
DFE
100
AcDbXrecord
280
     1
102
RTVSPost2010Prop28
280
     0
102
RTVSPost2010PropOp28
 70
     1
102
RTVSPost2010Prop29
280
     1
102
RTVSPost2010PropOp29
 70
     1
102
RTVSPost2010Prop30
280
     1
102
RTVSPost2010PropOp30
 70
     1
102
RTVSPost2010Prop31
280
     0
102
RTVSPost2010PropOp31
 70
     1
102
RTVSPost2010Prop32
280
     0
102
RTVSPost2010PropOp32
 70
     1
102
RTVSPost2010Prop33
280
     0
102
RTVSPost2010PropOp33
 70
     1
102
RTVSPost2010Prop34
280
     0
102
RTVSPost2010PropOp34
 70
     1
102
RTVSPost2010Prop35
280
     0
102
RTVSPost2010PropOp35
 70
     1
102
RTVSPost2010Prop36
280
     0
102
RTVSPost2010PropOp36
 70
     1
102
RTVSPost2010Prop37
 90
       50
102
RTVSPost2010PropOp37
 70
     1
102
RTVSPost2010Prop38
140
0.0
102
RTVSPost2010PropOp38
 70
     1
102
RTVSPost2010Prop39
140
1.0
102
RTVSPost2010PropOp39
 70
     1
102
RTVSPost2010Prop40
 90
        0
102
RTVSPost2010PropOp40
 70
     1
102
RTVSPost2010Prop41ColorIndex
 90
       18
102
RTVSPost2010Prop41ColorRGB
 90
        0
102
RTVSPost2010PropOp41
 70
     1
102
RTVSPost2010Prop42
 90
       50
102
RTVSPost2010PropOp42
 70
     1
102
RTVSPost2010Prop43
 90
        3
102
RTVSPost2010PropOp43
 70
     1
102
RTVSPost2010Prop44ColorIndex
 90
        5
102
RTVSPost2010Prop44ColorRGB
 90
      255
102
RTVSPost2010PropOp44
 70
     1
102
RTVSPost2010Prop45
280
     0
102
RTVSPost2010PropOp45
 70
     1
102
RTVSPost2010Prop46
 90
       50
102
RTVSPost2010PropOp46
 70
     1
102
RTVSPost2010Prop47
 90
       50
102
RTVSPost2010PropOp47
 70
     1
102
RTVSPost2010Prop48
 90
       50
102
RTVSPost2010PropOp48
 70
     1
102
RTVSPost2010Prop49
280
     0
102
RTVSPost2010PropOp49
 70
     1
102
RTVSPost2010Prop50
 90
       50
102
RTVSPost2010PropOp50
 70
     1
102
RTVSPost2010Prop51ColorIndex
 90
      256
102
RTVSPost2010Prop51ColorRGB
 90
-16777216
102
RTVSPost2010PropOp51
 70
     0
102
RTVSPost2010Prop52
140
1.0
102
RTVSPost2010PropOp52
 70
     0
102
RTVSPost2010Prop53
 90
        2
102
RTVSPost2010PropOp53
 70
     1
102
RTVSPost2010Prop54
  1
strokes_ogs.tif
102
RTVSPost2010PropOp54
 70
     1
102
RTVSPost2010Prop55
280
     0
102
RTVSPost2010PropOp55
 70
     1
102
RTVSPost2010Prop56
140
1.0
102
RTVSPost2010PropOp56
 70
     1
102
RTVSPost2010Prop57
140
1.0
102
RTVSPost2010PropOp57
 70
     1
102
RTVSPropertyOp0
 70
     1
102
RTVSPropertyOp1
 70
     1
102
RTVSPropertyOp2
 70
     1
102
RTVSPropertyOp3
 70
     1
102
RTVSPropertyOp4
 70
     1
102
RTVSPropertyOp5
 70
     1
102
RTVSPropertyOp6
 70
     1
102
RTVSPropertyOp7
 70
     1
102
RTVSPropertyOp8
 70
     1
102
RTVSPropertyOp9
 70
     1
102
RTVSPropertyOp10
 70
     1
102
RTVSPropertyOp11
 70
     1
102
RTVSPropertyOp12
 70
     1
102
RTVSPropertyOp13
 70
     1
102
RTVSPropertyOp14
 70
     1
102
RTVSPropertyOp15
 70
     1
102
RTVSPropertyOp16
 70
     1
102
RTVSPropertyOp17
 70
     1
102
RTVSPropertyOp18
 70
     1
102
RTVSPropertyOp19
 70
     1
102
RTVSPropertyOp20
 70
     1
102
RTVSPropertyOp21
 70
     1
102
RTVSPropertyOp22
 70
     1
102
RTVSPropertyOp23
 70
     1
102
RTVSPropertyOp24
 70
     1
102
RTVSPropertyOp25
 70
     1
102
RTVSPropertyOp26
 70
     1
102
RTVSPropertyOp27
 70
     1
102
RTVSPropertyOp28
 70
     1
102
RTVSPropertyOp29
 70
     1
102
RTVSPropertyOp30
 70
     1
102
RTVSPropertyOp31
 70
     1
102
RTVSPropertyOp32
 70
     1
102
RTVSPropertyOp33
 70
     1
102
RTVSPropertyOp34
 70
     1
102
RTVSPropertyOp35
 70
     1
102
RTVSPropertyOp36
 70
     1
102
RTVSPropertyOp37
 70
     1
102
RTVSPropertyOp38
 70
     1
102
RTVSPropertyOp39
 70
     1
102
RTVSPropertyOp40
 70
     1
102
RTVSPropertyOp41
 70
     1
102
RTVSPropertyOp42
 70
     1
102
RTVSPropertyOp43
 70
     1
102
RTVSPropertyOp44
 70
     1
102
RTVSPropertyOp45
 70
     1
102
RTVSPropertyOp46
 70
     1
102
RTVSPropertyOp47
 70
     1
102
RTVSPropertyOp48
 70
     1
102
RTVSPropertyOp49
 70
     1
102
RTVSPropertyOp50
 70
     1
102
RTVSPropertyOp51
 70
     0
102
RTVSPropertyOp52
 70
     0
102
RTVSPropertyOp53
 70
     1
102
RTVSPropertyOp54
 70
     1
102
RTVSPropertyOp55
 70
     1
102
RTVSPropertyOp56
 70
     1
102
RTVSPropertyOp57
 70
     1
102
RTVSPropertyOp58
 70
     1
102
RTVSPropertyOp59
 70
     1
102
RTVSPropertyOp60
 70
     1
102
RTVSPropertyOp61
 70
     1
102
RTVSPropertyOp62
 70
     1
  0
XRECORD
  5
E1B
102
{ACAD_REACTORS
330
E1A
102
}
330
E1A
100
AcDbXrecord
280
     1
102
RTVSPost2010Prop28
280
     0
102
RTVSPost2010PropOp28
 70
     0
102
RTVSPost2010Prop29
280
     1
102
RTVSPost2010PropOp29
 70
     0
102
RTVSPost2010Prop30
280
     1
102
RTVSPost2010PropOp30
 70
     0
102
RTVSPost2010Prop31
280
     0
102
RTVSPost2010PropOp31
 70
     0
102
RTVSPost2010Prop32
280
     0
102
RTVSPost2010PropOp32
 70
     0
102
RTVSPost2010Prop33
280
     0
102
RTVSPost2010PropOp33
 70
     0
102
RTVSPost2010Prop34
280
     0
102
RTVSPost2010PropOp34
 70
     0
102
RTVSPost2010Prop35
280
     0
102
RTVSPost2010PropOp35
 70
     0
102
RTVSPost2010Prop36
280
     0
102
RTVSPost2010PropOp36
 70
     0
102
RTVSPost2010Prop37
 90
       50
102
RTVSPost2010PropOp37
 70
     0
102
RTVSPost2010Prop38
140
0.0
102
RTVSPost2010PropOp38
 70
     0
102
RTVSPost2010Prop39
140
1.0
102
RTVSPost2010PropOp39
 70
     0
102
RTVSPost2010Prop40
 90
        0
102
RTVSPost2010PropOp40
 70
     0
102
RTVSPost2010Prop41ColorIndex
 90
       18
102
RTVSPost2010Prop41ColorRGB
 90
        0
102
RTVSPost2010PropOp41
 70
     0
102
RTVSPost2010Prop42
 90
       50
102
RTVSPost2010PropOp42
 70
     0
102
RTVSPost2010Prop43
 90
        3
102
RTVSPost2010PropOp43
 70
     0
102
RTVSPost2010Prop44ColorIndex
 90
        5
102
RTVSPost2010Prop44ColorRGB
 90
      255
102
RTVSPost2010PropOp44
 70
     0
102
RTVSPost2010Prop45
280
     0
102
RTVSPost2010PropOp45
 70
     0
102
RTVSPost2010Prop46
 90
       50
102
RTVSPost2010PropOp46
 70
     0
102
RTVSPost2010Prop47
 90
       50
102
RTVSPost2010PropOp47
 70
     0
102
RTVSPost2010Prop48
 90
       50
102
RTVSPost2010PropOp48
 70
     0
102
RTVSPost2010Prop49
280
     0
102
RTVSPost2010PropOp49
 70
     0
102
RTVSPost2010Prop50
 90
       50
102
RTVSPost2010PropOp50
 70
     0
102
RTVSPost2010Prop51ColorIndex
 90
      256
102
RTVSPost2010Prop51ColorRGB
 90
-16777216
102
RTVSPost2010PropOp51
 70
     0
102
RTVSPost2010Prop52
140
1.0
102
RTVSPost2010PropOp52
 70
     0
102
RTVSPost2010Prop53
 90
        2
102
RTVSPost2010PropOp53
 70
     0
102
RTVSPost2010Prop54
  1
strokes_ogs.tif
102
RTVSPost2010PropOp54
 70
     0
102
RTVSPost2010Prop55
280
     0
102
RTVSPost2010PropOp55
 70
     0
102
RTVSPost2010Prop56
140
1.0
102
RTVSPost2010PropOp56
 70
     0
102
RTVSPost2010Prop57
140
1.0
102
RTVSPost2010PropOp57
 70
     0
102
RTVSPropertyOp0
 70
     0
102
RTVSPropertyOp1
 70
     0
102
RTVSPropertyOp2
 70
     0
102
RTVSPropertyOp3
 70
     0
102
RTVSPropertyOp4
 70
     0
102
RTVSPropertyOp5
 70
     0
102
RTVSPropertyOp6
 70
     0
102
RTVSPropertyOp7
 70
     0
102
RTVSPropertyOp8
 70
     0
102
RTVSPropertyOp9
 70
     0
102
RTVSPropertyOp10
 70
     0
102
RTVSPropertyOp11
 70
     0
102
RTVSPropertyOp12
 70
     0
102
RTVSPropertyOp13
 70
     0
102
RTVSPropertyOp14
 70
     2
102
RTVSPropertyOp15
 70
     0
102
RTVSPropertyOp16
 70
     0
102
RTVSPropertyOp17
 70
     0
102
RTVSPropertyOp18
 70
     0
102
RTVSPropertyOp19
 70
     0
102
RTVSPropertyOp20
 70
     0
102
RTVSPropertyOp21
 70
     0
102
RTVSPropertyOp22
 70
     0
102
RTVSPropertyOp23
 70
     0
102
RTVSPropertyOp24
 70
     0
102
RTVSPropertyOp25
 70
     0
102
RTVSPropertyOp26
 70
     0
102
RTVSPropertyOp27
 70
     0
102
RTVSPropertyOp28
 70
     0
102
RTVSPropertyOp29
 70
     0
102
RTVSPropertyOp30
 70
     0
102
RTVSPropertyOp31
 70
     0
102
RTVSPropertyOp32
 70
     0
102
RTVSPropertyOp33
 70
     0
102
RTVSPropertyOp34
 70
     0
102
RTVSPropertyOp35
 70
     0
102
RTVSPropertyOp36
 70
     0
102
RTVSPropertyOp37
 70
     0
102
RTVSPropertyOp38
 70
     0
102
RTVSPropertyOp39
 70
     0
102
RTVSPropertyOp40
 70
     0
102
RTVSPropertyOp41
 70
     0
102
RTVSPropertyOp42
 70
     0
102
RTVSPropertyOp43
 70
     0
102
RTVSPropertyOp44
 70
     0
102
RTVSPropertyOp45
 70
     0
102
RTVSPropertyOp46
 70
     0
102
RTVSPropertyOp47
 70
     0
102
RTVSPropertyOp48
 70
     0
102
RTVSPropertyOp49
 70
     0
102
RTVSPropertyOp50
 70
     0
102
RTVSPropertyOp51
 70
     0
102
RTVSPropertyOp52
 70
     0
102
RTVSPropertyOp53
 70
     0
102
RTVSPropertyOp54
 70
     0
102
RTVSPropertyOp55
 70
     0
102
RTVSPropertyOp56
 70
     0
102
RTVSPropertyOp57
 70
     0
102
RTVSPropertyOp58
 70
     0
102
RTVSPropertyOp59
 70
     0
102
RTVSPropertyOp60
 70
     0
102
RTVSPropertyOp61
 70
     0
102
RTVSPropertyOp62
 70
     0
  0
XRECORD
  5
E0B
102
{ACAD_REACTORS
330
E0A
102
}
330
E0A
100
AcDbXrecord
280
     1
102
RTVSPost2010Prop28
280
     0
102
RTVSPost2010PropOp28
 70
     1
102
RTVSPost2010Prop29
280
     1
102
RTVSPost2010PropOp29
 70
     1
102
RTVSPost2010Prop30
280
     1
102
RTVSPost2010PropOp30
 70
     1
102
RTVSPost2010Prop31
280
     0
102
RTVSPost2010PropOp31
 70
     1
102
RTVSPost2010Prop32
280
     0
102
RTVSPost2010PropOp32
 70
     1
102
RTVSPost2010Prop33
280
     0
102
RTVSPost2010PropOp33
 70
     1
102
RTVSPost2010Prop34
280
     0
102
RTVSPost2010PropOp34
 70
     1
102
RTVSPost2010Prop35
280
     0
102
RTVSPost2010PropOp35
 70
     1
102
RTVSPost2010Prop36
280
     0
102
RTVSPost2010PropOp36
 70
     1
102
RTVSPost2010Prop37
 90
       50
102
RTVSPost2010PropOp37
 70
     1
102
RTVSPost2010Prop38
140
0.0
102
RTVSPost2010PropOp38
 70
     1
102
RTVSPost2010Prop39
140
1.0
102
RTVSPost2010PropOp39
 70
     1
102
RTVSPost2010Prop40
 90
        0
102
RTVSPost2010PropOp40
 70
     1
102
RTVSPost2010Prop41ColorIndex
 90
       18
102
RTVSPost2010Prop41ColorRGB
 90
        0
102
RTVSPost2010PropOp41
 70
     1
102
RTVSPost2010Prop42
 90
       50
102
RTVSPost2010PropOp42
 70
     1
102
RTVSPost2010Prop43
 90
        3
102
RTVSPost2010PropOp43
 70
     1
102
RTVSPost2010Prop44ColorIndex
 90
        5
102
RTVSPost2010Prop44ColorRGB
 90
      255
102
RTVSPost2010PropOp44
 70
     1
102
RTVSPost2010Prop45
280
     0
102
RTVSPost2010PropOp45
 70
     1
102
RTVSPost2010Prop46
 90
       50
102
RTVSPost2010PropOp46
 70
     1
102
RTVSPost2010Prop47
 90
       50
102
RTVSPost2010PropOp47
 70
     1
102
RTVSPost2010Prop48
 90
       50
102
RTVSPost2010PropOp48
 70
     1
102
RTVSPost2010Prop49
280
     0
102
RTVSPost2010PropOp49
 70
     1
102
RTVSPost2010Prop50
 90
       50
102
RTVSPost2010PropOp50
 70
     1
102
RTVSPost2010Prop51ColorIndex
 90
      256
102
RTVSPost2010Prop51ColorRGB
 90
-16777216
102
RTVSPost2010PropOp51
 70
     0
102
RTVSPost2010Prop52
140
1.0
102
RTVSPost2010PropOp52
 70
     0
102
RTVSPost2010Prop53
 90
        2
102
RTVSPost2010PropOp53
 70
     1
102
RTVSPost2010Prop54
  1
strokes_ogs.tif
102
RTVSPost2010PropOp54
 70
     1
102
RTVSPost2010Prop55
280
     0
102
RTVSPost2010PropOp55
 70
     1
102
RTVSPost2010Prop56
140
1.0
102
RTVSPost2010PropOp56
 70
     1
102
RTVSPost2010Prop57
140
1.0
102
RTVSPost2010PropOp57
 70
     1
102
RTVSPropertyOp0
 70
     1
102
RTVSPropertyOp1
 70
     1
102
RTVSPropertyOp2
 70
     1
102
RTVSPropertyOp3
 70
     1
102
RTVSPropertyOp4
 70
     1
102
RTVSPropertyOp5
 70
     1
102
RTVSPropertyOp6
 70
     1
102
RTVSPropertyOp7
 70
     1
102
RTVSPropertyOp8
 70
     1
102
RTVSPropertyOp9
 70
     1
102
RTVSPropertyOp10
 70
     1
102
RTVSPropertyOp11
 70
     1
102
RTVSPropertyOp12
 70
     1
102
RTVSPropertyOp13
 70
     1
102
RTVSPropertyOp14
 70
     1
102
RTVSPropertyOp15
 70
     1
102
RTVSPropertyOp16
 70
     1
102
RTVSPropertyOp17
 70
     1
102
RTVSPropertyOp18
 70
     1
102
RTVSPropertyOp19
 70
     1
102
RTVSPropertyOp20
 70
     1
102
RTVSPropertyOp21
 70
     1
102
RTVSPropertyOp22
 70
     1
102
RTVSPropertyOp23
 70
     1
102
RTVSPropertyOp24
 70
     1
102
RTVSPropertyOp25
 70
     1
102
RTVSPropertyOp26
 70
     1
102
RTVSPropertyOp27
 70
     1
102
RTVSPropertyOp28
 70
     1
102
RTVSPropertyOp29
 70
     1
102
RTVSPropertyOp30
 70
     1
102
RTVSPropertyOp31
 70
     1
102
RTVSPropertyOp32
 70
     1
102
RTVSPropertyOp33
 70
     1
102
RTVSPropertyOp34
 70
     1
102
RTVSPropertyOp35
 70
     1
102
RTVSPropertyOp36
 70
     1
102
RTVSPropertyOp37
 70
     1
102
RTVSPropertyOp38
 70
     1
102
RTVSPropertyOp39
 70
     1
102
RTVSPropertyOp40
 70
     1
102
RTVSPropertyOp41
 70
     1
102
RTVSPropertyOp42
 70
     1
102
RTVSPropertyOp43
 70
     1
102
RTVSPropertyOp44
 70
     1
102
RTVSPropertyOp45
 70
     1
102
RTVSPropertyOp46
 70
     1
102
RTVSPropertyOp47
 70
     1
102
RTVSPropertyOp48
 70
     1
102
RTVSPropertyOp49
 70
     1
102
RTVSPropertyOp50
 70
     1
102
RTVSPropertyOp51
 70
     0
102
RTVSPropertyOp52
 70
     0
102
RTVSPropertyOp53
 70
     1
102
RTVSPropertyOp54
 70
     1
102
RTVSPropertyOp55
 70
     1
102
RTVSPropertyOp56
 70
     1
102
RTVSPropertyOp57
 70
     1
102
RTVSPropertyOp58
 70
     1
102
RTVSPropertyOp59
 70
     1
102
RTVSPropertyOp60
 70
     1
102
RTVSPropertyOp61
 70
     1
102
RTVSPropertyOp62
 70
     1
  0
XRECORD
  5
E1D
102
{ACAD_REACTORS
330
E1C
102
}
330
E1C
100
AcDbXrecord
280
     1
102
RTVSPost2010Prop28
280
     0
102
RTVSPost2010PropOp28
 70
     0
102
RTVSPost2010Prop29
280
     1
102
RTVSPost2010PropOp29
 70
     0
102
RTVSPost2010Prop30
280
     1
102
RTVSPost2010PropOp30
 70
     0
102
RTVSPost2010Prop31
280
     0
102
RTVSPost2010PropOp31
 70
     0
102
RTVSPost2010Prop32
280
     0
102
RTVSPost2010PropOp32
 70
     0
102
RTVSPost2010Prop33
280
     0
102
RTVSPost2010PropOp33
 70
     0
102
RTVSPost2010Prop34
280
     0
102
RTVSPost2010PropOp34
 70
     0
102
RTVSPost2010Prop35
280
     0
102
RTVSPost2010PropOp35
 70
     0
102
RTVSPost2010Prop36
280
     0
102
RTVSPost2010PropOp36
 70
     0
102
RTVSPost2010Prop37
 90
       50
102
RTVSPost2010PropOp37
 70
     0
102
RTVSPost2010Prop38
140
0.0
102
RTVSPost2010PropOp38
 70
     0
102
RTVSPost2010Prop39
140
1.0
102
RTVSPost2010PropOp39
 70
     0
102
RTVSPost2010Prop40
 90
        0
102
RTVSPost2010PropOp40
 70
     0
102
RTVSPost2010Prop41ColorIndex
 90
       18
102
RTVSPost2010Prop41ColorRGB
 90
        0
102
RTVSPost2010PropOp41
 70
     0
102
RTVSPost2010Prop42
 90
       50
102
RTVSPost2010PropOp42
 70
     0
102
RTVSPost2010Prop43
 90
        3
102
RTVSPost2010PropOp43
 70
     0
102
RTVSPost2010Prop44ColorIndex
 90
        5
102
RTVSPost2010Prop44ColorRGB
 90
      255
102
RTVSPost2010PropOp44
 70
     0
102
RTVSPost2010Prop45
280
     0
102
RTVSPost2010PropOp45
 70
     0
102
RTVSPost2010Prop46
 90
       50
102
RTVSPost2010PropOp46
 70
     0
102
RTVSPost2010Prop47
 90
       50
102
RTVSPost2010PropOp47
 70
     0
102
RTVSPost2010Prop48
 90
       50
102
RTVSPost2010PropOp48
 70
     0
102
RTVSPost2010Prop49
280
     0
102
RTVSPost2010PropOp49
 70
     0
102
RTVSPost2010Prop50
 90
       50
102
RTVSPost2010PropOp50
 70
     0
102
RTVSPost2010Prop51ColorIndex
 90
      256
102
RTVSPost2010Prop51ColorRGB
 90
-16777216
102
RTVSPost2010PropOp51
 70
     0
102
RTVSPost2010Prop52
140
1.0
102
RTVSPost2010PropOp52
 70
     0
102
RTVSPost2010Prop53
 90
        2
102
RTVSPost2010PropOp53
 70
     0
102
RTVSPost2010Prop54
  1
strokes_ogs.tif
102
RTVSPost2010PropOp54
 70
     0
102
RTVSPost2010Prop55
280
     0
102
RTVSPost2010PropOp55
 70
     0
102
RTVSPost2010Prop56
140
1.0
102
RTVSPost2010PropOp56
 70
     0
102
RTVSPost2010Prop57
140
1.0
102
RTVSPost2010PropOp57
 70
     0
102
RTVSPropertyOp0
 70
     0
102
RTVSPropertyOp1
 70
     0
102
RTVSPropertyOp2
 70
     0
102
RTVSPropertyOp3
 70
     0
102
RTVSPropertyOp4
 70
     0
102
RTVSPropertyOp5
 70
     0
102
RTVSPropertyOp6
 70
     0
102
RTVSPropertyOp7
 70
     0
102
RTVSPropertyOp8
 70
     0
102
RTVSPropertyOp9
 70
     0
102
RTVSPropertyOp10
 70
     0
102
RTVSPropertyOp11
 70
     0
102
RTVSPropertyOp12
 70
     0
102
RTVSPropertyOp13
 70
     0
102
RTVSPropertyOp14
 70
     2
102
RTVSPropertyOp15
 70
     0
102
RTVSPropertyOp16
 70
     0
102
RTVSPropertyOp17
 70
     0
102
RTVSPropertyOp18
 70
     0
102
RTVSPropertyOp19
 70
     0
102
RTVSPropertyOp20
 70
     0
102
RTVSPropertyOp21
 70
     0
102
RTVSPropertyOp22
 70
     0
102
RTVSPropertyOp23
 70
     0
102
RTVSPropertyOp24
 70
     0
102
RTVSPropertyOp25
 70
     0
102
RTVSPropertyOp26
 70
     0
102
RTVSPropertyOp27
 70
     0
102
RTVSPropertyOp28
 70
     0
102
RTVSPropertyOp29
 70
     0
102
RTVSPropertyOp30
 70
     0
102
RTVSPropertyOp31
 70
     0
102
RTVSPropertyOp32
 70
     0
102
RTVSPropertyOp33
 70
     0
102
RTVSPropertyOp34
 70
     0
102
RTVSPropertyOp35
 70
     0
102
RTVSPropertyOp36
 70
     0
102
RTVSPropertyOp37
 70
     0
102
RTVSPropertyOp38
 70
     0
102
RTVSPropertyOp39
 70
     0
102
RTVSPropertyOp40
 70
     0
102
RTVSPropertyOp41
 70
     0
102
RTVSPropertyOp42
 70
     0
102
RTVSPropertyOp43
 70
     0
102
RTVSPropertyOp44
 70
     0
102
RTVSPropertyOp45
 70
     0
102
RTVSPropertyOp46
 70
     0
102
RTVSPropertyOp47
 70
     0
102
RTVSPropertyOp48
 70
     0
102
RTVSPropertyOp49
 70
     0
102
RTVSPropertyOp50
 70
     0
102
RTVSPropertyOp51
 70
     0
102
RTVSPropertyOp52
 70
     0
102
RTVSPropertyOp53
 70
     0
102
RTVSPropertyOp54
 70
     0
102
RTVSPropertyOp55
 70
     0
102
RTVSPropertyOp56
 70
     0
102
RTVSPropertyOp57
 70
     0
102
RTVSPropertyOp58
 70
     0
102
RTVSPropertyOp59
 70
     0
102
RTVSPropertyOp60
 70
     0
102
RTVSPropertyOp61
 70
     0
102
RTVSPropertyOp62
 70
     0
  0
XRECORD
  5
E03
102
{ACAD_REACTORS
330
E02
102
}
330
E02
100
AcDbXrecord
280
     1
102
RTVSPost2010Prop28
280
     0
102
RTVSPost2010PropOp28
 70
     1
102
RTVSPost2010Prop29
280
     1
102
RTVSPost2010PropOp29
 70
     1
102
RTVSPost2010Prop30
280
     1
102
RTVSPost2010PropOp30
 70
     1
102
RTVSPost2010Prop31
280
     0
102
RTVSPost2010PropOp31
 70
     1
102
RTVSPost2010Prop32
280
     0
102
RTVSPost2010PropOp32
 70
     1
102
RTVSPost2010Prop33
280
     0
102
RTVSPost2010PropOp33
 70
     1
102
RTVSPost2010Prop34
280
     0
102
RTVSPost2010PropOp34
 70
     1
102
RTVSPost2010Prop35
280
     0
102
RTVSPost2010PropOp35
 70
     1
102
RTVSPost2010Prop36
280
     0
102
RTVSPost2010PropOp36
 70
     1
102
RTVSPost2010Prop37
 90
       50
102
RTVSPost2010PropOp37
 70
     1
102
RTVSPost2010Prop38
140
0.0
102
RTVSPost2010PropOp38
 70
     1
102
RTVSPost2010Prop39
140
1.0
102
RTVSPost2010PropOp39
 70
     1
102
RTVSPost2010Prop40
 90
        0
102
RTVSPost2010PropOp40
 70
     1
102
RTVSPost2010Prop41ColorIndex
 90
       18
102
RTVSPost2010Prop41ColorRGB
 90
        0
102
RTVSPost2010PropOp41
 70
     1
102
RTVSPost2010Prop42
 90
       50
102
RTVSPost2010PropOp42
 70
     1
102
RTVSPost2010Prop43
 90
        3
102
RTVSPost2010PropOp43
 70
     1
102
RTVSPost2010Prop44ColorIndex
 90
        5
102
RTVSPost2010Prop44ColorRGB
 90
      255
102
RTVSPost2010PropOp44
 70
     1
102
RTVSPost2010Prop45
280
     0
102
RTVSPost2010PropOp45
 70
     1
102
RTVSPost2010Prop46
 90
       50
102
RTVSPost2010PropOp46
 70
     1
102
RTVSPost2010Prop47
 90
       50
102
RTVSPost2010PropOp47
 70
     1
102
RTVSPost2010Prop48
 90
       50
102
RTVSPost2010PropOp48
 70
     1
102
RTVSPost2010Prop49
280
     0
102
RTVSPost2010PropOp49
 70
     1
102
RTVSPost2010Prop50
 90
       50
102
RTVSPost2010PropOp50
 70
     1
102
RTVSPost2010Prop51ColorIndex
 90
      256
102
RTVSPost2010Prop51ColorRGB
 90
-16777216
102
RTVSPost2010PropOp51
 70
     0
102
RTVSPost2010Prop52
140
1.0
102
RTVSPost2010PropOp52
 70
     0
102
RTVSPost2010Prop53
 90
        2
102
RTVSPost2010PropOp53
 70
     1
102
RTVSPost2010Prop54
  1
strokes_ogs.tif
102
RTVSPost2010PropOp54
 70
     1
102
RTVSPost2010Prop55
280
     0
102
RTVSPost2010PropOp55
 70
     1
102
RTVSPost2010Prop56
140
1.0
102
RTVSPost2010PropOp56
 70
     1
102
RTVSPost2010Prop57
140
1.0
102
RTVSPost2010PropOp57
 70
     1
102
RTVSPropertyOp0
 70
     1
102
RTVSPropertyOp1
 70
     1
102
RTVSPropertyOp2
 70
     1
102
RTVSPropertyOp3
 70
     1
102
RTVSPropertyOp4
 70
     1
102
RTVSPropertyOp5
 70
     1
102
RTVSPropertyOp6
 70
     1
102
RTVSPropertyOp7
 70
     1
102
RTVSPropertyOp8
 70
     1
102
RTVSPropertyOp9
 70
     1
102
RTVSPropertyOp10
 70
     1
102
RTVSPropertyOp11
 70
     1
102
RTVSPropertyOp12
 70
     1
102
RTVSPropertyOp13
 70
     1
102
RTVSPropertyOp14
 70
     1
102
RTVSPropertyOp15
 70
     1
102
RTVSPropertyOp16
 70
     1
102
RTVSPropertyOp17
 70
     1
102
RTVSPropertyOp18
 70
     1
102
RTVSPropertyOp19
 70
     1
102
RTVSPropertyOp20
 70
     1
102
RTVSPropertyOp21
 70
     1
102
RTVSPropertyOp22
 70
     1
102
RTVSPropertyOp23
 70
     1
102
RTVSPropertyOp24
 70
     1
102
RTVSPropertyOp25
 70
     1
102
RTVSPropertyOp26
 70
     1
102
RTVSPropertyOp27
 70
     1
102
RTVSPropertyOp28
 70
     1
102
RTVSPropertyOp29
 70
     1
102
RTVSPropertyOp30
 70
     1
102
RTVSPropertyOp31
 70
     1
102
RTVSPropertyOp32
 70
     1
102
RTVSPropertyOp33
 70
     1
102
RTVSPropertyOp34
 70
     1
102
RTVSPropertyOp35
 70
     1
102
RTVSPropertyOp36
 70
     1
102
RTVSPropertyOp37
 70
     1
102
RTVSPropertyOp38
 70
     1
102
RTVSPropertyOp39
 70
     1
102
RTVSPropertyOp40
 70
     1
102
RTVSPropertyOp41
 70
     1
102
RTVSPropertyOp42
 70
     1
102
RTVSPropertyOp43
 70
     1
102
RTVSPropertyOp44
 70
     1
102
RTVSPropertyOp45
 70
     1
102
RTVSPropertyOp46
 70
     1
102
RTVSPropertyOp47
 70
     1
102
RTVSPropertyOp48
 70
     1
102
RTVSPropertyOp49
 70
     1
102
RTVSPropertyOp50
 70
     1
102
RTVSPropertyOp51
 70
     0
102
RTVSPropertyOp52
 70
     0
102
RTVSPropertyOp53
 70
     1
102
RTVSPropertyOp54
 70
     1
102
RTVSPropertyOp55
 70
     1
102
RTVSPropertyOp56
 70
     1
102
RTVSPropertyOp57
 70
     1
102
RTVSPropertyOp58
 70
     1
102
RTVSPropertyOp59
 70
     1
102
RTVSPropertyOp60
 70
     1
102
RTVSPropertyOp61
 70
     1
102
RTVSPropertyOp62
 70
     1
  0
XRECORD
  5
E19
102
{ACAD_REACTORS
330
E18
102
}
330
E18
100
AcDbXrecord
280
     1
102
RTVSPost2010Prop28
280
     0
102
RTVSPost2010PropOp28
 70
     1
102
RTVSPost2010Prop29
280
     1
102
RTVSPost2010PropOp29
 70
     1
102
RTVSPost2010Prop30
280
     1
102
RTVSPost2010PropOp30
 70
     1
102
RTVSPost2010Prop31
280
     0
102
RTVSPost2010PropOp31
 70
     1
102
RTVSPost2010Prop32
280
     0
102
RTVSPost2010PropOp32
 70
     1
102
RTVSPost2010Prop33
280
     0
102
RTVSPost2010PropOp33
 70
     1
102
RTVSPost2010Prop34
280
     0
102
RTVSPost2010PropOp34
 70
     1
102
RTVSPost2010Prop35
280
     0
102
RTVSPost2010PropOp35
 70
     1
102
RTVSPost2010Prop36
280
     0
102
RTVSPost2010PropOp36
 70
     1
102
RTVSPost2010Prop37
 90
       50
102
RTVSPost2010PropOp37
 70
     1
102
RTVSPost2010Prop38
140
0.0
102
RTVSPost2010PropOp38
 70
     1
102
RTVSPost2010Prop39
140
1.0
102
RTVSPost2010PropOp39
 70
     1
102
RTVSPost2010Prop40
 90
        0
102
RTVSPost2010PropOp40
 70
     1
102
RTVSPost2010Prop41ColorIndex
 90
       18
102
RTVSPost2010Prop41ColorRGB
 90
        0
102
RTVSPost2010PropOp41
 70
     1
102
RTVSPost2010Prop42
 90
       50
102
RTVSPost2010PropOp42
 70
     1
102
RTVSPost2010Prop43
 90
        3
102
RTVSPost2010PropOp43
 70
     1
102
RTVSPost2010Prop44ColorIndex
 90
        5
102
RTVSPost2010Prop44ColorRGB
 90
      255
102
RTVSPost2010PropOp44
 70
     1
102
RTVSPost2010Prop45
280
     0
102
RTVSPost2010PropOp45
 70
     1
102
RTVSPost2010Prop46
 90
       50
102
RTVSPost2010PropOp46
 70
     1
102
RTVSPost2010Prop47
 90
       50
102
RTVSPost2010PropOp47
 70
     1
102
RTVSPost2010Prop48
 90
       50
102
RTVSPost2010PropOp48
 70
     1
102
RTVSPost2010Prop49
280
     0
102
RTVSPost2010PropOp49
 70
     1
102
RTVSPost2010Prop50
 90
       50
102
RTVSPost2010PropOp50
 70
     1
102
RTVSPost2010Prop51ColorIndex
 90
      256
102
RTVSPost2010Prop51ColorRGB
 90
-16777216
102
RTVSPost2010PropOp51
 70
     0
102
RTVSPost2010Prop52
140
1.0
102
RTVSPost2010PropOp52
 70
     0
102
RTVSPost2010Prop53
 90
        2
102
RTVSPost2010PropOp53
 70
     1
102
RTVSPost2010Prop54
  1
strokes_ogs.tif
102
RTVSPost2010PropOp54
 70
     1
102
RTVSPost2010Prop55
280
     0
102
RTVSPost2010PropOp55
 70
     1
102
RTVSPost2010Prop56
140
1.0
102
RTVSPost2010PropOp56
 70
     1
102
RTVSPost2010Prop57
140
1.0
102
RTVSPost2010PropOp57
 70
     1
102
RTVSPropertyOp0
 70
     1
102
RTVSPropertyOp1
 70
     1
102
RTVSPropertyOp2
 70
     1
102
RTVSPropertyOp3
 70
     1
102
RTVSPropertyOp4
 70
     1
102
RTVSPropertyOp5
 70
     1
102
RTVSPropertyOp6
 70
     1
102
RTVSPropertyOp7
 70
     1
102
RTVSPropertyOp8
 70
     1
102
RTVSPropertyOp9
 70
     1
102
RTVSPropertyOp10
 70
     1
102
RTVSPropertyOp11
 70
     1
102
RTVSPropertyOp12
 70
     1
102
RTVSPropertyOp13
 70
     1
102
RTVSPropertyOp14
 70
     1
102
RTVSPropertyOp15
 70
     1
102
RTVSPropertyOp16
 70
     1
102
RTVSPropertyOp17
 70
     1
102
RTVSPropertyOp18
 70
     1
102
RTVSPropertyOp19
 70
     1
102
RTVSPropertyOp20
 70
     1
102
RTVSPropertyOp21
 70
     1
102
RTVSPropertyOp22
 70
     1
102
RTVSPropertyOp23
 70
     1
102
RTVSPropertyOp24
 70
     1
102
RTVSPropertyOp25
 70
     1
102
RTVSPropertyOp26
 70
     1
102
RTVSPropertyOp27
 70
     1
102
RTVSPropertyOp28
 70
     1
102
RTVSPropertyOp29
 70
     1
102
RTVSPropertyOp30
 70
     1
102
RTVSPropertyOp31
 70
     1
102
RTVSPropertyOp32
 70
     1
102
RTVSPropertyOp33
 70
     1
102
RTVSPropertyOp34
 70
     1
102
RTVSPropertyOp35
 70
     1
102
RTVSPropertyOp36
 70
     1
102
RTVSPropertyOp37
 70
     1
102
RTVSPropertyOp38
 70
     1
102
RTVSPropertyOp39
 70
     1
102
RTVSPropertyOp40
 70
     1
102
RTVSPropertyOp41
 70
     1
102
RTVSPropertyOp42
 70
     1
102
RTVSPropertyOp43
 70
     1
102
RTVSPropertyOp44
 70
     1
102
RTVSPropertyOp45
 70
     1
102
RTVSPropertyOp46
 70
     1
102
RTVSPropertyOp47
 70
     1
102
RTVSPropertyOp48
 70
     1
102
RTVSPropertyOp49
 70
     1
102
RTVSPropertyOp50
 70
     1
102
RTVSPropertyOp51
 70
     0
102
RTVSPropertyOp52
 70
     0
102
RTVSPropertyOp53
 70
     1
102
RTVSPropertyOp54
 70
     1
102
RTVSPropertyOp55
 70
     1
102
RTVSPropertyOp56
 70
     1
102
RTVSPropertyOp57
 70
     1
102
RTVSPropertyOp58
 70
     1
102
RTVSPropertyOp59
 70
     1
102
RTVSPropertyOp60
 70
     1
102
RTVSPropertyOp61
 70
     1
102
RTVSPropertyOp62
 70
     1
  0
XRECORD
  5
E17
102
{ACAD_REACTORS
330
E16
102
}
330
E16
100
AcDbXrecord
280
     1
102
RTVSPost2010Prop28
280
     0
102
RTVSPost2010PropOp28
 70
     1
102
RTVSPost2010Prop29
280
     1
102
RTVSPost2010PropOp29
 70
     1
102
RTVSPost2010Prop30
280
     1
102
RTVSPost2010PropOp30
 70
     1
102
RTVSPost2010Prop31
280
     0
102
RTVSPost2010PropOp31
 70
     1
102
RTVSPost2010Prop32
280
     0
102
RTVSPost2010PropOp32
 70
     1
102
RTVSPost2010Prop33
280
     0
102
RTVSPost2010PropOp33
 70
     1
102
RTVSPost2010Prop34
280
     0
102
RTVSPost2010PropOp34
 70
     1
102
RTVSPost2010Prop35
280
     0
102
RTVSPost2010PropOp35
 70
     1
102
RTVSPost2010Prop36
280
     0
102
RTVSPost2010PropOp36
 70
     1
102
RTVSPost2010Prop37
 90
       50
102
RTVSPost2010PropOp37
 70
     1
102
RTVSPost2010Prop38
140
0.0
102
RTVSPost2010PropOp38
 70
     1
102
RTVSPost2010Prop39
140
1.0
102
RTVSPost2010PropOp39
 70
     1
102
RTVSPost2010Prop40
 90
        0
102
RTVSPost2010PropOp40
 70
     1
102
RTVSPost2010Prop41ColorIndex
 90
       18
102
RTVSPost2010Prop41ColorRGB
 90
        0
102
RTVSPost2010PropOp41
 70
     1
102
RTVSPost2010Prop42
 90
       50
102
RTVSPost2010PropOp42
 70
     1
102
RTVSPost2010Prop43
 90
        3
102
RTVSPost2010PropOp43
 70
     1
102
RTVSPost2010Prop44ColorIndex
 90
        5
102
RTVSPost2010Prop44ColorRGB
 90
      255
102
RTVSPost2010PropOp44
 70
     1
102
RTVSPost2010Prop45
280
     0
102
RTVSPost2010PropOp45
 70
     1
102
RTVSPost2010Prop46
 90
       50
102
RTVSPost2010PropOp46
 70
     1
102
RTVSPost2010Prop47
 90
       50
102
RTVSPost2010PropOp47
 70
     1
102
RTVSPost2010Prop48
 90
       50
102
RTVSPost2010PropOp48
 70
     1
102
RTVSPost2010Prop49
280
     0
102
RTVSPost2010PropOp49
 70
     1
102
RTVSPost2010Prop50
 90
       50
102
RTVSPost2010PropOp50
 70
     1
102
RTVSPost2010Prop51ColorIndex
 90
      256
102
RTVSPost2010Prop51ColorRGB
 90
-16777216
102
RTVSPost2010PropOp51
 70
     0
102
RTVSPost2010Prop52
140
1.0
102
RTVSPost2010PropOp52
 70
     0
102
RTVSPost2010Prop53
 90
        2
102
RTVSPost2010PropOp53
 70
     1
102
RTVSPost2010Prop54
  1
strokes_ogs.tif
102
RTVSPost2010PropOp54
 70
     1
102
RTVSPost2010Prop55
280
     0
102
RTVSPost2010PropOp55
 70
     1
102
RTVSPost2010Prop56
140
1.0
102
RTVSPost2010PropOp56
 70
     1
102
RTVSPost2010Prop57
140
1.0
102
RTVSPost2010PropOp57
 70
     1
102
RTVSPropertyOp0
 70
     1
102
RTVSPropertyOp1
 70
     1
102
RTVSPropertyOp2
 70
     1
102
RTVSPropertyOp3
 70
     1
102
RTVSPropertyOp4
 70
     1
102
RTVSPropertyOp5
 70
     1
102
RTVSPropertyOp6
 70
     1
102
RTVSPropertyOp7
 70
     1
102
RTVSPropertyOp8
 70
     1
102
RTVSPropertyOp9
 70
     1
102
RTVSPropertyOp10
 70
     1
102
RTVSPropertyOp11
 70
     1
102
RTVSPropertyOp12
 70
     1
102
RTVSPropertyOp13
 70
     1
102
RTVSPropertyOp14
 70
     1
102
RTVSPropertyOp15
 70
     1
102
RTVSPropertyOp16
 70
     1
102
RTVSPropertyOp17
 70
     1
102
RTVSPropertyOp18
 70
     1
102
RTVSPropertyOp19
 70
     1
102
RTVSPropertyOp20
 70
     1
102
RTVSPropertyOp21
 70
     1
102
RTVSPropertyOp22
 70
     1
102
RTVSPropertyOp23
 70
     1
102
RTVSPropertyOp24
 70
     1
102
RTVSPropertyOp25
 70
     1
102
RTVSPropertyOp26
 70
     1
102
RTVSPropertyOp27
 70
     1
102
RTVSPropertyOp28
 70
     1
102
RTVSPropertyOp29
 70
     1
102
RTVSPropertyOp30
 70
     1
102
RTVSPropertyOp31
 70
     1
102
RTVSPropertyOp32
 70
     1
102
RTVSPropertyOp33
 70
     1
102
RTVSPropertyOp34
 70
     1
102
RTVSPropertyOp35
 70
     1
102
RTVSPropertyOp36
 70
     1
102
RTVSPropertyOp37
 70
     1
102
RTVSPropertyOp38
 70
     1
102
RTVSPropertyOp39
 70
     1
102
RTVSPropertyOp40
 70
     1
102
RTVSPropertyOp41
 70
     1
102
RTVSPropertyOp42
 70
     1
102
RTVSPropertyOp43
 70
     1
102
RTVSPropertyOp44
 70
     1
102
RTVSPropertyOp45
 70
     1
102
RTVSPropertyOp46
 70
     1
102
RTVSPropertyOp47
 70
     1
102
RTVSPropertyOp48
 70
     1
102
RTVSPropertyOp49
 70
     1
102
RTVSPropertyOp50
 70
     1
102
RTVSPropertyOp51
 70
     0
102
RTVSPropertyOp52
 70
     0
102
RTVSPropertyOp53
 70
     1
102
RTVSPropertyOp54
 70
     1
102
RTVSPropertyOp55
 70
     1
102
RTVSPropertyOp56
 70
     1
102
RTVSPropertyOp57
 70
     1
102
RTVSPropertyOp58
 70
     1
102
RTVSPropertyOp59
 70
     1
102
RTVSPropertyOp60
 70
     1
102
RTVSPropertyOp61
 70
     1
102
RTVSPropertyOp62
 70
     1
  0
XRECORD
  5
E11
102
{ACAD_REACTORS
330
E10
102
}
330
E10
100
AcDbXrecord
280
     1
102
RTVSPost2010Prop28
280
     0
102
RTVSPost2010PropOp28
 70
     1
102
RTVSPost2010Prop29
280
     1
102
RTVSPost2010PropOp29
 70
     1
102
RTVSPost2010Prop30
280
     1
102
RTVSPost2010PropOp30
 70
     1
102
RTVSPost2010Prop31
280
     0
102
RTVSPost2010PropOp31
 70
     1
102
RTVSPost2010Prop32
280
     0
102
RTVSPost2010PropOp32
 70
     1
102
RTVSPost2010Prop33
280
     0
102
RTVSPost2010PropOp33
 70
     1
102
RTVSPost2010Prop34
280
     0
102
RTVSPost2010PropOp34
 70
     1
102
RTVSPost2010Prop35
280
     0
102
RTVSPost2010PropOp35
 70
     1
102
RTVSPost2010Prop36
280
     0
102
RTVSPost2010PropOp36
 70
     1
102
RTVSPost2010Prop37
 90
       50
102
RTVSPost2010PropOp37
 70
     1
102
RTVSPost2010Prop38
140
0.0
102
RTVSPost2010PropOp38
 70
     1
102
RTVSPost2010Prop39
140
1.0
102
RTVSPost2010PropOp39
 70
     1
102
RTVSPost2010Prop40
 90
        0
102
RTVSPost2010PropOp40
 70
     1
102
RTVSPost2010Prop41ColorIndex
 90
       18
102
RTVSPost2010Prop41ColorRGB
 90
        0
102
RTVSPost2010PropOp41
 70
     1
102
RTVSPost2010Prop42
 90
       50
102
RTVSPost2010PropOp42
 70
     1
102
RTVSPost2010Prop43
 90
        3
102
RTVSPost2010PropOp43
 70
     1
102
RTVSPost2010Prop44ColorIndex
 90
        5
102
RTVSPost2010Prop44ColorRGB
 90
      255
102
RTVSPost2010PropOp44
 70
     1
102
RTVSPost2010Prop45
280
     0
102
RTVSPost2010PropOp45
 70
     1
102
RTVSPost2010Prop46
 90
       50
102
RTVSPost2010PropOp46
 70
     1
102
RTVSPost2010Prop47
 90
       50
102
RTVSPost2010PropOp47
 70
     1
102
RTVSPost2010Prop48
 90
       50
102
RTVSPost2010PropOp48
 70
     1
102
RTVSPost2010Prop49
280
     0
102
RTVSPost2010PropOp49
 70
     1
102
RTVSPost2010Prop50
 90
       50
102
RTVSPost2010PropOp50
 70
     1
102
RTVSPost2010Prop51ColorIndex
 90
      256
102
RTVSPost2010Prop51ColorRGB
 90
-16777216
102
RTVSPost2010PropOp51
 70
     0
102
RTVSPost2010Prop52
140
1.0
102
RTVSPost2010PropOp52
 70
     0
102
RTVSPost2010Prop53
 90
        2
102
RTVSPost2010PropOp53
 70
     1
102
RTVSPost2010Prop54
  1
strokes_ogs.tif
102
RTVSPost2010PropOp54
 70
     1
102
RTVSPost2010Prop55
280
     0
102
RTVSPost2010PropOp55
 70
     1
102
RTVSPost2010Prop56
140
1.0
102
RTVSPost2010PropOp56
 70
     1
102
RTVSPost2010Prop57
140
1.0
102
RTVSPost2010PropOp57
 70
     1
102
RTVSPropertyOp0
 70
     1
102
RTVSPropertyOp1
 70
     1
102
RTVSPropertyOp2
 70
     1
102
RTVSPropertyOp3
 70
     1
102
RTVSPropertyOp4
 70
     1
102
RTVSPropertyOp5
 70
     1
102
RTVSPropertyOp6
 70
     1
102
RTVSPropertyOp7
 70
     1
102
RTVSPropertyOp8
 70
     1
102
RTVSPropertyOp9
 70
     1
102
RTVSPropertyOp10
 70
     1
102
RTVSPropertyOp11
 70
     1
102
RTVSPropertyOp12
 70
     1
102
RTVSPropertyOp13
 70
     1
102
RTVSPropertyOp14
 70
     1
102
RTVSPropertyOp15
 70
     1
102
RTVSPropertyOp16
 70
     1
102
RTVSPropertyOp17
 70
     1
102
RTVSPropertyOp18
 70
     1
102
RTVSPropertyOp19
 70
     1
102
RTVSPropertyOp20
 70
     1
102
RTVSPropertyOp21
 70
     1
102
RTVSPropertyOp22
 70
     1
102
RTVSPropertyOp23
 70
     1
102
RTVSPropertyOp24
 70
     1
102
RTVSPropertyOp25
 70
     1
102
RTVSPropertyOp26
 70
     1
102
RTVSPropertyOp27
 70
     1
102
RTVSPropertyOp28
 70
     1
102
RTVSPropertyOp29
 70
     1
102
RTVSPropertyOp30
 70
     1
102
RTVSPropertyOp31
 70
     1
102
RTVSPropertyOp32
 70
     1
102
RTVSPropertyOp33
 70
     1
102
RTVSPropertyOp34
 70
     1
102
RTVSPropertyOp35
 70
     1
102
RTVSPropertyOp36
 70
     1
102
RTVSPropertyOp37
 70
     1
102
RTVSPropertyOp38
 70
     1
102
RTVSPropertyOp39
 70
     1
102
RTVSPropertyOp40
 70
     1
102
RTVSPropertyOp41
 70
     1
102
RTVSPropertyOp42
 70
     1
102
RTVSPropertyOp43
 70
     1
102
RTVSPropertyOp44
 70
     1
102
RTVSPropertyOp45
 70
     1
102
RTVSPropertyOp46
 70
     1
102
RTVSPropertyOp47
 70
     1
102
RTVSPropertyOp48
 70
     1
102
RTVSPropertyOp49
 70
     1
102
RTVSPropertyOp50
 70
     1
102
RTVSPropertyOp51
 70
     0
102
RTVSPropertyOp52
 70
     0
102
RTVSPropertyOp53
 70
     1
102
RTVSPropertyOp54
 70
     1
102
RTVSPropertyOp55
 70
     1
102
RTVSPropertyOp56
 70
     1
102
RTVSPropertyOp57
 70
     1
102
RTVSPropertyOp58
 70
     1
102
RTVSPropertyOp59
 70
     1
102
RTVSPropertyOp60
 70
     1
102
RTVSPropertyOp61
 70
     1
102
RTVSPropertyOp62
 70
     1
  0
XRECORD
  5
E13
102
{ACAD_REACTORS
330
E12
102
}
330
E12
100
AcDbXrecord
280
     1
102
RTVSPost2010Prop28
280
     0
102
RTVSPost2010PropOp28
 70
     1
102
RTVSPost2010Prop29
280
     1
102
RTVSPost2010PropOp29
 70
     1
102
RTVSPost2010Prop30
280
     1
102
RTVSPost2010PropOp30
 70
     1
102
RTVSPost2010Prop31
280
     0
102
RTVSPost2010PropOp31
 70
     1
102
RTVSPost2010Prop32
280
     0
102
RTVSPost2010PropOp32
 70
     1
102
RTVSPost2010Prop33
280
     0
102
RTVSPost2010PropOp33
 70
     1
102
RTVSPost2010Prop34
280
     0
102
RTVSPost2010PropOp34
 70
     1
102
RTVSPost2010Prop35
280
     0
102
RTVSPost2010PropOp35
 70
     1
102
RTVSPost2010Prop36
280
     0
102
RTVSPost2010PropOp36
 70
     1
102
RTVSPost2010Prop37
 90
       50
102
RTVSPost2010PropOp37
 70
     1
102
RTVSPost2010Prop38
140
0.0
102
RTVSPost2010PropOp38
 70
     1
102
RTVSPost2010Prop39
140
1.0
102
RTVSPost2010PropOp39
 70
     1
102
RTVSPost2010Prop40
 90
        0
102
RTVSPost2010PropOp40
 70
     1
102
RTVSPost2010Prop41ColorIndex
 90
       18
102
RTVSPost2010Prop41ColorRGB
 90
        0
102
RTVSPost2010PropOp41
 70
     1
102
RTVSPost2010Prop42
 90
       50
102
RTVSPost2010PropOp42
 70
     1
102
RTVSPost2010Prop43
 90
        3
102
RTVSPost2010PropOp43
 70
     1
102
RTVSPost2010Prop44ColorIndex
 90
        5
102
RTVSPost2010Prop44ColorRGB
 90
      255
102
RTVSPost2010PropOp44
 70
     1
102
RTVSPost2010Prop45
280
     0
102
RTVSPost2010PropOp45
 70
     1
102
RTVSPost2010Prop46
 90
       50
102
RTVSPost2010PropOp46
 70
     1
102
RTVSPost2010Prop47
 90
       50
102
RTVSPost2010PropOp47
 70
     1
102
RTVSPost2010Prop48
 90
       50
102
RTVSPost2010PropOp48
 70
     1
102
RTVSPost2010Prop49
280
     0
102
RTVSPost2010PropOp49
 70
     1
102
RTVSPost2010Prop50
 90
       50
102
RTVSPost2010PropOp50
 70
     1
102
RTVSPost2010Prop51ColorIndex
 90
      256
102
RTVSPost2010Prop51ColorRGB
 90
-16777216
102
RTVSPost2010PropOp51
 70
     0
102
RTVSPost2010Prop52
140
1.0
102
RTVSPost2010PropOp52
 70
     0
102
RTVSPost2010Prop53
 90
        2
102
RTVSPost2010PropOp53
 70
     1
102
RTVSPost2010Prop54
  1
strokes_ogs.tif
102
RTVSPost2010PropOp54
 70
     1
102
RTVSPost2010Prop55
280
     0
102
RTVSPost2010PropOp55
 70
     1
102
RTVSPost2010Prop56
140
1.0
102
RTVSPost2010PropOp56
 70
     1
102
RTVSPost2010Prop57
140
1.0
102
RTVSPost2010PropOp57
 70
     1
102
RTVSPropertyOp0
 70
     1
102
RTVSPropertyOp1
 70
     1
102
RTVSPropertyOp2
 70
     1
102
RTVSPropertyOp3
 70
     1
102
RTVSPropertyOp4
 70
     1
102
RTVSPropertyOp5
 70
     1
102
RTVSPropertyOp6
 70
     1
102
RTVSPropertyOp7
 70
     1
102
RTVSPropertyOp8
 70
     1
102
RTVSPropertyOp9
 70
     1
102
RTVSPropertyOp10
 70
     1
102
RTVSPropertyOp11
 70
     1
102
RTVSPropertyOp12
 70
     1
102
RTVSPropertyOp13
 70
     1
102
RTVSPropertyOp14
 70
     1
102
RTVSPropertyOp15
 70
     1
102
RTVSPropertyOp16
 70
     1
102
RTVSPropertyOp17
 70
     1
102
RTVSPropertyOp18
 70
     1
102
RTVSPropertyOp19
 70
     1
102
RTVSPropertyOp20
 70
     1
102
RTVSPropertyOp21
 70
     1
102
RTVSPropertyOp22
 70
     1
102
RTVSPropertyOp23
 70
     1
102
RTVSPropertyOp24
 70
     1
102
RTVSPropertyOp25
 70
     1
102
RTVSPropertyOp26
 70
     1
102
RTVSPropertyOp27
 70
     1
102
RTVSPropertyOp28
 70
     1
102
RTVSPropertyOp29
 70
     1
102
RTVSPropertyOp30
 70
     1
102
RTVSPropertyOp31
 70
     1
102
RTVSPropertyOp32
 70
     1
102
RTVSPropertyOp33
 70
     1
102
RTVSPropertyOp34
 70
     1
102
RTVSPropertyOp35
 70
     1
102
RTVSPropertyOp36
 70
     1
102
RTVSPropertyOp37
 70
     1
102
RTVSPropertyOp38
 70
     1
102
RTVSPropertyOp39
 70
     1
102
RTVSPropertyOp40
 70
     1
102
RTVSPropertyOp41
 70
     1
102
RTVSPropertyOp42
 70
     1
102
RTVSPropertyOp43
 70
     1
102
RTVSPropertyOp44
 70
     1
102
RTVSPropertyOp45
 70
     1
102
RTVSPropertyOp46
 70
     1
102
RTVSPropertyOp47
 70
     1
102
RTVSPropertyOp48
 70
     1
102
RTVSPropertyOp49
 70
     1
102
RTVSPropertyOp50
 70
     1
102
RTVSPropertyOp51
 70
     0
102
RTVSPropertyOp52
 70
     0
102
RTVSPropertyOp53
 70
     1
102
RTVSPropertyOp54
 70
     1
102
RTVSPropertyOp55
 70
     1
102
RTVSPropertyOp56
 70
     1
102
RTVSPropertyOp57
 70
     1
102
RTVSPropertyOp58
 70
     1
102
RTVSPropertyOp59
 70
     1
102
RTVSPropertyOp60
 70
     1
102
RTVSPropertyOp61
 70
     1
102
RTVSPropertyOp62
 70
     1
  0
XRECORD
  5
E09
102
{ACAD_REACTORS
330
E08
102
}
330
E08
100
AcDbXrecord
280
     1
102
RTVSPost2010Prop28
280
     0
102
RTVSPost2010PropOp28
 70
     1
102
RTVSPost2010Prop29
280
     1
102
RTVSPost2010PropOp29
 70
     1
102
RTVSPost2010Prop30
280
     1
102
RTVSPost2010PropOp30
 70
     1
102
RTVSPost2010Prop31
280
     0
102
RTVSPost2010PropOp31
 70
     1
102
RTVSPost2010Prop32
280
     0
102
RTVSPost2010PropOp32
 70
     1
102
RTVSPost2010Prop33
280
     0
102
RTVSPost2010PropOp33
 70
     1
102
RTVSPost2010Prop34
280
     0
102
RTVSPost2010PropOp34
 70
     1
102
RTVSPost2010Prop35
280
     0
102
RTVSPost2010PropOp35
 70
     1
102
RTVSPost2010Prop36
280
     0
102
RTVSPost2010PropOp36
 70
     1
102
RTVSPost2010Prop37
 90
       50
102
RTVSPost2010PropOp37
 70
     1
102
RTVSPost2010Prop38
140
0.0
102
RTVSPost2010PropOp38
 70
     1
102
RTVSPost2010Prop39
140
1.0
102
RTVSPost2010PropOp39
 70
     1
102
RTVSPost2010Prop40
 90
        0
102
RTVSPost2010PropOp40
 70
     1
102
RTVSPost2010Prop41ColorIndex
 90
       18
102
RTVSPost2010Prop41ColorRGB
 90
        0
102
RTVSPost2010PropOp41
 70
     1
102
RTVSPost2010Prop42
 90
       50
102
RTVSPost2010PropOp42
 70
     1
102
RTVSPost2010Prop43
 90
        3
102
RTVSPost2010PropOp43
 70
     1
102
RTVSPost2010Prop44ColorIndex
 90
        5
102
RTVSPost2010Prop44ColorRGB
 90
      255
102
RTVSPost2010PropOp44
 70
     1
102
RTVSPost2010Prop45
280
     0
102
RTVSPost2010PropOp45
 70
     1
102
RTVSPost2010Prop46
 90
       50
102
RTVSPost2010PropOp46
 70
     1
102
RTVSPost2010Prop47
 90
       50
102
RTVSPost2010PropOp47
 70
     1
102
RTVSPost2010Prop48
 90
       50
102
RTVSPost2010PropOp48
 70
     1
102
RTVSPost2010Prop49
280
     0
102
RTVSPost2010PropOp49
 70
     1
102
RTVSPost2010Prop50
 90
       50
102
RTVSPost2010PropOp50
 70
     1
102
RTVSPost2010Prop51ColorIndex
 90
      256
102
RTVSPost2010Prop51ColorRGB
 90
-16777216
102
RTVSPost2010PropOp51
 70
     0
102
RTVSPost2010Prop52
140
1.0
102
RTVSPost2010PropOp52
 70
     0
102
RTVSPost2010Prop53
 90
        2
102
RTVSPost2010PropOp53
 70
     1
102
RTVSPost2010Prop54
  1
strokes_ogs.tif
102
RTVSPost2010PropOp54
 70
     1
102
RTVSPost2010Prop55
280
     0
102
RTVSPost2010PropOp55
 70
     1
102
RTVSPost2010Prop56
140
1.0
102
RTVSPost2010PropOp56
 70
     1
102
RTVSPost2010Prop57
140
1.0
102
RTVSPost2010PropOp57
 70
     1
102
RTVSPropertyOp0
 70
     1
102
RTVSPropertyOp1
 70
     1
102
RTVSPropertyOp2
 70
     1
102
RTVSPropertyOp3
 70
     1
102
RTVSPropertyOp4
 70
     1
102
RTVSPropertyOp5
 70
     1
102
RTVSPropertyOp6
 70
     1
102
RTVSPropertyOp7
 70
     1
102
RTVSPropertyOp8
 70
     1
102
RTVSPropertyOp9
 70
     1
102
RTVSPropertyOp10
 70
     1
102
RTVSPropertyOp11
 70
     1
102
RTVSPropertyOp12
 70
     1
102
RTVSPropertyOp13
 70
     1
102
RTVSPropertyOp14
 70
     1
102
RTVSPropertyOp15
 70
     1
102
RTVSPropertyOp16
 70
     1
102
RTVSPropertyOp17
 70
     1
102
RTVSPropertyOp18
 70
     1
102
RTVSPropertyOp19
 70
     1
102
RTVSPropertyOp20
 70
     1
102
RTVSPropertyOp21
 70
     1
102
RTVSPropertyOp22
 70
     1
102
RTVSPropertyOp23
 70
     1
102
RTVSPropertyOp24
 70
     1
102
RTVSPropertyOp25
 70
     1
102
RTVSPropertyOp26
 70
     1
102
RTVSPropertyOp27
 70
     1
102
RTVSPropertyOp28
 70
     1
102
RTVSPropertyOp29
 70
     1
102
RTVSPropertyOp30
 70
     1
102
RTVSPropertyOp31
 70
     1
102
RTVSPropertyOp32
 70
     1
102
RTVSPropertyOp33
 70
     1
102
RTVSPropertyOp34
 70
     1
102
RTVSPropertyOp35
 70
     1
102
RTVSPropertyOp36
 70
     1
102
RTVSPropertyOp37
 70
     1
102
RTVSPropertyOp38
 70
     1
102
RTVSPropertyOp39
 70
     1
102
RTVSPropertyOp40
 70
     1
102
RTVSPropertyOp41
 70
     1
102
RTVSPropertyOp42
 70
     1
102
RTVSPropertyOp43
 70
     1
102
RTVSPropertyOp44
 70
     1
102
RTVSPropertyOp45
 70
     1
102
RTVSPropertyOp46
 70
     1
102
RTVSPropertyOp47
 70
     1
102
RTVSPropertyOp48
 70
     1
102
RTVSPropertyOp49
 70
     1
102
RTVSPropertyOp50
 70
     1
102
RTVSPropertyOp51
 70
     0
102
RTVSPropertyOp52
 70
     0
102
RTVSPropertyOp53
 70
     1
102
RTVSPropertyOp54
 70
     1
102
RTVSPropertyOp55
 70
     1
102
RTVSPropertyOp56
 70
     1
102
RTVSPropertyOp57
 70
     1
102
RTVSPropertyOp58
 70
     1
102
RTVSPropertyOp59
 70
     1
102
RTVSPropertyOp60
 70
     1
102
RTVSPropertyOp61
 70
     1
102
RTVSPropertyOp62
 70
     1
  0
XRECORD
  5
DFD
102
{ACAD_REACTORS
330
DFC
102
}
330
DFC
100
AcDbXrecord
280
     1
102
RTVSPost2010Prop28
280
     0
102
RTVSPost2010PropOp28
 70
     1
102
RTVSPost2010Prop29
280
     1
102
RTVSPost2010PropOp29
 70
     1
102
RTVSPost2010Prop30
280
     1
102
RTVSPost2010PropOp30
 70
     1
102
RTVSPost2010Prop31
280
     0
102
RTVSPost2010PropOp31
 70
     1
102
RTVSPost2010Prop32
280
     0
102
RTVSPost2010PropOp32
 70
     1
102
RTVSPost2010Prop33
280
     0
102
RTVSPost2010PropOp33
 70
     1
102
RTVSPost2010Prop34
280
     0
102
RTVSPost2010PropOp34
 70
     1
102
RTVSPost2010Prop35
280
     0
102
RTVSPost2010PropOp35
 70
     1
102
RTVSPost2010Prop36
280
     0
102
RTVSPost2010PropOp36
 70
     1
102
RTVSPost2010Prop37
 90
       50
102
RTVSPost2010PropOp37
 70
     1
102
RTVSPost2010Prop38
140
0.0
102
RTVSPost2010PropOp38
 70
     1
102
RTVSPost2010Prop39
140
1.0
102
RTVSPost2010PropOp39
 70
     1
102
RTVSPost2010Prop40
 90
        0
102
RTVSPost2010PropOp40
 70
     1
102
RTVSPost2010Prop41ColorIndex
 90
       18
102
RTVSPost2010Prop41ColorRGB
 90
        0
102
RTVSPost2010PropOp41
 70
     1
102
RTVSPost2010Prop42
 90
       50
102
RTVSPost2010PropOp42
 70
     1
102
RTVSPost2010Prop43
 90
        3
102
RTVSPost2010PropOp43
 70
     1
102
RTVSPost2010Prop44ColorIndex
 90
        5
102
RTVSPost2010Prop44ColorRGB
 90
      255
102
RTVSPost2010PropOp44
 70
     1
102
RTVSPost2010Prop45
280
     0
102
RTVSPost2010PropOp45
 70
     1
102
RTVSPost2010Prop46
 90
       50
102
RTVSPost2010PropOp46
 70
     1
102
RTVSPost2010Prop47
 90
       50
102
RTVSPost2010PropOp47
 70
     1
102
RTVSPost2010Prop48
 90
       50
102
RTVSPost2010PropOp48
 70
     1
102
RTVSPost2010Prop49
280
     0
102
RTVSPost2010PropOp49
 70
     1
102
RTVSPost2010Prop50
 90
       50
102
RTVSPost2010PropOp50
 70
     1
102
RTVSPost2010Prop51ColorIndex
 90
      256
102
RTVSPost2010Prop51ColorRGB
 90
-16777216
102
RTVSPost2010PropOp51
 70
     0
102
RTVSPost2010Prop52
140
1.0
102
RTVSPost2010PropOp52
 70
     0
102
RTVSPost2010Prop53
 90
        2
102
RTVSPost2010PropOp53
 70
     1
102
RTVSPost2010Prop54
  1
strokes_ogs.tif
102
RTVSPost2010PropOp54
 70
     1
102
RTVSPost2010Prop55
280
     0
102
RTVSPost2010PropOp55
 70
     1
102
RTVSPost2010Prop56
140
1.0
102
RTVSPost2010PropOp56
 70
     1
102
RTVSPost2010Prop57
140
1.0
102
RTVSPost2010PropOp57
 70
     1
102
RTVSPropertyOp0
 70
     1
102
RTVSPropertyOp1
 70
     1
102
RTVSPropertyOp2
 70
     1
102
RTVSPropertyOp3
 70
     1
102
RTVSPropertyOp4
 70
     1
102
RTVSPropertyOp5
 70
     1
102
RTVSPropertyOp6
 70
     1
102
RTVSPropertyOp7
 70
     1
102
RTVSPropertyOp8
 70
     1
102
RTVSPropertyOp9
 70
     1
102
RTVSPropertyOp10
 70
     1
102
RTVSPropertyOp11
 70
     1
102
RTVSPropertyOp12
 70
     1
102
RTVSPropertyOp13
 70
     1
102
RTVSPropertyOp14
 70
     1
102
RTVSPropertyOp15
 70
     1
102
RTVSPropertyOp16
 70
     1
102
RTVSPropertyOp17
 70
     1
102
RTVSPropertyOp18
 70
     1
102
RTVSPropertyOp19
 70
     1
102
RTVSPropertyOp20
 70
     1
102
RTVSPropertyOp21
 70
     1
102
RTVSPropertyOp22
 70
     1
102
RTVSPropertyOp23
 70
     1
102
RTVSPropertyOp24
 70
     1
102
RTVSPropertyOp25
 70
     1
102
RTVSPropertyOp26
 70
     1
102
RTVSPropertyOp27
 70
     1
102
RTVSPropertyOp28
 70
     1
102
RTVSPropertyOp29
 70
     1
102
RTVSPropertyOp30
 70
     1
102
RTVSPropertyOp31
 70
     1
102
RTVSPropertyOp32
 70
     1
102
RTVSPropertyOp33
 70
     1
102
RTVSPropertyOp34
 70
     1
102
RTVSPropertyOp35
 70
     1
102
RTVSPropertyOp36
 70
     1
102
RTVSPropertyOp37
 70
     1
102
RTVSPropertyOp38
 70
     1
102
RTVSPropertyOp39
 70
     1
102
RTVSPropertyOp40
 70
     1
102
RTVSPropertyOp41
 70
     1
102
RTVSPropertyOp42
 70
     1
102
RTVSPropertyOp43
 70
     1
102
RTVSPropertyOp44
 70
     1
102
RTVSPropertyOp45
 70
     1
102
RTVSPropertyOp46
 70
     1
102
RTVSPropertyOp47
 70
     1
102
RTVSPropertyOp48
 70
     1
102
RTVSPropertyOp49
 70
     1
102
RTVSPropertyOp50
 70
     1
102
RTVSPropertyOp51
 70
     0
102
RTVSPropertyOp52
 70
     0
102
RTVSPropertyOp53
 70
     1
102
RTVSPropertyOp54
 70
     1
102
RTVSPropertyOp55
 70
     1
102
RTVSPropertyOp56
 70
     1
102
RTVSPropertyOp57
 70
     1
102
RTVSPropertyOp58
 70
     1
102
RTVSPropertyOp59
 70
     1
102
RTVSPropertyOp60
 70
     1
102
RTVSPropertyOp61
 70
     1
102
RTVSPropertyOp62
 70
     1
  0
XRECORD
  5
E15
102
{ACAD_REACTORS
330
E14
102
}
330
E14
100
AcDbXrecord
280
     1
102
RTVSPost2010Prop28
280
     0
102
RTVSPost2010PropOp28
 70
     1
102
RTVSPost2010Prop29
280
     1
102
RTVSPost2010PropOp29
 70
     1
102
RTVSPost2010Prop30
280
     1
102
RTVSPost2010PropOp30
 70
     1
102
RTVSPost2010Prop31
280
     0
102
RTVSPost2010PropOp31
 70
     1
102
RTVSPost2010Prop32
280
     0
102
RTVSPost2010PropOp32
 70
     1
102
RTVSPost2010Prop33
280
     0
102
RTVSPost2010PropOp33
 70
     1
102
RTVSPost2010Prop34
280
     0
102
RTVSPost2010PropOp34
 70
     1
102
RTVSPost2010Prop35
280
     0
102
RTVSPost2010PropOp35
 70
     1
102
RTVSPost2010Prop36
280
     0
102
RTVSPost2010PropOp36
 70
     1
102
RTVSPost2010Prop37
 90
       50
102
RTVSPost2010PropOp37
 70
     1
102
RTVSPost2010Prop38
140
0.0
102
RTVSPost2010PropOp38
 70
     1
102
RTVSPost2010Prop39
140
1.0
102
RTVSPost2010PropOp39
 70
     1
102
RTVSPost2010Prop40
 90
        0
102
RTVSPost2010PropOp40
 70
     1
102
RTVSPost2010Prop41ColorIndex
 90
       18
102
RTVSPost2010Prop41ColorRGB
 90
        0
102
RTVSPost2010PropOp41
 70
     1
102
RTVSPost2010Prop42
 90
       50
102
RTVSPost2010PropOp42
 70
     1
102
RTVSPost2010Prop43
 90
        3
102
RTVSPost2010PropOp43
 70
     1
102
RTVSPost2010Prop44ColorIndex
 90
        5
102
RTVSPost2010Prop44ColorRGB
 90
      255
102
RTVSPost2010PropOp44
 70
     1
102
RTVSPost2010Prop45
280
     0
102
RTVSPost2010PropOp45
 70
     1
102
RTVSPost2010Prop46
 90
       50
102
RTVSPost2010PropOp46
 70
     1
102
RTVSPost2010Prop47
 90
       50
102
RTVSPost2010PropOp47
 70
     1
102
RTVSPost2010Prop48
 90
       50
102
RTVSPost2010PropOp48
 70
     1
102
RTVSPost2010Prop49
280
     0
102
RTVSPost2010PropOp49
 70
     1
102
RTVSPost2010Prop50
 90
       50
102
RTVSPost2010PropOp50
 70
     1
102
RTVSPost2010Prop51ColorIndex
 90
      256
102
RTVSPost2010Prop51ColorRGB
 90
-16777216
102
RTVSPost2010PropOp51
 70
     0
102
RTVSPost2010Prop52
140
1.0
102
RTVSPost2010PropOp52
 70
     0
102
RTVSPost2010Prop53
 90
        2
102
RTVSPost2010PropOp53
 70
     1
102
RTVSPost2010Prop54
  1
strokes_ogs.tif
102
RTVSPost2010PropOp54
 70
     1
102
RTVSPost2010Prop55
280
     0
102
RTVSPost2010PropOp55
 70
     1
102
RTVSPost2010Prop56
140
1.0
102
RTVSPost2010PropOp56
 70
     1
102
RTVSPost2010Prop57
140
1.0
102
RTVSPost2010PropOp57
 70
     1
102
RTVSPropertyOp0
 70
     1
102
RTVSPropertyOp1
 70
     1
102
RTVSPropertyOp2
 70
     1
102
RTVSPropertyOp3
 70
     1
102
RTVSPropertyOp4
 70
     1
102
RTVSPropertyOp5
 70
     1
102
RTVSPropertyOp6
 70
     1
102
RTVSPropertyOp7
 70
     1
102
RTVSPropertyOp8
 70
     1
102
RTVSPropertyOp9
 70
     1
102
RTVSPropertyOp10
 70
     1
102
RTVSPropertyOp11
 70
     1
102
RTVSPropertyOp12
 70
     1
102
RTVSPropertyOp13
 70
     1
102
RTVSPropertyOp14
 70
     1
102
RTVSPropertyOp15
 70
     1
102
RTVSPropertyOp16
 70
     1
102
RTVSPropertyOp17
 70
     1
102
RTVSPropertyOp18
 70
     1
102
RTVSPropertyOp19
 70
     1
102
RTVSPropertyOp20
 70
     1
102
RTVSPropertyOp21
 70
     1
102
RTVSPropertyOp22
 70
     1
102
RTVSPropertyOp23
 70
     1
102
RTVSPropertyOp24
 70
     1
102
RTVSPropertyOp25
 70
     1
102
RTVSPropertyOp26
 70
     1
102
RTVSPropertyOp27
 70
     1
102
RTVSPropertyOp28
 70
     1
102
RTVSPropertyOp29
 70
     1
102
RTVSPropertyOp30
 70
     1
102
RTVSPropertyOp31
 70
     1
102
RTVSPropertyOp32
 70
     1
102
RTVSPropertyOp33
 70
     1
102
RTVSPropertyOp34
 70
     1
102
RTVSPropertyOp35
 70
     1
102
RTVSPropertyOp36
 70
     1
102
RTVSPropertyOp37
 70
     1
102
RTVSPropertyOp38
 70
     1
102
RTVSPropertyOp39
 70
     1
102
RTVSPropertyOp40
 70
     1
102
RTVSPropertyOp41
 70
     1
102
RTVSPropertyOp42
 70
     1
102
RTVSPropertyOp43
 70
     1
102
RTVSPropertyOp44
 70
     1
102
RTVSPropertyOp45
 70
     1
102
RTVSPropertyOp46
 70
     1
102
RTVSPropertyOp47
 70
     1
102
RTVSPropertyOp48
 70
     1
102
RTVSPropertyOp49
 70
     1
102
RTVSPropertyOp50
 70
     1
102
RTVSPropertyOp51
 70
     0
102
RTVSPropertyOp52
 70
     0
102
RTVSPropertyOp53
 70
     1
102
RTVSPropertyOp54
 70
     1
102
RTVSPropertyOp55
 70
     1
102
RTVSPropertyOp56
 70
     1
102
RTVSPropertyOp57
 70
     1
102
RTVSPropertyOp58
 70
     1
102
RTVSPropertyOp59
 70
     1
102
RTVSPropertyOp60
 70
     1
102
RTVSPropertyOp61
 70
     1
102
RTVSPropertyOp62
 70
     1
  0
ENDSEC
  0
EOF
