  0
SECTION
  2
HEADER
  9
$ACADVER
  1
AC1018
  9
$ACADMAINTVER
 70
   104
  9
$DWGCODEPAGE
  3
ANSI_932
  9
$LASTSAVEDBY
  1
0803015
  9
$INSBASE
 10
0.0
 20
0.0
 30
0.0
  9
$EXTMIN
 10
-0.79330428
 20
-0.28885469
 30
-0.00000002
  9
$EXTMAX
 10
13750.99521949
 20
10000.23218891
 30
0.00000001
  9
$LIMMIN
 10
0.0
 20
0.0
  9
$LIMMAX
 10
420.0
 20
330.0
  9
$ORTHOMODE
 70
     1
  9
$REGENMODE
 70
     1
  9
$FILLMODE
 70
     1
  9
$QTEXTMODE
 70
     0
  9
$MIRRTEXT
 70
     0
  9
$LTSCALE
 40
1.0
  9
$ATTMODE
 70
     1
  9
$TEXTSIZE
 40
0.2
  9
$TRACEWID
 40
0.05
  9
$TEXTSTYLE
  7
STANDARD
  9
$CLAYER
  8
0
  9
$CELTYPE
  6
BYLAYER
  9
$CECOLOR
 62
   256
  9
$CELTSCALE
 40
1.0
  9
$DISPSILH
 70
     1
  9
$DIMSCALE
 40
1.0
  9
$DIMASZ
 40
0.18
  9
$DIMEXO
 40
0.0625
  9
$DIMDLI
 40
0.38
  9
$DIMRND
 40
0.0
  9
$DIMDLE
 40
0.0
  9
$DIMEXE
 40
0.18
  9
$DIMTP
 40
0.0
  9
$DIMTM
 40
0.0
  9
$DIMTXT
 40
0.18
  9
$DIMCEN
 40
0.09
  9
$DIMTSZ
 40
0.0
  9
$DIMTOL
 70
     0
  9
$DIMLIM
 70
     0
  9
$DIMTIH
 70
     1
  9
$DIMTOH
 70
     1
  9
$DIMSE1
 70
     0
  9
$DIMSE2
 70
     0
  9
$DIMTAD
 70
     0
  9
$DIMZIN
 70
     0
  9
$DIMBLK
  1

  9
$DIMASO
 70
     1
  9
$DIMSHO
 70
     0
  9
$DIMPOST
  1

  9
$DIMAPOST
  1

  9
$DIMALT
 70
     0
  9
$DIMALTD
 70
     2
  9
$DIMALTF
 40
25.4
  9
$DIMLFAC
 40
1.0
  9
$DIMTOFL
 70
     0
  9
$DIMTVP
 40
0.0
  9
$DIMTIX
 70
     0
  9
$DIMSOXD
 70
     0
  9
$DIMSAH
 70
     0
  9
$DIMBLK1
  1

  9
$DIMBLK2
  1

  9
$DIMSTYLE
  2
STANDARD
  9
$DIMCLRD
 70
     0
  9
$DIMCLRE
 70
     0
  9
$DIMCLRT
 70
     0
  9
$DIMTFAC
 40
1.0
  9
$DIMGAP
 40
0.09
  9
$DIMJUST
 70
     0
  9
$DIMSD1
 70
     0
  9
$DIMSD2
 70
     0
  9
$DIMTOLJ
 70
     1
  9
$DIMTZIN
 70
     0
  9
$DIMALTZ
 70
     0
  9
$DIMALTTZ
 70
     0
  9
$DIMUPT
 70
     0
  9
$DIMDEC
 70
     4
  9
$DIMTDEC
 70
     4
  9
$DIMALTU
 70
     2
  9
$DIMALTTD
 70
     2
  9
$DIMTXSTY
  7
STANDARD
  9
$DIMAUNIT
 70
     0
  9
$DIMADEC
 70
     0
  9
$DIMALTRND
 40
0.0
  9
$DIMAZIN
 70
     0
  9
$DIMDSEP
 70
    46
  9
$DIMATFIT
 70
     3
  9
$DIMFRAC
 70
     0
  9
$DIMLDRBLK
  1

  9
$DIMLUNIT
 70
     2
  9
$DIMLWD
 70
    -2
  9
$DIMLWE
 70
    -2
  9
$DIMTMOVE
 70
     2
  9
$LUNITS
 70
     2
  9
$LUPREC
 70
     4
  9
$SKETCHINC
 40
0.1
  9
$FILLETRAD
 40
1.0
  9
$AUNITS
 70
     0
  9
$AUPREC
 70
     0
  9
$MENU
  1
acad
  9
$ELEVATION
 40
0.0
  9
$PELEVATION
 40
0.0
  9
$THICKNESS
 40
0.0
  9
$LIMCHECK
 70
     0
  9
$CHAMFERA
 40
0.0
  9
$CHAMFERB
 40
0.0
  9
$CHAMFERC
 40
0.0
  9
$CHAMFERD
 40
0.0
  9
$SKPOLY
 70
     0
  9
$TDCREATE
 40
2452970.385810186
  9
$TDUCREATE
 40
2452970.010810185
  9
$TDUPDATE
 40
2459629.495069445
  9
$TDUUPDATE
 40
2459629.120069445
  9
$TDINDWG
 40
0.0360877315
  9
$TDUSRTIMER
 40
0.0360877315
  9
$USRTIMER
 70
     1
  9
$ANGBASE
 50
0.0
  9
$ANGDIR
 70
     0
  9
$PDMODE
 70
     0
  9
$PDSIZE
 40
0.0
  9
$PLINEWID
 40
0.0
  9
$SPLFRAME
 70
     0
  9
$SPLINETYPE
 70
     6
  9
$SPLINESEGS
 70
     8
  9
$HANDSEED
  5
14FD
  9
$SURFTAB1
 70
     6
  9
$SURFTAB2
 70
     6
  9
$SURFTYPE
 70
     6
  9
$SURFU
 70
     6
  9
$SURFV
 70
     6
  9
$UCSBASE
  2

  9
$UCSNAME
  2

  9
$UCSORG
 10
0.0
 20
0.0
 30
0.0
  9
$UCSXDIR
 10
1.0
 20
0.0
 30
0.0
  9
$UCSYDIR
 10
0.0
 20
1.0
 30
0.0
  9
$UCSORTHOREF
  2

  9
$UCSORTHOVIEW
 70
     0
  9
$UCSORGTOP
 10
0.0
 20
0.0
 30
0.0
  9
$UCSORGBOTTOM
 10
0.0
 20
0.0
 30
0.0
  9
$UCSORGLEFT
 10
0.0
 20
0.0
 30
0.0
  9
$UCSORGRIGHT
 10
0.0
 20
0.0
 30
0.0
  9
$UCSORGFRONT
 10
0.0
 20
0.0
 30
0.0
  9
$UCSORGBACK
 10
0.0
 20
0.0
 30
0.0
  9
$PUCSBASE
  2

  9
$PUCSNAME
  2

  9
$PUCSORG
 10
0.0
 20
0.0
 30
0.0
  9
$PUCSXDIR
 10
1.0
 20
0.0
 30
0.0
  9
$PUCSYDIR
 10
0.0
 20
1.0
 30
0.0
  9
$PUCSORTHOREF
  2

  9
$PUCSORTHOVIEW
 70
     0
  9
$PUCSORGTOP
 10
0.0
 20
0.0
 30
0.0
  9
$PUCSORGBOTTOM
 10
0.0
 20
0.0
 30
0.0
  9
$PUCSORGLEFT
 10
0.0
 20
0.0
 30
0.0
  9
$PUCSORGRIGHT
 10
0.0
 20
0.0
 30
0.0
  9
$PUCSORGFRONT
 10
0.0
 20
0.0
 30
0.0
  9
$PUCSORGBACK
 10
0.0
 20
0.0
 30
0.0
  9
$USERI1
 70
     0
  9
$USERI2
 70
     0
  9
$USERI3
 70
     0
  9
$USERI4
 70
     0
  9
$USERI5
 70
     0
  9
$USERR1
 40
0.0
  9
$USERR2
 40
0.0
  9
$USERR3
 40
0.0
  9
$USERR4
 40
0.0
  9
$USERR5
 40
0.0
  9
$WORLDVIEW
 70
     1
  9
$SHADEDGE
 70
     3
  9
$SHADEDIF
 70
    70
  9
$TILEMODE
 70
     1
  9
$MAXACTVP
 70
    16
  9
$PINSBASE
 10
0.0
 20
0.0
 30
0.0
  9
$PLIMCHECK
 70
     0
  9
$PEXTMIN
 10
1.00000000E+20
 20
1.00000000E+20
 30
1.00000000E+20
  9
$PEXTMAX
 10
-1.00000000E+20
 20
-1.00000000E+20
 30
-1.00000000E+20
  9
$PLIMMIN
 10
0.0
 20
0.0
  9
$PLIMMAX
 10
12.0
 20
9.0
  9
$UNITMODE
 70
     0
  9
$VISRETAIN
 70
     0
  9
$PLINEGEN
 70
     0
  9
$PSLTSCALE
 70
     0
  9
$TREEDEPTH
 70
  3020
  9
$CMLSTYLE
  2
STANDARD
  9
$CMLJUST
 70
     0
  9
$CMLSCALE
 40
1.0
  9
$PROXYGRAPHICS
 70
     1
  9
$MEASUREMENT
 70
     1
  9
$CELWEIGHT
370
    -1
  9
$ENDCAPS
280
     0
  9
$JOINSTYLE
280
     0
  9
$LWDISPLAY
290
     0
  9
$INSUNITS
 70
     0
  9
$HYPERLINKBASE
  1

  9
$STYLESHEET
  1

  9
$XEDIT
290
     1
  9
$CEPSNTYPE
380
     0
  9
$PSTYLEMODE
290
     1
  9
$FINGERPRINTGUID
  2
{CAAB3654-21F1-BD49-8A1E-EB116D500C4B}
  9
$VERSIONGUID
  2
{F9D2FBDC-F169-BF4D-954A-B5305237452E}
  9
$EXTNAMES
290
     1
  9
$PSVPSCALE
 40
0.0
  9
$OLESTARTUP
290
     0
  9
$SORTENTS
280
   127
  9
$INDEXCTL
280
     0
  9
$HIDETEXT
280
     0
  9
$XCLIPFRAME
290
     0
  9
$HALOGAP
280
     0
  9
$OBSCOLOR
 70
   257
  9
$OBSLTYPE
280
     0
  9
$INTERSECTIONDISPLAY
280
     0
  9
$INTERSECTIONCOLOR
 70
   257
  9
$DIMASSOC
280
     1
  9
$PROJECTNAME
  1

  0
ENDSEC
  0
SECTION
  2
CLASSES
  0
CLASS
  1
DICTIONARYVAR
  2
AcDbDictionaryVar
  3
ObjectDBX Classes
 90
        0
 91
        7
280
     0
281
     0
  0
CLASS
  1
ACDBDICTIONARYWDFLT
  2
AcDbDictionaryWithDefault
  3
ObjectDBX Classes
 90
        0
 91
        1
280
     1
281
     0
  0
CLASS
  1
MATERIAL
  2
AcDbMaterial
  3
ObjectDBX Classes
 90
     1153
 91
        3
280
     0
281
     0
  0
CLASS
  1
VISUALSTYLE
  2
AcDbVisualStyle
  3
ObjectDBX Classes
 90
     4095
 91
       24
280
     0
281
     0
  0
CLASS
  1
TABLESTYLE
  2
AcDbTableStyle
  3
ObjectDBX Classes
 90
     4095
 91
        1
280
     0
281
     0
  0
CLASS
  1
SCALE
  2
AcDbScale
  3
ObjectDBX Classes
 90
     1153
 91
       17
280
     0
281
     0
  0
CLASS
  1
MLEADERSTYLE
  2
AcDbMLeaderStyle
  3
ACDB_MLEADERSTYLE_CLASS
 90
     4095
 91
        1
280
     0
281
     0
  0
CLASS
  1
ACDBSECTIONVIEWSTYLE
  2
AcDbSectionViewStyle
  3
ObjectDBX Classes
 90
     1025
 91
        2
280
     0
281
     0
  0
CLASS
  1
ACDBDETAILVIEWSTYLE
  2
AcDbDetailViewStyle
  3
ObjectDBX Classes
 90
     1025
 91
        2
280
     0
281
     0
  0
CLASS
  1
RAPIDRTRENDERSETTINGS
  2
AcDbRapidRTRenderSettings
  3
ObjectDBX Classes
 90
     1024
 91
        1
280
     0
281
     0
  0
CLASS
  1
CELLSTYLEMAP
  2
AcDbCellStyleMap
  3
ObjectDBX Classes
 90
     1152
 91
        2
280
     0
281
     0
  0
CLASS
  1
MENTALRAYRENDERSETTINGS
  2
AcDbMentalRayRenderSettings
  3
SCENEOE
 90
     1024
 91
        1
280
     0
281
     0
  0
CLASS
  1
SOLID_BACKGROUND
  2
AcDbSolidBackground
  3
SCENEOE
 90
     4095
 91
        0
280
     0
281
     0
  0
CLASS
  1
NPOCOLLECTION
  2
AcDbImpNonPersistentObjectsCollection
  3
ObjectDBX Classes
 90
     1153
 91
        0
280
     0
281
     0
  0
CLASS
  1
SORTENTSTABLE
  2
AcDbSortentsTable
  3
ObjectDBX Classes
 90
        0
 91
        0
280
     0
281
     0
  0
ENDSEC
  0
SECTION
  2
TABLES
  0
TABLE
  2
VPORT
  5
16
102
{ACAD_XDICTIONARY
360
705
102
}
330
0
100
AcDbSymbolTable
 70
     1
  0
VPORT
  5
45
330
16
100
AcDbSymbolTableRecord
100
AcDbViewportTableRecord
  2
*ACTIVE
 70
     0
 10
0.0
 20
0.0
 11
1.0
 21
1.0
 12
6875.10095761
 22
4999.97166711
 13
0.0
 23
0.0
 14
1.0
 24
1.0
 15
10.0
 25
10.0
 16
0.0
 26
0.0
 36
1.0
 17
0.0
 27
0.0
 37
0.0
 40
10116.13400364
 41
2.57722008
 42
50.0
 43
0.0
 44
0.0
 50
0.0
 51
0.0
 71
     0
 72
   100
 73
     1
 74
     0
 75
     0
 76
     0
 77
     0
 78
     0
281
     0
 65
     1
110
0.0
120
0.0
130
0.0
111
1.0
121
0.0
131
0.0
112
0.0
122
1.0
132
0.0
 79
     0
146
0.0
1001
ACAD_NAV_VCDISPLAY
1070
     1
  0
ENDTAB
  0
TABLE
  2
LTYPE
  5
11
330
0
100
AcDbSymbolTable
 70
     2
  0
LTYPE
  5
12
330
11
100
AcDbSymbolTableRecord
100
AcDbLinetypeTableRecord
  2
BYBLOCK
 70
     0
  3

 72
    65
 73
     0
 40
0.0
  0
LTYPE
  5
13
330
11
100
AcDbSymbolTableRecord
100
AcDbLinetypeTableRecord
  2
BYLAYER
 70
     0
  3

 72
    65
 73
     0
 40
0.0
  0
LTYPE
  5
7
330
11
100
AcDbSymbolTableRecord
100
AcDbLinetypeTableRecord
  2
CONTINUOUS
 70
     0
  3
Solid line
 72
    65
 73
     0
 40
0.0
  0
LTYPE
  5
E32
330
11
100
AcDbSymbolTableRecord
100
AcDbLinetypeTableRecord
  2
YHIDDEN_1
 70
     0
  3
破線尺度1－ － － － － － －
 72
    65
 73
     2
 40
4.0
 49
3.0
 74
     0
 49
-1.0
 74
     0
  0
ENDTAB
  0
TABLE
  2
LAYER
  5
E
102
{ACAD_XDICTIONARY
360
116
102
}
330
0
100
AcDbSymbolTable
 70
    11
  0
LAYER
  5
6
102
{ACAD_XDICTIONARY
360
B2
102
}
330
E
100
AcDbSymbolTableRecord
100
AcDbLayerTableRecord
  2
0
 70
     0
 62
     7
  6
CONTINUOUS
370
    -3
390
48
  0
LAYER
  5
24
102
{ACAD_XDICTIONARY
360
B4
102
}
330
E
100
AcDbSymbolTableRecord
100
AcDbLayerTableRecord
  2
YKK_F1
 70
     0
 62
     7
  6
CONTINUOUS
370
    -3
390
48
  0
LAYER
  5
103
330
E
100
AcDbSymbolTableRecord
100
AcDbLayerTableRecord
  2
YKK_A1
 70
     0
 62
     4
  6
CONTINUOUS
370
    30
390
48
1001
AcAecLayerStandard
1000

1000
姿図
  0
LAYER
  5
104
102
{ACAD_XDICTIONARY
360
105
102
}
330
E
100
AcDbSymbolTableRecord
100
AcDbLayerTableRecord
  2
YKK_B1
 70
     0
 62
     4
  6
CONTINUOUS
370
    -3
390
48
  0
LAYER
  5
106
102
{ACAD_XDICTIONARY
360
107
102
}
330
E
100
AcDbSymbolTableRecord
100
AcDbLayerTableRecord
  2
YKK_C1
 70
     0
 62
     4
  6
CONTINUOUS
370
    -3
390
48
  0
LAYER
  5
108
102
{ACAD_XDICTIONARY
360
109
102
}
330
E
100
AcDbSymbolTableRecord
100
AcDbLayerTableRecord
  2
YKK_N1
 70
     0
 62
     2
  6
CONTINUOUS
370
    -3
390
48
  0
LAYER
  5
10A
102
{ACAD_XDICTIONARY
360
10B
102
}
330
E
100
AcDbSymbolTableRecord
100
AcDbLayerTableRecord
  2
YKK_Z1
 70
     0
 62
     7
  6
CONTINUOUS
370
    -3
390
48
  0
LAYER
  5
10C
102
{ACAD_XDICTIONARY
360
10D
102
}
330
E
100
AcDbSymbolTableRecord
100
AcDbLayerTableRecord
  2
YKK_B2
 70
     0
 62
     5
  6
CONTINUOUS
370
    -3
390
48
  0
LAYER
  5
10E
102
{ACAD_XDICTIONARY
360
10F
102
}
330
E
100
AcDbSymbolTableRecord
100
AcDbLayerTableRecord
  2
YKK_C2
 70
     0
 62
     5
  6
CONTINUOUS
370
    -3
390
48
  0
LAYER
  5
110
330
E
100
AcDbSymbolTableRecord
100
AcDbLayerTableRecord
  2
YKK_B1E
 70
     2
 62
     7
  6
CONTINUOUS
370
    30
390
48
1001
AcAecLayerStandard
1000

1000
姿図
1001
AcCmTransparency
1071
        0
  0
LAYER
  5
111
330
E
100
AcDbSymbolTableRecord
100
AcDbLayerTableRecord
  2
YKK_C1E
 70
     2
 62
     7
  6
CONTINUOUS
370
    30
390
48
1001
AcAecLayerStandard
1000

1000
姿図
1001
AcCmTransparency
1071
        0
  0
ENDTAB
  0
TABLE
  2
STYLE
  5
F
330
0
100
AcDbSymbolTable
 70
     3
  0
STYLE
  5
10
330
F
100
AcDbSymbolTableRecord
100
AcDbTextStyleTableRecord
  2
STANDARD
 70
     0
 40
0.0
 41
1.0
 50
0.0
 71
     0
 42
0.2
  3
txt
  4

  0
STYLE
  5
3C
330
F
100
AcDbSymbolTableRecord
100
AcDbTextStyleTableRecord
  2
EXTFONT
 70
     0
 40
60.0
 41
1.0
 50
0.0
 71
     0
 42
60.0
  3
txt.shx
  4
EXTFONT
  0
STYLE
  5
112
330
F
100
AcDbSymbolTableRecord
100
AcDbTextStyleTableRecord
  2
MX_NOTE_STANDARD
 70
     0
 40
0.0
 41
1.0
 50
0.0
 71
     0
 42
3.0
  3
txt.shx
  4
extfont.shx
  0
ENDTAB
  0
TABLE
  2
VIEW
  5
14
330
0
100
AcDbSymbolTable
 70
     0
  0
ENDTAB
  0
TABLE
  2
UCS
  5
15
330
0
100
AcDbSymbolTable
 70
     0
  0
ENDTAB
  0
TABLE
  2
APPID
  5
18
330
0
100
AcDbSymbolTable
 70
     8
  0
APPID
  5
19
330
18
100
AcDbSymbolTableRecord
100
AcDbRegAppTableRecord
  2
ACAD
 70
     0
  0
APPID
  5
9E
330
18
100
AcDbSymbolTableRecord
100
AcDbRegAppTableRecord
  2
ACAD_NAV_VCDISPLAY
 70
     0
  0
APPID
  5
9F
330
18
100
AcDbSymbolTableRecord
100
AcDbRegAppTableRecord
  2
YKK_AP_LOCKLAYER
 70
     0
  0
APPID
  5
113
330
18
100
AcDbSymbolTableRecord
100
AcDbRegAppTableRecord
  2
AcAecLayerStandard
 70
     0
  0
APPID
  5
114
330
18
100
AcDbSymbolTableRecord
100
AcDbRegAppTableRecord
  2
YOBJCUT10427141548
 70
     0
  0
APPID
  5
115
330
18
100
AcDbSymbolTableRecord
100
AcDbRegAppTableRecord
  2
AcCmTransparency
 70
     0
  0
APPID
  5
6CE
330
18
100
AcDbSymbolTableRecord
100
AcDbRegAppTableRecord
  2
ACAD_EXEMPT_FROM_CAD_STANDARDS
 70
     0
  0
APPID
  5
73B
330
18
100
AcDbSymbolTableRecord
100
AcDbRegAppTableRecord
  2
ACAD_MLEADERVER
 70
     0
  0
ENDTAB
  0
TABLE
  2
DIMSTYLE
  5
1A
330
0
100
AcDbSymbolTable
 70
     1
100
AcDbDimStyleTable
 71
     1
340
20
  0
DIMSTYLE
105
20
330
1A
100
AcDbSymbolTableRecord
100
AcDbDimStyleTableRecord
  2
STANDARD
 70
     0
279
     2
340
10
  0
ENDTAB
  0
TABLE
  2
BLOCK_RECORD
  5
1
330
0
100
AcDbSymbolTable
 70
     0
  0
BLOCK_RECORD
  5
2
102
{ACAD_XDICTIONARY
360
3
102
}
330
1
100
AcDbSymbolTableRecord
100
AcDbBlockTableRecord
  2
*MODEL_SPACE
340
98
  0
BLOCK_RECORD
  5
9
102
{ACAD_XDICTIONARY
360
A
102
}
330
1
100
AcDbSymbolTableRecord
100
AcDbBlockTableRecord
  2
*PAPER_SPACE
340
99
  0
ENDTAB
  0
ENDSEC
  0
SECTION
  2
BLOCKS
  0
BLOCK
  5
5
330
2
100
AcDbEntity
  8
0
100
AcDbBlockBegin
  2
*MODEL_SPACE
 70
     0
 10
0.0
 20
0.0
 30
0.0
  3
*MODEL_SPACE
  1

  0
ENDBLK
  5
8
330
2
100
AcDbEntity
  8
0
100
AcDbBlockEnd
  0
BLOCK
  5
C
330
9
100
AcDbEntity
 67
     1
  8
0
100
AcDbBlockBegin
  2
*PAPER_SPACE
 70
     0
 10
0.0
 20
0.0
 30
0.0
  3
*PAPER_SPACE
  1

  0
ENDBLK
  5
D
330
9
100
AcDbEntity
 67
     1
  8
0
100
AcDbBlockEnd
  0
ENDSEC
  0
SECTION
  2
ENTITIES
  0
LINE
  5
2C
330
2
100
AcDbEntity
  8
YKK_F1
 62
     7
100
AcDbLine
 10
0.0
 20
9300.0
 30
0.0
 11
13500.0
 21
9300.0
 31
0.0
  0
LINE
  5
2D
330
2
100
AcDbEntity
  8
YKK_F1
 62
     7
100
AcDbLine
 10
0.0
 20
9525.0
 30
0.0
 11
13500.0
 21
9525.0
 31
0.0
  0
LINE
  5
32
330
2
100
AcDbEntity
  8
YKK_F1
 62
     7
100
AcDbLine
 10
0.0
 20
9750.0
 30
0.0
 11
13500.0
 21
9750.0
 31
0.0
  0
LINE
  5
33
330
2
100
AcDbEntity
  8
YKK_F1
 62
     7
100
AcDbLine
 10
0.0
 20
0.0
 30
0.0
 11
13750.0
 21
0.0
 31
0.0
  0
LINE
  5
34
330
2
100
AcDbEntity
  8
YKK_F1
 62
     7
100
AcDbLine
 10
0.0
 20
10000.0
 30
0.0
 11
13750.0
 21
10000.0
 31
0.0
  0
LINE
  5
3A
330
2
100
AcDbEntity
  8
YKK_F1
 62
     7
100
AcDbLine
 10
0.0
 20
0.0
 30
0.0
 11
0.0
 21
10000.0
 31
0.0
  0
TEXT
  5
3B
330
2
100
AcDbEntity
  8
0
100
AcDbText
 10
50.0
 20
9368.75
 30
0.0
 40
87.5
  1
新設窓W=1,690 H=2,030
  7
EXTFONT
100
AcDbText
  0
TEXT
  5
3D
330
2
100
AcDbEntity
  8
0
100
AcDbText
 10
50.0
 20
9593.75
 30
0.0
 40
87.5
  1
居室仕様 【既設窓】：引違い窓(半外付型) 例：ニューフレミング 【新設窓】：樹脂窓 引違いテラス戸 クレセント仕様
  7
EXTFONT
100
AcDbText
  0
TEXT
  5
3E
330
2
100
AcDbEntity
  8
0
100
AcDbText
 10
250.0
 20
9812.5
 30
0.0
 40
125.0
  1
ＭＡＤＲＸ０６　かんたんマドリモ　断熱窓　戸建用
  7
EXTFONT
100
AcDbText
  0
LINE
  5
3F
330
2
100
AcDbEntity
  8
YKK_F1
 62
     7
100
AcDbLine
 10
13500.0
 20
0.0
 30
0.0
 11
13500.0
 21
9750.0
 31
0.0
  0
LINE
  5
40
330
2
100
AcDbEntity
  8
YKK_F1
 62
     7
100
AcDbLine
 10
13750.0
 20
0.0
 30
0.0
 11
13750.0
 21
10000.0
 31
0.0
  0
TEXT
  5
7C9
330
2
100
AcDbEntity
  8
0
100
AcDbText
 10
8534.7087729
 20
9812.5
 30
0.0
 40
100.0
  1
※図面を簡略化しております。詳細につきましては、詳細図（納まり図）をご参照ください。
  7
EXTFONT
 72
     2
 11
13485.66115385
 21
9812.5
 31
0.0
100
AcDbText
  0
LINE
  5
114D
330
2
100
AcDbEntity
  8
YKK_C2
100
AcDbLine
 10
8239.50000183
 20
7029.75012021
 30
0.0
 11
8239.50000183
 21
4968.75010421
 31
0.0
  0
LINE
  5
114E
330
2
100
AcDbEntity
  8
YKK_C2
100
AcDbLine
 10
8265.0
 20
7125.75012021
 30
0.0
 11
8265.0
 21
4968.75010421
 31
0.0
  0
LINE
  5
114F
330
2
100
AcDbEntity
  8
YKK_C2
100
AcDbLine
 10
8260.0
 20
7125.75012021
 30
0.0
 11
8265.0
 21
7125.75012021
 31
0.0
  0
LINE
  5
1150
330
2
100
AcDbEntity
  8
YKK_B2
100
AcDbLine
 10
4512.99999999
 20
2893.500045
 30
0.0
 11
6143.00004719
 21
2893.500045
 31
0.0
  0
LINE
  5
1151
330
2
100
AcDbEntity
  8
YKK_B2
100
AcDbLine
 10
4506.99999998
 20
2869.0
 30
0.0
 11
6149.00004719
 21
2869.0
 31
0.0
  0
LINE
  5
1152
330
2
100
AcDbEntity
  8
YKK_Z1
  6
Continuous
 48
1.5
100
AcDbLine
 10
8121.5
 20
7199.98391258
 30
0.0
 11
8103.5
 21
7154.98391258
 31
0.0
  0
LINE
  5
1153
330
2
100
AcDbEntity
  8
YKK_Z1
  6
Continuous
 48
1.5
100
AcDbLine
 10
8103.5
 20
7199.98391258
 30
0.0
 11
8121.5
 21
7199.98391258
 31
0.0
  0
LINE
  5
1154
330
2
100
AcDbEntity
  8
YKK_Z1
  6
Continuous
 48
1.5
100
AcDbLine
 10
8103.5
 20
7154.98391258
 30
0.0
 11
8121.5
 21
7154.98391258
 31
0.0
  0
LINE
  5
1155
330
2
100
AcDbEntity
  8
YKK_Z1
  6
Continuous
 48
1.5
100
AcDbLine
 10
8121.5
 20
7154.98391258
 30
0.0
 11
8121.5
 21
7199.98391258
 31
0.0
  0
LINE
  5
1156
330
2
100
AcDbEntity
  8
YKK_Z1
  6
Continuous
 48
1.5
100
AcDbLine
 10
8103.5
 20
7199.98391258
 30
0.0
 11
8103.5
 21
7154.98391258
 31
0.0
  0
LINE
  5
1157
330
2
100
AcDbEntity
  8
YKK_Z1
  6
Continuous
 48
1.5
100
AcDbLine
 10
8148.5000235
 20
7126.7500987
 30
0.0
 11
8121.5
 21
7126.7500987
 31
0.0
  0
LINE
  5
1158
330
2
100
AcDbEntity
  8
YKK_Z1
  6
Continuous
 48
1.5
100
AcDbLine
 10
8121.5
 20
7126.7500987
 30
0.0
 11
8121.5
 21
7131.7500987
 31
0.0
  0
LINE
  5
1159
330
2
100
AcDbEntity
  8
YKK_Z1
  6
Continuous
 48
1.5
100
AcDbLine
 10
8148.5000235
 20
7131.7500987
 30
0.0
 11
8121.5
 21
7131.7500987
 31
0.0
  0
LINE
  5
115A
330
2
100
AcDbEntity
  8
YKK_Z1
  6
Continuous
 48
1.5
100
AcDbLine
 10
8148.5000235
 20
7126.7500987
 30
0.0
 11
8148.5000235
 21
7131.7500987
 31
0.0
  0
LINE
  5
115B
330
2
100
AcDbEntity
  8
YKK_Z1
  6
Continuous
 48
1.5
100
AcDbLine
 10
8148.5000235
 20
7131.7500987
 30
0.0
 11
8121.5
 21
7126.7500987
 31
0.0
  0
LINE
  5
115C
330
2
100
AcDbEntity
  8
YKK_Z1
  6
Continuous
 48
1.5
100
AcDbLine
 10
8226.5
 20
7131.7501204
 30
0.0
 11
8149.5
 21
7131.7501204
 31
0.0
  0
LINE
  5
115D
330
2
100
AcDbEntity
  8
YKK_Z1
  6
Continuous
 48
1.5
100
AcDbLine
 10
8148.50002771
 20
7131.75012078
 30
0.0
 11
8148.50002771
 21
7115.7500967
 31
0.0
  0
LINE
  5
115E
330
2
100
AcDbEntity
  8
YKK_Z1
  6
Continuous
 48
1.5
100
AcDbLine
 10
8148.50002771
 20
7115.7500967
 30
0.0
 11
8226.5
 21
7115.7500967
 31
0.0
  0
LINE
  5
115F
330
2
100
AcDbEntity
  8
YKK_Z1
  6
Continuous
 48
1.5
100
AcDbLine
 10
8148.50002771
 20
7115.7500967
 30
0.0
 11
8226.5
 21
7131.7501204
 31
0.0
  0
LINE
  5
1160
330
2
100
AcDbEntity
  8
YKK_Z1
  6
YHIDDEN_1
 48
1.5
100
AcDbLine
 10
8240.0
 20
7115.7500967
 30
0.0
 11
8240.0
 21
7219.98391258
 31
0.0
  0
LINE
  5
1161
330
2
100
AcDbEntity
  8
YKK_Z1
  6
Continuous
 48
1.5
100
AcDbLine
 10
8173.99862643
 20
7219.98391258
 30
0.0
 11
8173.99862643
 21
7176.75006426
 31
0.0
  0
LINE
  5
1162
330
2
100
AcDbEntity
  8
YKK_Z1
  6
Continuous
 48
1.5
100
AcDbLine
 10
8121.49862643
 20
7176.75006426
 30
0.0
 11
8121.49862643
 21
7219.74228459
 31
0.0
  0
LINE
  5
1163
330
2
100
AcDbEntity
  8
YKK_Z1
  6
Continuous
 48
1.5
100
AcDbLine
 10
8226.5
 20
7219.98391258
 30
0.0
 11
8226.5
 21
7115.7500967
 31
0.0
  0
LINE
  5
1164
330
2
100
AcDbEntity
  8
YKK_C2
  6
Continuous
 48
1.5
100
AcDbLine
 10
8103.5
 20
7133.28750904
 30
0.0
 11
8091.5
 21
7133.28750904
 31
0.0
  0
LINE
  5
1165
330
2
100
AcDbEntity
  8
YKK_Z1
  6
Continuous
 48
1.5
100
AcDbLine
 10
8091.5
 20
7219.98391258
 30
0.0
 11
8091.5
 21
7133.28750904
 31
0.0
  0
LINE
  5
1166
330
2
100
AcDbEntity
  8
YKK_Z1
  6
Continuous
 48
1.5
100
AcDbLine
 10
8103.5
 20
7219.98391258
 30
0.0
 11
8103.5
 21
7133.28750904
 31
0.0
  0
LINE
  5
1167
330
2
100
AcDbEntity
  8
YKK_Z1
  6
Continuous
 48
1.5
100
AcDbLine
 10
8226.5
 20
7131.7500987
 30
0.0
 11
8226.5
 21
7176.7500987
 31
0.0
  0
LINE
  5
1168
330
2
100
AcDbEntity
  8
YKK_Z1
  6
Continuous
 48
1.5
100
AcDbLine
 10
8226.5
 20
7176.7500987
 30
0.0
 11
8121.5
 21
7176.7500987
 31
0.0
  0
LINE
  5
1169
330
2
100
AcDbEntity
  8
YKK_Z1
  6
Continuous
 48
1.5
100
AcDbLine
 10
8121.5
 20
7176.7500987
 30
0.0
 11
8121.5
 21
7131.7500987
 31
0.0
  0
LINE
  5
116A
330
2
100
AcDbEntity
  8
YKK_Z1
  6
Continuous
 48
1.5
100
AcDbLine
 10
8121.5
 20
7131.7500987
 30
0.0
 11
8226.5
 21
7131.7500987
 31
0.0
  0
LINE
  5
116B
330
2
100
AcDbEntity
  8
YKK_Z1
  6
Continuous
 48
1.5
100
AcDbLine
 10
8121.5
 20
7131.7500987
 30
0.0
 11
8226.5
 21
7176.7500987
 31
0.0
  0
LINE
  5
116C
330
2
100
AcDbEntity
  8
YKK_Z1
  6
Continuous
 48
1.5
100
AcDbLine
 10
8121.5
 20
7130.28750904
 30
0.0
 11
8121.5
 21
7126.75018069
 31
0.0
  0
LINE
  5
116D
330
2
100
AcDbEntity
  8
YKK_Z1
  6
Continuous
 48
1.5
100
AcDbLine
 10
8120.59999656
 20
7133.28750904
 30
0.0
 11
8104.5
 21
7133.28750904
 31
0.0
  0
LINE
  5
116E
330
2
100
AcDbEntity
  8
YKK_C2
  6
Continuous
 48
1.5
100
AcDbLine
 10
8101.5
 20
7133.28750904
 30
0.0
 11
8101.5
 21
7124.16240673
 31
0.0
  0
LINE
  5
116F
330
2
100
AcDbEntity
  8
YKK_C2
  6
Continuous
 48
1.5
100
AcDbLine
 10
8091.5
 20
7133.28750904
 30
0.0
 11
8091.5
 21
7123.28750904
 31
0.0
  0
LINE
  5
1170
330
2
100
AcDbEntity
  8
YKK_C2
  6
Continuous
 48
1.5
100
AcDbLine
 10
8104.5
 20
7133.28750904
 30
0.0
 11
8091.5
 21
7133.28750904
 31
0.0
  0
LINE
  5
1171
330
2
100
AcDbEntity
  8
YKK_C2
  6
Continuous
 48
1.5
100
AcDbLine
 10
8096.44758137
 20
7123.72037179
 30
0.0
 11
8101.5
 21
7128.77279042
 31
0.0
  0
LINE
  5
1172
330
2
100
AcDbEntity
  8
YKK_C2
  6
Continuous
 48
1.5
100
AcDbLine
 10
8091.5
 20
7124.42964467
 30
0.0
 11
8100.35786438
 21
7133.28750904
 31
0.0
  0
LINE
  5
1173
330
2
100
AcDbEntity
  8
YKK_C2
  6
Continuous
 48
1.5
100
AcDbLine
 10
8091.5
 20
7130.08649892
 30
0.0
 11
8094.70101013
 21
7133.28750904
 31
0.0
  0
LINE
  5
1174
330
2
100
AcDbEntity
  8
YKK_Z1
  6
Continuous
 48
1.5
100
AcDbLine
 10
8121.5000597
 20
4919.25013522
 30
0.0
 11
8121.5000597
 21
4924.89693005
 31
0.0
  0
LINE
  5
1175
330
2
100
AcDbEntity
  8
YKK_Z1
  6
Continuous
 48
1.5
100
AcDbLine
 10
8120.60004644
 20
4916.25013522
 30
0.0
 11
8104.5000597
 21
4916.25013522
 31
0.0
  0
LINE
  5
1176
330
2
100
AcDbEntity
  8
YKK_C2
  6
Continuous
 48
1.5
100
AcDbLine
 10
8101.5000597
 20
4916.25013522
 30
0.0
 11
8101.5000597
 21
4929.65013521
 31
0.0
  0
LINE
  5
1177
330
2
100
AcDbEntity
  8
YKK_C2
  6
Continuous
 48
1.5
100
AcDbLine
 10
8091.5000597
 20
4916.25013522
 30
0.0
 11
8091.49626541
 21
4927.80337116
 31
0.0
  0
LINE
  5
1178
330
2
100
AcDbEntity
  8
YKK_C2
  6
Continuous
 48
1.5
100
AcDbLine
 10
8104.5000597
 20
4916.25013522
 30
0.0
 11
8091.5000597
 21
4916.25013522
 31
0.0
  0
LINE
  5
1179
330
2
100
AcDbEntity
  8
YKK_C2
  6
Continuous
 48
1.5
100
AcDbLine
 10
8096.01477833
 20
4916.25013522
 30
0.0
 11
8101.5000597
 21
4921.73541659
 31
0.0
  0
LINE
  5
117A
330
2
100
AcDbEntity
  8
YKK_C2
  6
Continuous
 48
1.5
100
AcDbLine
 10
8091.5000597
 20
4917.39227084
 30
0.0
 11
8101.5000597
 21
4927.39227084
 31
0.0
  0
LINE
  5
117B
330
2
100
AcDbEntity
  8
YKK_C2
  6
Continuous
 48
1.5
100
AcDbLine
 10
8091.5000597
 20
4923.04912509
 30
0.0
 11
8100.5632589
 21
4932.11232429
 31
0.0
  0
LINE
  5
117C
330
2
100
AcDbEntity
  8
YKK_Z1
  6
Continuous
 48
1.5
100
AcDbLine
 10
8091.5000597
 20
4818.75010803
 30
0.0
 11
8091.5000597
 21
4916.25012844
 31
0.0
  0
LINE
  5
117D
330
2
100
AcDbEntity
  8
YKK_Z1
  6
Continuous
 48
1.5
100
AcDbLine
 10
8103.5000597
 20
4818.75010803
 30
0.0
 11
8103.5000597
 21
4916.25013522
 31
0.0
  0
LINE
  5
117E
330
2
100
AcDbEntity
  8
YKK_C2
  6
Continuous
 48
1.5
100
AcDbLine
 10
8103.5000597
 20
4916.25013522
 30
0.0
 11
8091.5000597
 21
4916.25013522
 31
0.0
  0
LINE
  5
117F
330
2
100
AcDbEntity
  8
YKK_Z1
  6
Continuous
 48
1.5
100
AcDbLine
 10
8121.5
 20
4903.24998596
 30
0.0
 11
8103.5000597
 21
4858.25013522
 31
0.0
  0
LINE
  5
1180
330
2
100
AcDbEntity
  8
YKK_Z1
  6
Continuous
 48
1.5
100
AcDbLine
 10
8103.5000597
 20
4903.25013522
 30
0.0
 11
8121.5
 21
4903.25013522
 31
0.0
  0
LINE
  5
1181
330
2
100
AcDbEntity
  8
YKK_Z1
  6
Continuous
 48
1.5
100
AcDbLine
 10
8103.5000597
 20
4858.25013522
 30
0.0
 11
8121.5
 21
4858.25013522
 31
0.0
  0
LINE
  5
1182
330
2
100
AcDbEntity
  8
YKK_Z1
  6
Continuous
 48
1.5
100
AcDbLine
 10
8121.5000597
 20
4858.25013522
 30
0.0
 11
8121.5000597
 21
4903.25013522
 31
0.0
  0
LINE
  5
1183
330
2
100
AcDbEntity
  8
YKK_Z1
  6
Continuous
 48
1.5
100
AcDbLine
 10
8103.5000597
 20
4903.25013522
 30
0.0
 11
8103.5000597
 21
4858.25013522
 31
0.0
  0
LINE
  5
1184
330
2
100
AcDbEntity
  8
YKK_Z1
  6
Continuous
 48
1.5
100
AcDbLine
 10
8241.50003102
 20
4851.25019873
 30
0.0
 11
8241.50003102
 21
4926.25019492
 31
0.0
  0
LINE
  5
1185
330
2
100
AcDbEntity
  8
YKK_Z1
  6
Continuous
 48
1.5
100
AcDbLine
 10
8241.50003102
 20
4926.25019492
 30
0.0
 11
8121.50003484
 21
4926.25019492
 31
0.0
  0
LINE
  5
1186
330
2
100
AcDbEntity
  8
YKK_Z1
  6
Continuous
 48
1.5
100
AcDbLine
 10
8121.50003484
 20
4926.25019492
 30
0.0
 11
8121.50003484
 21
4818.75010803
 31
0.0
  0
LINE
  5
1187
330
2
100
AcDbEntity
  8
YKK_Z1
  6
Continuous
 48
1.5
100
AcDbLine
 10
8133.99994072
 20
4818.75010803
 30
0.0
 11
8241.50003102
 21
4926.25019492
 31
0.0
  0
LINE
  5
1188
330
2
100
AcDbEntity
  8
YKK_Z1
  6
Continuous
 48
1.5
100
AcDbLine
 10
8121.50003484
 20
4926.25019492
 30
0.0
 11
8229.00012515
 21
4818.75010803
 31
0.0
  0
LINE
  5
1189
330
2
100
AcDbEntity
  8
YKK_Z1
  6
Continuous
 48
1.5
100
AcDbLine
 10
8302.49862498
 20
4968.75010421
 30
0.0
 11
8149.498624
 21
4968.75010421
 31
0.0
  0
LINE
  5
118A
330
2
100
AcDbEntity
  8
YKK_Z1
  6
Continuous
 48
1.5
100
AcDbLine
 10
8149.498624
 20
4968.75010421
 30
0.0
 11
8149.498624
 21
4953.75010421
 31
0.0
  0
LINE
  5
118B
330
2
100
AcDbEntity
  8
YKK_Z1
  6
Continuous
 48
1.5
100
AcDbLine
 10
8149.498624
 20
4953.75010421
 30
0.0
 11
8302.49862498
 21
4953.75010421
 31
0.0
  0
LINE
  5
118C
330
2
100
AcDbEntity
  8
YKK_Z1
  6
Continuous
 48
1.5
100
AcDbLine
 10
8241.49999619
 20
4893.75010421
 30
0.0
 11
8241.49999619
 21
4818.75010803
 31
0.0
  0
LINE
  5
118D
330
2
100
AcDbEntity
  8
YKK_Z1
  6
Continuous
 48
1.5
100
AcDbLine
 10
6241.50056282
 20
3009.5
 30
0.0
 11
6229.00056282
 21
3009.5
 31
0.0
  0
LINE
  5
118E
330
2
100
AcDbEntity
  8
YKK_B2
  6
Continuous
 48
1.5
100
AcDbLine
 10
6237.2505285
 20
2982.49998161
 30
0.0
 11
6224.7505285
 21
2982.49998161
 31
0.0
  0
LINE
  5
118F
330
2
100
AcDbEntity
  8
YKK_Z1
  6
Continuous
 48
1.5
100
AcDbLine
 10
6241.50056282
 20
2982.49998161
 30
0.0
 11
6241.50056282
 21
3009.5
 31
0.0
  0
LINE
  5
1190
330
2
100
AcDbEntity
  8
YKK_Z1
  6
Continuous
 48
1.5
100
AcDbLine
 10
6229.00056282
 20
2982.49998161
 30
0.0
 11
6229.00056282
 21
3009.5
 31
0.0
  0
LINE
  5
1191
330
2
100
AcDbEntity
  8
YKK_Z1
  6
Continuous
 48
1.5
100
AcDbLine
 10
6241.50056612
 20
3009.50000016
 30
0.0
 11
6229.00056282
 21
2982.49998161
 31
0.0
  0
LINE
  5
1192
330
2
100
AcDbEntity
  8
YKK_Z1
  6
Continuous
 48
1.5
100
AcDbLine
 10
6241.50054731
 20
2982.49999962
 30
0.0
 11
6231.0010838
 21
2904.50001801
 31
0.0
  0
LINE
  5
1193
330
2
100
AcDbEntity
  8
YKK_Z1
  6
Continuous
 48
1.5
100
AcDbLine
 10
6241.50056282
 20
2904.50001801
 30
0.0
 11
6241.50056282
 21
2982.49999962
 31
0.0
  0
LINE
  5
1194
330
2
100
AcDbEntity
  8
YKK_Z1
  6
Continuous
 48
1.5
100
AcDbLine
 10
6241.50054731
 20
2982.49999962
 30
0.0
 11
6235.0005285
 21
2982.49999962
 31
0.0
  0
LINE
  5
1195
330
2
100
AcDbEntity
  8
YKK_Z1
  6
Continuous
 48
1.5
100
AcDbLine
 10
6231.0005285
 20
2982.49999962
 30
0.0
 11
6231.0005285
 21
2904.50001801
 31
0.0
  0
LINE
  5
1196
330
2
100
AcDbEntity
  8
YKK_Z1
  6
Continuous
 48
1.5
100
AcDbLine
 10
6231.0010838
 20
2904.50001801
 30
0.0
 11
6241.50054731
 21
2904.50001801
 31
0.0
  0
LINE
  5
1197
330
2
100
AcDbEntity
  8
YKK_B2
  6
Continuous
 48
1.5
100
AcDbLine
 10
6236.00054682
 20
3039.5
 30
0.0
 11
6226.00054682
 21
3039.5
 31
0.0
  0
LINE
  5
1198
330
2
100
AcDbEntity
  8
YKK_B2
  6
Continuous
 48
1.5
100
AcDbLine
 10
6236.00054682
 20
3026.5
 30
0.0
 11
6236.00054682
 21
3039.5
 31
0.0
  0
LINE
  5
1199
330
2
100
AcDbEntity
  8
YKK_B2
  6
Continuous
 48
1.5
100
AcDbLine
 10
6230.51525629
 20
3029.5
 30
0.0
 11
6236.00054682
 21
3034.98527527
 31
0.0
  0
LINE
  5
119A
330
2
100
AcDbEntity
  8
YKK_B2
  6
Continuous
 48
1.5
100
AcDbLine
 10
6226.00054682
 20
3030.64213562
 30
0.0
 11
6234.85839594
 21
3039.5
 31
0.0
  0
LINE
  5
119B
330
2
100
AcDbEntity
  8
YKK_B2
  6
Continuous
 48
1.5
100
AcDbLine
 10
6226.00054682
 20
3036.29899597
 30
0.0
 11
6229.2015661
 21
3039.5
 31
0.0
  0
LINE
  5
119C
330
2
100
AcDbEntity
  8
YKK_Z1
  6
Continuous
 48
1.5
100
AcDbLine
 10
6294.00056282
 20
2904.5
 30
0.0
 11
6231.0005285
 21
2904.50001801
 31
0.0
  0
LINE
  5
119D
330
2
100
AcDbEntity
  8
YKK_Z1
  6
Continuous
 48
1.5
100
AcDbLine
 10
6231.0005285
 20
2892.0
 30
0.0
 11
6231.0005285
 21
2904.5
 31
0.0
  0
LINE
  5
119E
330
2
100
AcDbEntity
  8
YKK_Z1
  6
YHIDDEN_1
 48
1.5
100
AcDbLine
 10
6294.00056282
 20
2891.0
 30
0.0
 11
6231.0005285
 21
2891.0
 31
0.0
  0
LINE
  5
119F
330
2
100
AcDbEntity
  8
YKK_Z1
  6
Continuous
 48
1.5
100
AcDbLine
 10
6236.00054682
 20
3014.5
 30
0.0
 11
6236.00054682
 21
3026.5
 31
0.0
  0
LINE
  5
11A0
330
2
100
AcDbEntity
  8
YKK_B2
  6
Continuous
 48
1.5
100
AcDbLine
 10
6236.00054682
 20
3029.5
 30
0.0
 11
6226.00054682
 21
3029.5
 31
0.0
  0
LINE
  5
11A1
330
2
100
AcDbEntity
  8
YKK_Z1
  6
Continuous
 48
1.5
100
AcDbLine
 10
6294.00056282
 20
3009.5
 30
0.0
 11
6241.50056282
 21
3009.5
 31
0.0
  0
LINE
  5
11A2
330
2
100
AcDbEntity
  8
YKK_Z1
  6
Continuous
 48
1.5
100
AcDbLine
 10
6241.50056282
 20
3009.5
 30
0.0
 11
6241.50056282
 21
2904.5
 31
0.0
  0
LINE
  5
11A3
330
2
100
AcDbEntity
  8
YKK_Z1
  6
Continuous
 48
1.5
100
AcDbLine
 10
6241.50056282
 20
2904.5
 30
0.0
 11
6294.00056282
 21
2957.0
 31
0.0
  0
LINE
  5
11A4
330
2
100
AcDbEntity
  8
YKK_Z1
  6
Continuous
 48
1.5
100
AcDbLine
 10
6241.50056282
 20
3009.5
 30
0.0
 11
6294.00056282
 21
2957.0
 31
0.0
  0
LINE
  5
11A5
330
2
100
AcDbEntity
  8
YKK_Z1
  6
Continuous
 48
1.5
100
AcDbLine
 10
6294.00056282
 20
3039.5
 30
0.0
 11
6236.00054682
 21
3039.5
 31
0.0
  0
LINE
  5
11A6
330
2
100
AcDbEntity
  8
YKK_Z1
  6
Continuous
 48
1.5
100
AcDbLine
 10
6294.00056282
 20
3027.5
 30
0.0
 11
6236.00054682
 21
3027.5
 31
0.0
  0
LINE
  5
11A7
330
2
100
AcDbEntity
  8
YKK_B2
  6
Continuous
 48
1.5
100
AcDbLine
 10
6236.00054682
 20
3027.5
 30
0.0
 11
6236.00054682
 21
3039.5
 31
0.0
  0
LINE
  5
11A8
330
2
100
AcDbEntity
  8
YKK_Z1
  6
Continuous
 48
1.5
100
AcDbLine
 10
6264.00054682
 20
3009.50000016
 30
0.0
 11
6294.00056282
 21
3021.50000656
 31
0.0
  0
LINE
  5
11A9
330
2
100
AcDbEntity
  8
YKK_Z1
  6
Continuous
 48
1.5
100
AcDbLine
 10
6264.00054682
 20
3027.50000016
 30
0.0
 11
6264.00054682
 21
3009.50000016
 31
0.0
  0
LINE
  5
11AA
330
2
100
AcDbEntity
  8
YKK_Z1
  6
Continuous
 48
1.5
100
AcDbLine
 10
6294.00056282
 20
3009.50000016
 30
0.0
 11
6264.00054682
 21
3009.50000016
 31
0.0
  0
LINE
  5
11AB
330
2
100
AcDbEntity
  8
YKK_Z1
  6
Continuous
 48
1.5
100
AcDbLine
 10
6264.00054682
 20
3027.50000016
 30
0.0
 11
6294.00056282
 21
3027.50000016
 31
0.0
  0
LINE
  5
11AC
330
2
100
AcDbEntity
  8
YKK_Z1
  6
Continuous
 48
1.5
100
AcDbLine
 10
4414.49994699
 20
3009.5
 30
0.0
 11
4426.99994699
 21
3009.5
 31
0.0
  0
LINE
  5
11AD
330
2
100
AcDbEntity
  8
YKK_Z1
  6
Continuous
 48
1.5
100
AcDbLine
 10
4414.49994699
 20
2982.500045
 30
0.0
 11
4426.99994699
 21
2982.500045
 31
0.0
  0
LINE
  5
11AE
330
2
100
AcDbEntity
  8
YKK_Z1
  6
Continuous
 48
1.5
100
AcDbLine
 10
4414.49994699
 20
2982.500045
 30
0.0
 11
4414.49994699
 21
3009.5
 31
0.0
  0
LINE
  5
11AF
330
2
100
AcDbEntity
  8
YKK_Z1
  6
Continuous
 48
1.5
100
AcDbLine
 10
4426.99994699
 20
2982.500045
 30
0.0
 11
4426.99994699
 21
3009.5
 31
0.0
  0
LINE
  5
11B0
330
2
100
AcDbEntity
  8
YKK_Z1
  6
Continuous
 48
1.5
100
AcDbLine
 10
4414.49994368
 20
3009.50000016
 30
0.0
 11
4426.99994699
 21
2982.500045
 31
0.0
  0
LINE
  5
11B1
330
2
100
AcDbEntity
  8
YKK_Z1
  6
Continuous
 48
1.5
100
AcDbLine
 10
4414.4999625
 20
2982.50006301
 30
0.0
 11
4424.99998299
 21
2904.50001801
 31
0.0
  0
LINE
  5
11B2
330
2
100
AcDbEntity
  8
YKK_Z1
  6
Continuous
 48
1.5
100
AcDbLine
 10
4414.49994699
 20
2904.50001801
 30
0.0
 11
4414.49994699
 21
2982.50006301
 31
0.0
  0
LINE
  5
11B3
330
2
100
AcDbEntity
  8
YKK_Z1
  6
Continuous
 48
1.5
100
AcDbLine
 10
4414.4999625
 20
2982.50006301
 30
0.0
 11
4424.99998299
 21
2982.50006301
 31
0.0
  0
LINE
  5
11B4
330
2
100
AcDbEntity
  8
YKK_Z1
  6
Continuous
 48
1.5
100
AcDbLine
 10
4424.99998299
 20
2982.50006301
 30
0.0
 11
4424.99998299
 21
2904.50001801
 31
0.0
  0
LINE
  5
11B5
330
2
100
AcDbEntity
  8
YKK_B2
  6
Continuous
 48
1.5
100
AcDbLine
 10
4419.99987205
 20
3039.49999495
 30
0.0
 11
4429.99987205
 21
3039.49999495
 31
0.0
  0
LINE
  5
11B6
330
2
100
AcDbEntity
  8
YKK_B2
  6
Continuous
 48
1.5
100
AcDbLine
 10
4419.99987205
 20
3026.49999495
 30
0.0
 11
4419.99987205
 21
3039.49999495
 31
0.0
  0
LINE
  5
11B7
330
2
100
AcDbEntity
  8
YKK_B2
  6
Continuous
 48
1.5
100
AcDbLine
 10
4429.99987205
 20
3034.98527022
 30
0.0
 11
4424.51458152
 21
3029.49999495
 31
0.0
  0
LINE
  5
11B8
330
2
100
AcDbEntity
  8
YKK_B2
  6
Continuous
 48
1.5
100
AcDbLine
 10
4428.85772117
 20
3039.49999495
 30
0.0
 11
4419.99987205
 21
3030.64213057
 31
0.0
  0
LINE
  5
11B9
330
2
100
AcDbEntity
  8
YKK_B2
  6
Continuous
 48
1.5
100
AcDbLine
 10
4423.20089134
 20
3039.49999495
 30
0.0
 11
4419.99987205
 21
3036.29899092
 31
0.0
  0
LINE
  5
11BA
330
2
100
AcDbEntity
  8
YKK_Z1
  6
Continuous
 48
1.5
100
AcDbLine
 10
4361.99994699
 20
2904.5
 30
0.0
 11
4424.99998299
 21
2904.5
 31
0.0
  0
LINE
  5
11BB
330
2
100
AcDbEntity
  8
YKK_Z1
  6
Continuous
 48
1.5
100
AcDbLine
 10
4424.99998299
 20
2892.0
 30
0.0
 11
4424.99998299
 21
2904.5
 31
0.0
  0
LINE
  5
11BC
330
2
100
AcDbEntity
  8
YKK_Z1
  6
YHIDDEN_1
 48
1.5
100
AcDbLine
 10
4361.99994699
 20
2891.0
 30
0.0
 11
4424.99998299
 21
2891.0
 31
0.0
  0
LINE
  5
11BD
330
2
100
AcDbEntity
  8
YKK_Z1
  6
Continuous
 48
1.5
100
AcDbLine
 10
4419.99987205
 20
3014.49999495
 30
0.0
 11
4419.99987205
 21
3026.49999495
 31
0.0
  0
LINE
  5
11BE
330
2
100
AcDbEntity
  8
YKK_B2
  6
Continuous
 48
1.5
100
AcDbLine
 10
4419.99987205
 20
3029.49999495
 30
0.0
 11
4429.99987205
 21
3029.49999495
 31
0.0
  0
LINE
  5
11BF
330
2
100
AcDbEntity
  8
YKK_Z1
  6
Continuous
 48
1.5
100
AcDbLine
 10
4361.99994699
 20
3009.5
 30
0.0
 11
4414.49994699
 21
3009.5
 31
0.0
  0
LINE
  5
11C0
330
2
100
AcDbEntity
  8
YKK_Z1
  6
Continuous
 48
1.5
100
AcDbLine
 10
4414.49994699
 20
3009.5
 30
0.0
 11
4414.49994699
 21
2904.5
 31
0.0
  0
LINE
  5
11C1
330
2
100
AcDbEntity
  8
YKK_Z1
  6
Continuous
 48
1.5
100
AcDbLine
 10
4414.49994699
 20
2904.5
 30
0.0
 11
4361.99994699
 21
2904.5
 31
0.0
  0
LINE
  5
11C2
330
2
100
AcDbEntity
  8
YKK_Z1
  6
Continuous
 48
1.5
100
AcDbLine
 10
4414.49994699
 20
2904.5
 30
0.0
 11
4361.99994699
 21
2957.0
 31
0.0
  0
LINE
  5
11C3
330
2
100
AcDbEntity
  8
YKK_Z1
  6
Continuous
 48
1.5
100
AcDbLine
 10
4414.49994699
 20
3009.5
 30
0.0
 11
4361.99994699
 21
2957.0
 31
0.0
  0
LINE
  5
11C4
330
2
100
AcDbEntity
  8
YKK_Z1
  6
Continuous
 48
1.5
100
AcDbLine
 10
4391.99987205
 20
3009.49999511
 30
0.0
 11
4361.99994699
 21
3021.49996513
 31
0.0
  0
LINE
  5
11C5
330
2
100
AcDbEntity
  8
YKK_Z1
  6
Continuous
 48
1.5
100
AcDbLine
 10
4391.99987205
 20
3027.49999511
 30
0.0
 11
4391.99987205
 21
3009.49999511
 31
0.0
  0
LINE
  5
11C6
330
2
100
AcDbEntity
  8
YKK_Z1
  6
Continuous
 48
1.5
100
AcDbLine
 10
4361.99994699
 20
3009.49999511
 30
0.0
 11
4391.99987205
 21
3009.49999511
 31
0.0
  0
LINE
  5
11C7
330
2
100
AcDbEntity
  8
YKK_Z1
  6
Continuous
 48
1.5
100
AcDbLine
 10
4391.99987205
 20
3027.49999511
 30
0.0
 11
4361.99994699
 21
3027.49999511
 31
0.0
  0
LINE
  5
11C8
330
2
100
AcDbEntity
  8
YKK_Z1
  6
Continuous
 48
1.5
100
AcDbLine
 10
4361.99994699
 20
3039.49999495
 30
0.0
 11
4419.99987205
 21
3039.49999495
 31
0.0
  0
LINE
  5
11C9
330
2
100
AcDbEntity
  8
YKK_Z1
  6
Continuous
 48
1.5
100
AcDbLine
 10
4361.99994699
 20
3027.49999495
 30
0.0
 11
4419.99987205
 21
3027.49999495
 31
0.0
  0
LINE
  5
11CA
330
2
100
AcDbEntity
  8
YKK_B2
  6
Continuous
 48
1.5
100
AcDbLine
 10
4419.99987205
 20
3027.49999495
 30
0.0
 11
4419.99987205
 21
3039.49999495
 31
0.0
  0
LINE
  5
11CB
330
2
100
AcDbEntity
  8
YKK_Z1
  6
Continuous
 48
1.5
100
AcDbLine
 10
8192.20020321
 20
4972.25013521
 30
0.0
 11
8163.50009454
 21
4968.75010421
 31
0.0
  0
LINE
  5
11CC
330
2
100
AcDbEntity
  8
YKK_Z1
  6
Continuous
 48
1.5
100
AcDbLine
 10
8226.50000297
 20
4973.75012021
 30
0.0
 11
8192.20020321
 21
4968.75010421
 31
0.0
  0
LINE
  5
11CD
330
2
100
AcDbEntity
  8
YKK_Z1
  6
Continuous
 48
1.5
100
AcDbLine
 10
4440.99998299
 20
2964.000045
 30
0.0
 11
4466.99999999
 21
2904.500045
 31
0.0
  0
LINE
  5
11CE
330
2
100
AcDbEntity
  8
YKK_Z1
  6
Continuous
 48
1.5
100
AcDbLine
 10
6215.0005455
 20
2964.000045
 30
0.0
 11
6189.0005285
 21
2904.500045
 31
0.0
  0
LINE
  5
11CF
330
2
100
AcDbEntity
  8
YKK_Z1
  6
Continuous
 48
1.5
100
AcDbLine
 10
8226.49910216
 20
7099.7500967
 30
0.0
 11
8148.50002771
 21
7086.75012021
 31
0.0
  0
LINE
  5
11D0
330
2
100
AcDbEntity
  8
YKK_Z1
  6
Continuous
 48
1.5
100
AcDbLine
 10
8241.50009454
 20
4926.25013473
 30
0.0
 11
8241.50009454
 21
4953.75010421
 31
0.0
  0
LINE
  5
11D1
330
2
100
AcDbEntity
  8
YKK_Z1
  6
Continuous
 48
1.5
100
AcDbLine
 10
8148.50078119
 20
4926.25013473
 30
0.0
 11
8148.50009454
 21
4953.75010421
 31
0.0
  0
LINE
  5
11D2
330
2
100
AcDbEntity
  8
YKK_Z1
  6
Continuous
 48
1.5
100
AcDbLine
 10
8148.50009454
 20
4953.75010421
 30
0.0
 11
8241.50009454
 21
4953.75010421
 31
0.0
  0
LINE
  5
11D3
330
2
100
AcDbEntity
  8
YKK_Z1
  6
Continuous
 48
1.5
100
AcDbLine
 10
8241.50215868
 20
4953.75010421
 30
0.0
 11
8148.50078119
 21
4926.25013473
 31
0.0
  0
LINE
  5
11D4
330
2
100
AcDbEntity
  8
YKK_Z1
 48
1.5
100
AcDbLine
 10
8241.50009454
 20
4926.25013473
 30
0.0
 11
8148.50009454
 21
4926.25013473
 31
0.0
  0
LINE
  5
11D5
330
2
100
AcDbEntity
  8
YKK_Z1
  6
Continuous
 48
1.5
100
AcDbLine
 10
8163.50009454
 20
4972.25013521
 30
0.0
 11
8192.20020321
 21
4972.25013521
 31
0.0
  0
LINE
  5
11D6
330
2
100
AcDbEntity
  8
YKK_Z1
  6
Continuous
 48
1.5
100
AcDbLine
 10
8192.20020321
 20
4972.25013521
 30
0.0
 11
8192.20020321
 21
4968.75010421
 31
0.0
  0
LINE
  5
11D7
330
2
100
AcDbEntity
  8
YKK_Z1
  6
Continuous
 48
1.5
100
AcDbLine
 10
8192.20020321
 20
4968.75010421
 30
0.0
 11
8163.50009454
 21
4968.75010421
 31
0.0
  0
LINE
  5
11D8
330
2
100
AcDbEntity
  8
YKK_Z1
  6
Continuous
 48
1.5
100
AcDbLine
 10
8163.50009454
 20
4968.75010421
 30
0.0
 11
8163.50009454
 21
4972.25013521
 31
0.0
  0
LINE
  5
11D9
330
2
100
AcDbEntity
  8
YKK_Z1
  6
Continuous
 48
1.5
100
AcDbLine
 10
8226.50000297
 20
4973.75012021
 30
0.0
 11
8192.20020321
 21
4973.75012021
 31
0.0
  0
LINE
  5
11DA
330
2
100
AcDbEntity
  8
YKK_Z1
  6
Continuous
 48
1.5
100
AcDbLine
 10
8192.20020321
 20
4973.75012021
 30
0.0
 11
8192.20020321
 21
4968.75010421
 31
0.0
  0
LINE
  5
11DB
330
2
100
AcDbEntity
  8
YKK_Z1
  6
Continuous
 48
1.5
100
AcDbLine
 10
8192.20020321
 20
4968.75010421
 30
0.0
 11
8226.50000297
 21
4968.75010421
 31
0.0
  0
LINE
  5
11DC
330
2
100
AcDbEntity
  8
YKK_Z1
  6
Continuous
 48
1.5
100
AcDbLine
 10
8226.50000297
 20
4968.75010421
 30
0.0
 11
8226.50000297
 21
4973.75012021
 31
0.0
  0
LINE
  5
11DD
330
2
100
AcDbEntity
  8
YKK_Z1
  6
Continuous
 48
1.5
100
AcDbLine
 10
4440.99998299
 20
2964.000045
 30
0.0
 11
4466.99999999
 21
2964.000045
 31
0.0
  0
LINE
  5
11DE
330
2
100
AcDbEntity
  8
YKK_Z1
  6
Continuous
 48
1.5
100
AcDbLine
 10
4466.99999999
 20
2964.000045
 30
0.0
 11
4466.99999999
 21
2904.500045
 31
0.0
  0
LINE
  5
11DF
330
2
100
AcDbEntity
  8
YKK_Z1
  6
Continuous
 48
1.5
100
AcDbLine
 10
4466.99999999
 20
2904.500045
 30
0.0
 11
4440.99998299
 21
2904.500045
 31
0.0
  0
LINE
  5
11E0
330
2
100
AcDbEntity
  8
YKK_Z1
  6
Continuous
 48
1.5
100
AcDbLine
 10
4440.99998299
 20
2904.500045
 30
0.0
 11
4440.99998299
 21
2964.000045
 31
0.0
  0
LINE
  5
11E1
330
2
100
AcDbEntity
  8
YKK_Z1
  6
Continuous
 48
1.5
100
AcDbLine
 10
6215.0005455
 20
2964.000045
 30
0.0
 11
6189.0005285
 21
2964.000045
 31
0.0
  0
LINE
  5
11E2
330
2
100
AcDbEntity
  8
YKK_Z1
  6
Continuous
 48
1.5
100
AcDbLine
 10
6189.0005285
 20
2964.000045
 30
0.0
 11
6189.0005285
 21
2904.500045
 31
0.0
  0
LINE
  5
11E3
330
2
100
AcDbEntity
  8
YKK_Z1
  6
Continuous
 48
1.5
100
AcDbLine
 10
6189.0005285
 20
2904.500045
 30
0.0
 11
6215.0005455
 21
2904.500045
 31
0.0
  0
LINE
  5
11E4
330
2
100
AcDbEntity
  8
YKK_Z1
  6
Continuous
 48
1.5
100
AcDbLine
 10
6215.0005455
 20
2904.500045
 30
0.0
 11
6215.0005455
 21
2964.000045
 31
0.0
  0
LINE
  5
11E5
330
2
100
AcDbEntity
  8
YKK_Z1
  6
Continuous
 48
1.5
100
AcDbLine
 10
8148.50002771
 20
7099.7500967
 30
0.0
 11
8226.49910216
 21
7099.7500967
 31
0.0
  0
LINE
  5
11E6
330
2
100
AcDbEntity
  8
YKK_Z1
  6
Continuous
 48
1.5
100
AcDbLine
 10
8226.49910216
 20
7099.7500967
 30
0.0
 11
8226.49910216
 21
7086.75012021
 31
0.0
  0
LINE
  5
11E7
330
2
100
AcDbEntity
  8
YKK_Z1
  6
Continuous
 48
1.5
100
AcDbLine
 10
8226.49910216
 20
7086.75012021
 30
0.0
 11
8148.50002771
 21
7086.75012021
 31
0.0
  0
LINE
  5
11E8
330
2
100
AcDbEntity
  8
YKK_Z1
  6
Continuous
 48
1.5
100
AcDbLine
 10
8148.50002771
 20
7086.75012021
 30
0.0
 11
8148.50002771
 21
7099.7500967
 31
0.0
  0
LINE
  5
11E9
330
2
100
AcDbEntity
  8
YKK_C2
  6
Continuous
100
AcDbLine
 10
8197.50000183
 20
5017.84139122
 30
0.0
 11
8205.90873082
 21
5026.25012021
 31
0.0
  0
LINE
  5
11EA
330
2
100
AcDbEntity
  8
YKK_C2
  6
Continuous
100
AcDbLine
 10
8197.50000183
 20
4999.88087898
 30
0.0
 11
8221.43462245
 21
5023.8154996
 31
0.0
  0
LINE
  5
11EB
330
2
100
AcDbEntity
  8
YKK_C2
  6
Continuous
100
AcDbLine
 10
8212.32975531
 20
4996.75012021
 30
0.0
 11
8230.41487857
 21
5014.83524347
 31
0.0
  0
LINE
  5
11EC
330
2
100
AcDbEntity
  8
YKK_C2
  6
Continuous
100
AcDbLine
 10
8214.79026755
 20
4981.25012021
 30
0.0
 11
8237.50000183
 21
5003.95985449
 31
0.0
  0
LINE
  5
11ED
330
2
100
AcDbEntity
  8
YKK_C2
  6
Continuous
100
AcDbLine
 10
8227.50000183
 20
4975.99934225
 30
0.0
 11
8237.50000183
 21
4985.99934225
 31
0.0
  0
LINE
  5
11EE
330
2
100
AcDbEntity
  8
YKK_C2
100
AcDbLine
 10
8211.50000183
 20
5028.75012021
 30
0.0
 11
8211.50000183
 21
5026.75012021
 31
0.0
  0
ARC
  5
11EF
330
2
100
AcDbEntity
  8
YKK_C2
100
AcDbCircle
 10
8211.00000183
 20
5026.75012021
 30
0.0
 40
0.5
100
AcDbArc
 50
270.0
 51
0.0
  0
LINE
  5
11F0
330
2
100
AcDbEntity
  8
YKK_C2
100
AcDbLine
 10
8211.00000183
 20
5026.25012021
 30
0.0
 11
8199.50000183
 21
5026.25012021
 31
0.0
  0
LINE
  5
11F1
330
2
100
AcDbEntity
  8
YKK_C2
100
AcDbLine
 10
8199.50000183
 20
5026.25012021
 30
0.0
 11
8197.50000183
 21
5024.25012021
 31
0.0
  0
LINE
  5
11F2
330
2
100
AcDbEntity
  8
YKK_C2
100
AcDbLine
 10
8197.50000183
 20
5024.25012021
 30
0.0
 11
8197.50000183
 21
4996.75012021
 31
0.0
  0
LINE
  5
11F3
330
2
100
AcDbEntity
  8
YKK_C2
100
AcDbLine
 10
8197.50000183
 20
4996.75012021
 30
0.0
 11
8212.50000183
 21
4996.75012021
 31
0.0
  0
LINE
  5
11F4
330
2
100
AcDbEntity
  8
YKK_C2
100
AcDbLine
 10
8212.50000183
 20
4996.75012021
 30
0.0
 11
8212.50000183
 21
4981.25012021
 31
0.0
  0
LINE
  5
11F5
330
2
100
AcDbEntity
  8
YKK_C2
100
AcDbLine
 10
8212.50000183
 20
4981.25012021
 30
0.0
 11
8227.50000183
 21
4981.25012021
 31
0.0
  0
LINE
  5
11F6
330
2
100
AcDbEntity
  8
YKK_C2
100
AcDbLine
 10
8227.50000183
 20
4981.25012021
 30
0.0
 11
8227.50000183
 21
4973.75012021
 31
0.0
  0
LINE
  5
11F7
330
2
100
AcDbEntity
  8
YKK_C2
100
AcDbLine
 10
8227.50000183
 20
4973.75012021
 30
0.0
 11
8232.30000145
 21
4973.75012021
 31
0.0
  0
LINE
  5
11F8
330
2
100
AcDbEntity
  8
YKK_C2
100
AcDbLine
 10
8232.30000145
 20
4973.75012021
 30
0.0
 11
8232.30000145
 21
4978.75012021
 31
0.0
  0
LINE
  5
11F9
330
2
100
AcDbEntity
  8
YKK_C2
100
AcDbLine
 10
8232.30000145
 20
4978.75012021
 30
0.0
 11
8235.00000145
 21
4978.75012021
 31
0.0
  0
LINE
  5
11FA
330
2
100
AcDbEntity
  8
YKK_C2
100
AcDbLine
 10
8235.00000145
 20
4978.75012021
 30
0.0
 11
8235.00000145
 21
4973.75012021
 31
0.0
  0
LINE
  5
11FB
330
2
100
AcDbEntity
  8
YKK_C2
100
AcDbLine
 10
8235.00000145
 20
4973.75012021
 30
0.0
 11
8237.50000183
 21
4973.75012021
 31
0.0
  0
LINE
  5
11FC
330
2
100
AcDbEntity
  8
YKK_C2
100
AcDbLine
 10
8237.50000183
 20
4973.75012021
 30
0.0
 11
8237.50000183
 21
5006.50747953
 31
0.0
  0
ARC
  5
11FD
330
2
100
AcDbEntity
  8
YKK_C2
100
AcDbCircle
 10
8234.50000183
 20
5006.50747953
 30
0.0
 40
3.000000000000397
100
AcDbArc
 50
0.0
 51
45.0
  0
LINE
  5
11FE
330
2
100
AcDbEntity
  8
YKK_C2
100
AcDbLine
 10
8236.62132217
 20
5008.62879987
 30
0.0
 11
8217.37868149
 21
5027.87144056
 31
0.0
  0
ARC
  5
11FF
330
2
100
AcDbEntity
  8
YKK_C2
100
AcDbCircle
 10
8215.25736114
 20
5025.75012021
 30
0.0
 40
3.000000000000103
100
AcDbArc
 50
45.0
 51
90.0
  0
LINE
  5
1200
330
2
100
AcDbEntity
  8
YKK_C2
100
AcDbLine
 10
8215.25736114
 20
5028.75012021
 30
0.0
 11
8211.50000183
 21
5028.75012021
 31
0.0
  0
LINE
  5
1201
330
2
100
AcDbEntity
  8
YKK_C1
  6
Continuous
370
    13
100
AcDbLine
 10
8154.26865478
 20
7078.9501202
 30
0.0
 11
8162.06865479
 21
7086.75012021
 31
0.0
  0
LINE
  5
1202
330
2
100
AcDbEntity
  8
YKK_C1
  6
Continuous
370
    13
100
AcDbLine
 10
8159.92550902
 20
7078.9501202
 30
0.0
 11
8167.72550902
 21
7086.7501202
 31
0.0
  0
LINE
  5
1203
330
2
100
AcDbEntity
  8
YKK_C1
  6
Continuous
370
    13
100
AcDbLine
 10
8165.58236327
 20
7078.9501202
 30
0.0
 11
8170.79910215
 21
7084.16685908
 31
0.0
  0
LINE
  5
1204
330
2
100
AcDbEntity
  8
YKK_C1
  6
Continuous
370
    13
100
AcDbLine
 10
8178.60000296
 20
4984.25315058
 30
0.0
 11
8184.09697215
 21
4989.75011977
 31
0.0
  0
LINE
  5
1205
330
2
100
AcDbEntity
  8
YKK_C1
  6
Continuous
370
    13
100
AcDbLine
 10
8179.75382683
 20
4979.7501202
 30
0.0
 11
8189.75382684
 21
4989.75012021
 31
0.0
  0
LINE
  5
1206
330
2
100
AcDbEntity
  8
YKK_C1
  6
Continuous
370
    13
100
AcDbLine
 10
8185.41068108
 20
4979.7501202
 30
0.0
 11
8195.41068065
 21
4989.75011977
 31
0.0
  0
LINE
  5
1207
330
2
100
AcDbEntity
  8
YKK_C1
  6
Continuous
370
    13
100
AcDbLine
 10
8191.06753533
 20
4979.7501202
 30
0.0
 11
8197.20000296
 21
4985.88258783
 31
0.0
  0
LINE
  5
1208
330
2
100
AcDbEntity
  8
YKK_C2
  6
Continuous
100
AcDbLine
 10
8148.50002771
 20
7101.1873921
 30
0.0
 11
8163.06273231
 21
7115.7500967
 31
0.0
  0
LINE
  5
1209
330
2
100
AcDbEntity
  8
YKK_C2
  6
Continuous
100
AcDbLine
 10
8165.02324455
 20
7099.7500967
 30
0.0
 11
8181.02324455
 21
7115.7500967
 31
0.0
  0
LINE
  5
120A
330
2
100
AcDbEntity
  8
YKK_C2
  6
Continuous
100
AcDbLine
 10
8182.9837568
 20
7099.7500967
 30
0.0
 11
8198.9837568
 21
7115.7500967
 31
0.0
  0
LINE
  5
120B
330
2
100
AcDbEntity
  8
YKK_C2
  6
Continuous
100
AcDbLine
 10
8200.94426904
 20
7099.7500967
 30
0.0
 11
8216.94426904
 21
7115.7500967
 31
0.0
  0
LINE
  5
120C
330
2
100
AcDbEntity
  8
YKK_C2
  6
Continuous
100
AcDbLine
 10
8218.90478128
 20
7099.7500967
 30
0.0
 11
8234.90478128
 21
7115.7500967
 31
0.0
  0
LINE
  5
120D
330
2
100
AcDbEntity
  8
YKK_C2
  6
Continuous
100
AcDbLine
 10
8236.86529352
 20
7099.7500967
 30
0.0
 11
8247.50002771
 21
7110.38483089
 31
0.0
  0
LINE
  5
120E
330
2
100
AcDbEntity
  8
YKK_C2
  6
ByBlock
 48
0.5
370
    -2
100
AcDbLine
 10
8148.50002771
 20
7115.7500967
 30
0.0
 11
8247.50002771
 21
7115.7500967
 31
0.0
  0
LINE
  5
120F
330
2
100
AcDbEntity
  8
YKK_C2
  6
ByBlock
 48
0.5
370
    -2
100
AcDbLine
 10
8247.50002771
 20
7115.7500967
 30
0.0
 11
8247.50002771
 21
7101.7500967
 31
0.0
  0
ARC
  5
1210
330
2
100
AcDbEntity
  8
YKK_C2
  6
ByBlock
 48
0.5
370
    -2
100
AcDbCircle
 10
8245.50002739
 20
7101.75009702
 30
0.0
 40
2.000000326795
100
AcDbArc
 50
270.00000936
 51
359.99999064
  0
LINE
  5
1211
330
2
100
AcDbEntity
  8
YKK_C2
  6
ByBlock
 48
0.5
370
    -2
100
AcDbLine
 10
8245.50002771
 20
7099.7500967
 30
0.0
 11
8148.50002771
 21
7099.7500967
 31
0.0
  0
LINE
  5
1212
330
2
100
AcDbEntity
  8
YKK_C2
  6
ByBlock
 48
0.5
370
    -2
100
AcDbLine
 10
8148.50002771
 20
7099.7500967
 30
0.0
 11
8148.50002771
 21
7115.7500967
 31
0.0
  0
LINE
  5
1213
330
2
100
AcDbEntity
  8
YKK_B2
  6
Continuous
100
AcDbLine
 10
4440.91839822
 20
2881.9346401
 30
0.0
 11
4424.99998299
 21
2897.85305532
 31
0.0
  0
LINE
  5
1214
330
2
100
AcDbEntity
  8
YKK_B2
  6
Continuous
100
AcDbLine
 10
4440.99998299
 20
2899.81356757
 30
0.0
 11
4424.99998299
 21
2915.81356757
 31
0.0
  0
LINE
  5
1215
330
2
100
AcDbEntity
  8
YKK_B2
  6
Continuous
100
AcDbLine
 10
4440.99998299
 20
2917.77407981
 30
0.0
 11
4424.99998299
 21
2933.77407981
 31
0.0
  0
LINE
  5
1216
330
2
100
AcDbEntity
  8
YKK_B2
  6
Continuous
100
AcDbLine
 10
4440.99998299
 20
2935.73459205
 30
0.0
 11
4424.99998299
 21
2951.73459205
 31
0.0
  0
LINE
  5
1217
330
2
100
AcDbEntity
  8
YKK_B2
  6
Continuous
100
AcDbLine
 10
4440.99998299
 20
2953.69510429
 30
0.0
 11
4424.99998299
 21
2969.69510429
 31
0.0
  0
LINE
  5
1218
330
2
100
AcDbEntity
  8
YKK_B2
  6
Continuous
100
AcDbLine
 10
4440.99998299
 20
2971.65561653
 30
0.0
 11
4430.15555424
 21
2982.50004528
 31
0.0
  0
LINE
  5
1219
330
2
100
AcDbEntity
  8
YKK_B2
  6
ByBlock
 48
0.5
370
    -2
100
AcDbLine
 10
4424.99998299
 20
2982.50004528
 30
0.0
 11
4424.99998299
 21
2880.50004528
 31
0.0
  0
LINE
  5
121A
330
2
100
AcDbEntity
  8
YKK_B2
  6
ByBlock
 48
0.5
370
    -2
100
AcDbLine
 10
4424.99998299
 20
2880.50004528
 30
0.0
 11
4438.99998299
 21
2880.50004528
 31
0.0
  0
ARC
  5
121B
330
2
100
AcDbEntity
  8
YKK_B2
  6
ByBlock
 48
0.5
370
    -2
100
AcDbCircle
 10
4438.99998266
 20
2882.50004561
 30
0.0
 40
2.000000326795
100
AcDbArc
 50
270.00000936
 51
359.99999064
  0
LINE
  5
121C
330
2
100
AcDbEntity
  8
YKK_B2
  6
ByBlock
 48
0.5
370
    -2
100
AcDbLine
 10
4440.99998299
 20
2882.50004528
 30
0.0
 11
4440.99998299
 21
2982.50004528
 31
0.0
  0
LINE
  5
121D
330
2
100
AcDbEntity
  8
YKK_B2
  6
ByBlock
 48
0.5
370
    -2
100
AcDbLine
 10
4440.99998299
 20
2982.50004528
 30
0.0
 11
4424.99998299
 21
2982.50004528
 31
0.0
  0
LINE
  5
121E
330
2
100
AcDbEntity
  8
YKK_B2
  6
Continuous
100
AcDbLine
 10
6231.0005285
 20
2894.17225108
 30
0.0
 11
6217.32827704
 21
2880.49999962
 31
0.0
  0
LINE
  5
121F
330
2
100
AcDbEntity
  8
YKK_B2
  6
Continuous
100
AcDbLine
 10
6231.0005285
 20
2912.13276332
 30
0.0
 11
6215.0005285
 21
2896.13276332
 31
0.0
  0
LINE
  5
1220
330
2
100
AcDbEntity
  8
YKK_B2
  6
Continuous
100
AcDbLine
 10
6231.0005285
 20
2930.09327556
 30
0.0
 11
6215.0005285
 21
2914.09327556
 31
0.0
  0
LINE
  5
1221
330
2
100
AcDbEntity
  8
YKK_B2
  6
Continuous
100
AcDbLine
 10
6231.0005285
 20
2948.05378781
 30
0.0
 11
6215.0005285
 21
2932.05378781
 31
0.0
  0
LINE
  5
1222
330
2
100
AcDbEntity
  8
YKK_B2
  6
Continuous
100
AcDbLine
 10
6231.0005285
 20
2966.01430005
 30
0.0
 11
6215.0005285
 21
2950.01430005
 31
0.0
  0
LINE
  5
1223
330
2
100
AcDbEntity
  8
YKK_B2
  6
Continuous
100
AcDbLine
 10
6229.52571583
 20
2982.49999962
 30
0.0
 11
6215.0005285
 21
2967.97481229
 31
0.0
  0
LINE
  5
1224
330
2
100
AcDbEntity
  8
YKK_B2
  6
ByBlock
 48
0.5
370
    -2
100
AcDbLine
 10
6231.0005285
 20
2982.49999962
 30
0.0
 11
6231.0005285
 21
2880.49999962
 31
0.0
  0
LINE
  5
1225
330
2
100
AcDbEntity
  8
YKK_B2
  6
ByBlock
 48
0.5
370
    -2
100
AcDbLine
 10
6231.0005285
 20
2880.49999962
 30
0.0
 11
6217.0005285
 21
2880.49999962
 31
0.0
  0
ARC
  5
1226
330
2
100
AcDbEntity
  8
YKK_B2
  6
ByBlock
 48
0.5
370
    -2
100
AcDbCircle
 10
6217.00052882
 20
2882.49999995
 30
0.0
 40
2.000000326795
100
AcDbArc
 50
180.00000936
 51
269.99999064
  0
LINE
  5
1227
330
2
100
AcDbEntity
  8
YKK_B2
  6
ByBlock
 48
0.5
370
    -2
100
AcDbLine
 10
6215.0005285
 20
2882.49999962
 30
0.0
 11
6215.0005285
 21
2982.49999962
 31
0.0
  0
LINE
  5
1228
330
2
100
AcDbEntity
  8
YKK_B2
  6
ByBlock
 48
0.5
370
    -2
100
AcDbLine
 10
6215.0005285
 20
2982.49999962
 30
0.0
 11
6231.0005285
 21
2982.49999962
 31
0.0
  0
LINE
  5
1229
330
2
100
AcDbEntity
  8
YKK_B2
  6
Continuous
100
AcDbLine
 10
4497.89012805
 20
2933.49909506
 30
0.0
 11
4509.99999999
 21
2921.38922312
 31
0.0
  0
LINE
  5
122A
330
2
100
AcDbEntity
  8
YKK_B2
  6
Continuous
100
AcDbLine
 10
4511.89012805
 20
2919.49909506
 30
0.0
 11
4512.99999999
 21
2918.38922312
 31
0.0
  0
LINE
  5
122B
330
2
100
AcDbEntity
  8
YKK_B2
  6
Continuous
100
AcDbLine
 10
4493.39999999
 20
2920.02871088
 30
0.0
 11
4506.92961581
 21
2906.49909506
 31
0.0
  0
LINE
  5
122C
330
2
100
AcDbEntity
  8
YKK_B2
  6
Continuous
100
AcDbLine
 10
4507.39999999
 20
2906.02871088
 30
0.0
 11
4512.99999999
 21
2900.42871088
 31
0.0
  0
LINE
  5
122D
330
2
100
AcDbEntity
  8
YKK_B2
  6
Continuous
100
AcDbLine
 10
4493.39999999
 20
2902.06819864
 30
0.0
 11
4499.69999999
 21
2895.76819864
 31
0.0
  0
LINE
  5
122E
330
2
100
AcDbEntity
  8
YKK_B2
  6
ByBlock
 48
0.5
370
    -2
100
AcDbLine
 10
4493.39999999
 20
2891.49909506
 30
0.0
 11
4493.39999999
 21
2933.49909506
 31
0.0
  0
LINE
  5
122F
330
2
100
AcDbEntity
  8
YKK_B2
  6
ByBlock
 48
0.5
370
    -2
100
AcDbLine
 10
4493.39999999
 20
2933.49909506
 30
0.0
 11
4507.99999999
 21
2933.49909506
 31
0.0
  0
LINE
  5
1230
330
2
100
AcDbEntity
  8
YKK_B2
  6
ByBlock
 48
0.5
370
    -2
100
AcDbLine
 10
4507.99999999
 20
2933.49909506
 30
0.0
 11
4509.99999999
 21
2931.49909506
 31
0.0
  0
LINE
  5
1231
330
2
100
AcDbEntity
  8
YKK_B2
  6
ByBlock
 48
0.5
370
    -2
100
AcDbLine
 10
4509.99999999
 20
2931.49909506
 30
0.0
 11
4509.99999999
 21
2919.49909506
 31
0.0
  0
LINE
  5
1232
330
2
100
AcDbEntity
  8
YKK_B2
  6
ByBlock
 48
0.5
370
    -2
100
AcDbLine
 10
4509.99999999
 20
2919.49909506
 30
0.0
 11
4512.99999999
 21
2919.49909506
 31
0.0
  0
LINE
  5
1233
330
2
100
AcDbEntity
  8
YKK_B2
  6
ByBlock
 48
0.5
370
    -2
100
AcDbLine
 10
4512.99999999
 20
2919.49909506
 30
0.0
 11
4512.99999999
 21
2891.49909506
 31
0.0
  0
LINE
  5
1234
330
2
100
AcDbEntity
  8
YKK_B2
  6
ByBlock
 48
0.5
370
    -2
100
AcDbLine
 10
4512.99999999
 20
2891.49909506
 30
0.0
 11
4507.39999999
 21
2891.49909506
 31
0.0
  0
LINE
  5
1235
330
2
100
AcDbEntity
  8
YKK_B2
  6
ByBlock
 48
0.5
370
    -2
100
AcDbLine
 10
4507.39999999
 20
2891.49909506
 30
0.0
 11
4507.39999999
 21
2906.49909506
 31
0.0
  0
LINE
  5
1236
330
2
100
AcDbEntity
  8
YKK_B2
  6
ByBlock
 48
0.5
370
    -2
100
AcDbLine
 10
4507.39999999
 20
2906.49909506
 30
0.0
 11
4499.69999999
 21
2906.49909506
 31
0.0
  0
LINE
  5
1237
330
2
100
AcDbEntity
  8
YKK_B2
  6
ByBlock
 48
0.5
370
    -2
100
AcDbLine
 10
4499.69999999
 20
2906.49909506
 30
0.0
 11
4499.69999999
 21
2891.49909506
 31
0.0
  0
LINE
  5
1238
330
2
100
AcDbEntity
  8
YKK_B2
  6
ByBlock
 48
0.5
370
    -2
100
AcDbLine
 10
4499.69999999
 20
2891.49909506
 30
0.0
 11
4493.39999999
 21
2891.49909506
 31
0.0
  0
LINE
  5
1239
330
2
100
AcDbEntity
  8
YKK_B2
  6
Continuous
100
AcDbLine
 10
6143.00004719
 20
2918.24965616
 30
0.0
 11
6144.25043603
 21
2919.500045
 31
0.0
  0
LINE
  5
123A
330
2
100
AcDbEntity
  8
YKK_B2
  6
Continuous
100
AcDbLine
 10
6146.00004719
 20
2921.24965616
 30
0.0
 11
6158.25043603
 21
2933.500045
 31
0.0
  0
LINE
  5
123B
330
2
100
AcDbEntity
  8
YKK_B2
  6
Continuous
100
AcDbLine
 10
6143.00004719
 20
2900.28914391
 30
0.0
 11
6148.60004719
 21
2905.88914391
 31
0.0
  0
LINE
  5
123C
330
2
100
AcDbEntity
  8
YKK_B2
  6
Continuous
100
AcDbLine
 10
6149.21094828
 20
2906.500045
 30
0.0
 11
6162.60004719
 21
2919.88914391
 31
0.0
  0
LINE
  5
123D
330
2
100
AcDbEntity
  8
YKK_B2
  6
Continuous
100
AcDbLine
 10
6156.30004719
 20
2895.62863167
 30
0.0
 11
6162.60004719
 21
2901.92863167
 31
0.0
  0
LINE
  5
123E
330
2
100
AcDbEntity
  8
YKK_B2
  6
ByBlock
 48
0.5
370
    -2
100
AcDbLine
 10
6162.60004719
 20
2891.500045
 30
0.0
 11
6162.60004719
 21
2933.500045
 31
0.0
  0
LINE
  5
123F
330
2
100
AcDbEntity
  8
YKK_B2
  6
ByBlock
 48
0.5
370
    -2
100
AcDbLine
 10
6162.60004719
 20
2933.500045
 30
0.0
 11
6148.00004719
 21
2933.500045
 31
0.0
  0
LINE
  5
1240
330
2
100
AcDbEntity
  8
YKK_B2
  6
ByBlock
 48
0.5
370
    -2
100
AcDbLine
 10
6148.00004719
 20
2933.500045
 30
0.0
 11
6146.00004719
 21
2931.500045
 31
0.0
  0
LINE
  5
1241
330
2
100
AcDbEntity
  8
YKK_B2
  6
ByBlock
 48
0.5
370
    -2
100
AcDbLine
 10
6146.00004719
 20
2931.500045
 30
0.0
 11
6146.00004719
 21
2919.500045
 31
0.0
  0
LINE
  5
1242
330
2
100
AcDbEntity
  8
YKK_B2
  6
ByBlock
 48
0.5
370
    -2
100
AcDbLine
 10
6146.00004719
 20
2919.500045
 30
0.0
 11
6143.00004719
 21
2919.500045
 31
0.0
  0
LINE
  5
1243
330
2
100
AcDbEntity
  8
YKK_B2
  6
ByBlock
 48
0.5
370
    -2
100
AcDbLine
 10
6143.00004719
 20
2919.500045
 30
0.0
 11
6143.00004719
 21
2891.500045
 31
0.0
  0
LINE
  5
1244
330
2
100
AcDbEntity
  8
YKK_B2
  6
ByBlock
 48
0.5
370
    -2
100
AcDbLine
 10
6143.00004719
 20
2891.500045
 30
0.0
 11
6148.60004719
 21
2891.500045
 31
0.0
  0
LINE
  5
1245
330
2
100
AcDbEntity
  8
YKK_B2
  6
ByBlock
 48
0.5
370
    -2
100
AcDbLine
 10
6148.60004719
 20
2891.500045
 30
0.0
 11
6148.60004719
 21
2906.500045
 31
0.0
  0
LINE
  5
1246
330
2
100
AcDbEntity
  8
YKK_B2
  6
ByBlock
 48
0.5
370
    -2
100
AcDbLine
 10
6148.60004719
 20
2906.500045
 30
0.0
 11
6156.30004719
 21
2906.500045
 31
0.0
  0
LINE
  5
1247
330
2
100
AcDbEntity
  8
YKK_B2
  6
ByBlock
 48
0.5
370
    -2
100
AcDbLine
 10
6156.30004719
 20
2906.500045
 30
0.0
 11
6156.30004719
 21
2891.500045
 31
0.0
  0
LINE
  5
1248
330
2
100
AcDbEntity
  8
YKK_B2
  6
ByBlock
 48
0.5
370
    -2
100
AcDbLine
 10
6156.30004719
 20
2891.500045
 30
0.0
 11
6162.60004719
 21
2891.500045
 31
0.0
  0
LINE
  5
1249
330
2
100
AcDbEntity
  8
YKK_C2
  6
Continuous
100
AcDbLine
 10
8197.50000183
 20
7046.91442082
 30
0.0
 11
8199.93570122
 21
7049.35012021
 31
0.0
  0
LINE
  5
124A
330
2
100
AcDbEntity
  8
YKK_C2
  6
Continuous
100
AcDbLine
 10
8201.29621346
 20
7032.75012021
 30
0.0
 11
8217.89621346
 21
7049.35012021
 31
0.0
  0
LINE
  5
124B
330
2
100
AcDbEntity
  8
YKK_C2
  6
Continuous
100
AcDbLine
 10
8216.2567257
 20
7029.75012021
 30
0.0
 11
8224.50000183
 21
7037.99339634
 31
0.0
  0
LINE
  5
124C
330
2
100
AcDbEntity
  8
YKK_C2
  6
Continuous
100
AcDbLine
 10
8229.5567257
 20
7043.05012021
 30
0.0
 11
8235.8567257
 21
7049.35012021
 31
0.0
  0
LINE
  5
124D
330
2
100
AcDbEntity
  8
YKK_C2
  6
Continuous
100
AcDbLine
 10
8234.21723795
 20
7029.75012021
 30
0.0
 11
8239.50000183
 21
7035.0328841
 31
0.0
  0
LINE
  5
124E
330
2
100
AcDbEntity
  8
YKK_C2
  6
ByBlock
 48
0.5
370
    -2
100
AcDbLine
 10
8239.50000183
 20
7049.35012021
 30
0.0
 11
8197.50000183
 21
7049.35012021
 31
0.0
  0
LINE
  5
124F
330
2
100
AcDbEntity
  8
YKK_C2
  6
ByBlock
 48
0.5
370
    -2
100
AcDbLine
 10
8197.50000183
 20
7049.35012021
 30
0.0
 11
8197.50000183
 21
7034.75012021
 31
0.0
  0
LINE
  5
1250
330
2
100
AcDbEntity
  8
YKK_C2
  6
ByBlock
 48
0.5
370
    -2
100
AcDbLine
 10
8197.50000183
 20
7034.75012021
 30
0.0
 11
8199.50000183
 21
7032.75012021
 31
0.0
  0
LINE
  5
1251
330
2
100
AcDbEntity
  8
YKK_C2
  6
ByBlock
 48
0.5
370
    -2
100
AcDbLine
 10
8199.50000183
 20
7032.75012021
 30
0.0
 11
8211.50000183
 21
7032.75012021
 31
0.0
  0
LINE
  5
1252
330
2
100
AcDbEntity
  8
YKK_C2
  6
ByBlock
 48
0.5
370
    -2
100
AcDbLine
 10
8211.50000183
 20
7032.75012021
 30
0.0
 11
8211.50000183
 21
7029.75012021
 31
0.0
  0
LINE
  5
1253
330
2
100
AcDbEntity
  8
YKK_C2
  6
ByBlock
 48
0.5
370
    -2
100
AcDbLine
 10
8211.50000183
 20
7029.75012021
 30
0.0
 11
8239.50000183
 21
7029.75012021
 31
0.0
  0
LINE
  5
1254
330
2
100
AcDbEntity
  8
YKK_C2
  6
ByBlock
 48
0.5
370
    -2
100
AcDbLine
 10
8239.50000183
 20
7029.75012021
 30
0.0
 11
8239.50000183
 21
7035.35012021
 31
0.0
  0
LINE
  5
1255
330
2
100
AcDbEntity
  8
YKK_C2
  6
ByBlock
 48
0.5
370
    -2
100
AcDbLine
 10
8239.50000183
 20
7035.35012021
 30
0.0
 11
8224.50000183
 21
7035.35012021
 31
0.0
  0
LINE
  5
1256
330
2
100
AcDbEntity
  8
YKK_C2
  6
ByBlock
 48
0.5
370
    -2
100
AcDbLine
 10
8224.50000183
 20
7035.35012021
 30
0.0
 11
8224.50000183
 21
7043.05012021
 31
0.0
  0
LINE
  5
1257
330
2
100
AcDbEntity
  8
YKK_C2
  6
ByBlock
 48
0.5
370
    -2
100
AcDbLine
 10
8224.50000183
 20
7043.05012021
 30
0.0
 11
8239.50000183
 21
7043.05012021
 31
0.0
  0
LINE
  5
1258
330
2
100
AcDbEntity
  8
YKK_C2
  6
ByBlock
 48
0.5
370
    -2
100
AcDbLine
 10
8239.50000183
 20
7043.05012021
 30
0.0
 11
8239.50000183
 21
7049.35012021
 31
0.0
  0
LINE
  5
1259
330
2
100
AcDbEntity
  8
YKK_C2
  6
Continuous
100
AcDbLine
 10
8250.25776938
 20
7118.75012021
 30
0.0
 11
8257.25776938
 21
7125.75012021
 31
0.0
  0
LINE
  5
125A
330
2
100
AcDbEntity
  8
YKK_C2
  6
Continuous
100
AcDbLine
 10
8253.0
 20
7103.53183859
 30
0.0
 11
8262.0
 21
7112.53183859
 31
0.0
  0
LINE
  5
125B
330
2
100
AcDbEntity
  8
YKK_C2
  6
Continuous
100
AcDbLine
 10
8253.0
 20
7085.57132635
 30
0.0
 11
8262.0
 21
7094.57132635
 31
0.0
  0
LINE
  5
125C
330
2
100
AcDbEntity
  8
YKK_C2
  6
Continuous
100
AcDbLine
 10
8226.0
 20
7040.61081411
 30
0.0
 11
8228.1393061
 21
7042.75012021
 31
0.0
  0
LINE
  5
125D
330
2
100
AcDbEntity
  8
YKK_C2
  6
Continuous
100
AcDbLine
 10
8253.0
 20
7067.61081411
 30
0.0
 11
8262.0
 21
7076.61081411
 31
0.0
  0
LINE
  5
125E
330
2
100
AcDbEntity
  8
YKK_C2
  6
Continuous
100
AcDbLine
 10
8239.09981835
 20
7035.75012021
 30
0.0
 11
8246.09981835
 21
7042.75012021
 31
0.0
  0
LINE
  5
125F
330
2
100
AcDbEntity
  8
YKK_C2
  6
Continuous
100
AcDbLine
 10
8253.0
 20
7049.65030187
 30
0.0
 11
8262.0
 21
7058.65030187
 31
0.0
  0
LINE
  5
1260
330
2
100
AcDbEntity
  8
YKK_C2
  6
Continuous
100
AcDbLine
 10
8257.06033059
 20
7035.75012021
 30
0.0
 11
8262.0
 21
7040.68978962
 31
0.0
  0
LINE
  5
1261
330
2
100
AcDbEntity
  8
YKK_C2
  6
ByBlock
 48
0.5
370
    -2
100
AcDbLine
 10
8262.0
 20
7123.75012022
 30
0.0
 11
8262.0
 21
7037.75012022
 31
0.0
  0
ARC
  5
1262
330
2
100
AcDbEntity
  8
YKK_C2
  6
ByBlock
 48
0.5
370
    -2
100
AcDbCircle
 10
8259.99999967
 20
7037.75012055
 30
0.0
 40
2.000000326795
100
AcDbArc
 50
270.00000936
 51
359.99999064
  0
LINE
  5
1263
330
2
100
AcDbEntity
  8
YKK_C2
  6
ByBlock
 48
0.5
370
    -2
100
AcDbLine
 10
8260.0
 20
7035.75012022
 30
0.0
 11
8226.0
 21
7035.75012022
 31
0.0
  0
LINE
  5
1264
330
2
100
AcDbEntity
  8
YKK_C2
  6
ByBlock
 48
0.5
370
    -2
100
AcDbLine
 10
8226.0
 20
7035.75012022
 30
0.0
 11
8226.0
 21
7042.75012022
 31
0.0
  0
LINE
  5
1265
330
2
100
AcDbEntity
  8
YKK_C2
  6
ByBlock
 48
0.5
370
    -2
100
AcDbLine
 10
8226.0
 20
7042.75012022
 30
0.0
 11
8253.0
 21
7042.75012022
 31
0.0
  0
LINE
  5
1266
330
2
100
AcDbEntity
  8
YKK_C2
  6
ByBlock
 48
0.5
370
    -2
100
AcDbLine
 10
8253.0
 20
7042.75012022
 30
0.0
 11
8253.0
 21
7118.75012022
 31
0.0
  0
LINE
  5
1267
330
2
100
AcDbEntity
  8
YKK_C2
  6
ByBlock
 48
0.5
370
    -2
100
AcDbLine
 10
8253.0
 20
7118.75012022
 30
0.0
 11
8240.0
 21
7118.75012022
 31
0.0
  0
LINE
  5
1268
330
2
100
AcDbEntity
  8
YKK_C2
  6
ByBlock
 48
0.5
370
    -2
100
AcDbLine
 10
8240.0
 20
7118.75012022
 30
0.0
 11
8240.0
 21
7125.75012022
 31
0.0
  0
LINE
  5
1269
330
2
100
AcDbEntity
  8
YKK_C2
  6
ByBlock
 48
0.5
370
    -2
100
AcDbLine
 10
8240.0
 20
7125.75012022
 30
0.0
 11
8260.0
 21
7125.75012022
 31
0.0
  0
ARC
  5
126A
330
2
100
AcDbEntity
  8
YKK_C2
  6
ByBlock
 48
0.5
370
    -2
100
AcDbCircle
 10
8259.99999967
 20
7123.7501199
 30
0.0
 40
2.000000326795
100
AcDbArc
 50
0.00000936
 51
89.99999064
  0
LINE
  5
126B
330
2
100
AcDbEntity
  8
YKK_B2
  6
Continuous
100
AcDbLine
 10
6149.00004719
 20
2897.30888779
 30
0.0
 11
6156.00004719
 21
2904.30888779
 31
0.0
  0
LINE
  5
126C
330
2
100
AcDbEntity
  8
YKK_B2
  6
Continuous
100
AcDbLine
 10
6149.00004719
 20
2879.34837555
 30
0.0
 11
6156.00004719
 21
2886.34837555
 31
0.0
  0
LINE
  5
126D
330
2
100
AcDbEntity
  8
YKK_B2
  6
Continuous
100
AcDbLine
 10
6153.61218388
 20
2866.0
 30
0.0
 11
6162.61218388
 21
2875.0
 31
0.0
  0
LINE
  5
126E
330
2
100
AcDbEntity
  8
YKK_B2
  6
Continuous
100
AcDbLine
 10
6171.57269612
 20
2866.0
 30
0.0
 11
6180.57269612
 21
2875.0
 31
0.0
  0
LINE
  5
126F
330
2
100
AcDbEntity
  8
YKK_B2
  6
Continuous
100
AcDbLine
 10
6189.53320837
 20
2866.0
 30
0.0
 11
6198.53320837
 21
2875.0
 31
0.0
  0
LINE
  5
1270
330
2
100
AcDbEntity
  8
YKK_B2
  6
Continuous
100
AcDbLine
 10
6207.49372061
 20
2866.0
 30
0.0
 11
6216.49372061
 21
2875.0
 31
0.0
  0
LINE
  5
1271
330
2
100
AcDbEntity
  8
YKK_B2
  6
Continuous
100
AcDbLine
 10
6232.00004719
 20
2890.50632658
 30
0.0
 11
6232.49372061
 21
2891.0
 31
0.0
  0
LINE
  5
1272
330
2
100
AcDbEntity
  8
YKK_B2
  6
Continuous
100
AcDbLine
 10
6225.45423285
 20
2866.0
 30
0.0
 11
6239.00004719
 21
2879.54581434
 31
0.0
  0
LINE
  5
1273
330
2
100
AcDbEntity
  8
YKK_B2
  6
ByBlock
 48
0.5
370
    -2
100
AcDbLine
 10
6237.0000472
 20
2866.0
 30
0.0
 11
6151.0000472
 21
2866.0
 31
0.0
  0
ARC
  5
1274
330
2
100
AcDbEntity
  8
YKK_B2
  6
ByBlock
 48
0.5
370
    -2
100
AcDbCircle
 10
6151.00004753
 20
2868.00000033
 30
0.0
 40
2.000000326795
100
AcDbArc
 50
180.00000936
 51
269.99999064
  0
LINE
  5
1275
330
2
100
AcDbEntity
  8
YKK_B2
  6
ByBlock
 48
0.5
370
    -2
100
AcDbLine
 10
6149.0000472
 20
2868.0
 30
0.0
 11
6149.0000472
 21
2905.0
 31
0.0
  0
LINE
  5
1276
330
2
100
AcDbEntity
  8
YKK_B2
  6
ByBlock
 48
0.5
370
    -2
100
AcDbLine
 10
6149.0000472
 20
2905.0
 30
0.0
 11
6156.0000472
 21
2905.0
 31
0.0
  0
LINE
  5
1277
330
2
100
AcDbEntity
  8
YKK_B2
  6
ByBlock
 48
0.5
370
    -2
100
AcDbLine
 10
6156.0000472
 20
2905.0
 30
0.0
 11
6156.0000472
 21
2875.0
 31
0.0
  0
LINE
  5
1278
330
2
100
AcDbEntity
  8
YKK_B2
  6
ByBlock
 48
0.5
370
    -2
100
AcDbLine
 10
6156.0000472
 20
2875.0
 30
0.0
 11
6232.0000472
 21
2875.0
 31
0.0
  0
LINE
  5
1279
330
2
100
AcDbEntity
  8
YKK_B2
  6
ByBlock
 48
0.5
370
    -2
100
AcDbLine
 10
6232.0000472
 20
2875.0
 30
0.0
 11
6232.0000472
 21
2891.0
 31
0.0
  0
LINE
  5
127A
330
2
100
AcDbEntity
  8
YKK_B2
  6
ByBlock
 48
0.5
370
    -2
100
AcDbLine
 10
6232.0000472
 20
2891.0
 30
0.0
 11
6239.0000472
 21
2891.0
 31
0.0
  0
LINE
  5
127B
330
2
100
AcDbEntity
  8
YKK_B2
  6
ByBlock
 48
0.5
370
    -2
100
AcDbLine
 10
6239.0000472
 20
2891.0
 30
0.0
 11
6239.0000472
 21
2868.0
 31
0.0
  0
ARC
  5
127C
330
2
100
AcDbEntity
  8
YKK_B2
  6
ByBlock
 48
0.5
370
    -2
100
AcDbCircle
 10
6237.00004687
 20
2868.00000033
 30
0.0
 40
2.000000326794888
100
AcDbArc
 50
270.00000936
 51
359.99999064
  0
LINE
  5
127D
330
2
100
AcDbEntity
  8
YKK_B2
  6
Continuous
100
AcDbLine
 10
4499.99999999
 20
2902.82230508
 30
0.0
 11
4506.99999999
 21
2895.82230508
 31
0.0
  0
LINE
  5
127E
330
2
100
AcDbEntity
  8
YKK_B2
  6
Continuous
100
AcDbLine
 10
4499.99999999
 20
2884.86179284
 30
0.0
 11
4506.99999999
 21
2877.86179284
 31
0.0
  0
LINE
  5
127F
330
2
100
AcDbEntity
  8
YKK_B2
  6
Continuous
100
AcDbLine
 10
4491.90128059
 20
2875.0
 30
0.0
 11
4500.90128059
 21
2866.0
 31
0.0
  0
LINE
  5
1280
330
2
100
AcDbEntity
  8
YKK_B2
  6
Continuous
100
AcDbLine
 10
4473.94076834
 20
2875.0
 30
0.0
 11
4482.94076834
 21
2866.0
 31
0.0
  0
LINE
  5
1281
330
2
100
AcDbEntity
  8
YKK_B2
  6
Continuous
100
AcDbLine
 10
4455.9802561
 20
2875.0
 30
0.0
 11
4464.9802561
 21
2866.0
 31
0.0
  0
LINE
  5
1282
330
2
100
AcDbEntity
  8
YKK_B2
  6
Continuous
100
AcDbLine
 10
4422.01974386
 20
2891.0
 30
0.0
 11
4423.99999999
 21
2889.01974387
 31
0.0
  0
LINE
  5
1283
330
2
100
AcDbEntity
  8
YKK_B2
  6
Continuous
100
AcDbLine
 10
4438.01974386
 20
2875.0
 30
0.0
 11
4447.01974386
 21
2866.0
 31
0.0
  0
LINE
  5
1284
330
2
100
AcDbEntity
  8
YKK_B2
  6
Continuous
100
AcDbLine
 10
4416.99999999
 20
2878.05923163
 30
0.0
 11
4429.05923162
 21
2866.0
 31
0.0
  0
LINE
  5
1285
330
2
100
AcDbEntity
  8
YKK_B2
  6
ByBlock
 48
0.5
370
    -2
100
AcDbLine
 10
4418.99999998
 20
2866.0
 30
0.0
 11
4504.99999998
 21
2866.0
 31
0.0
  0
ARC
  5
1286
330
2
100
AcDbEntity
  8
YKK_B2
  6
ByBlock
 48
0.5
370
    -2
100
AcDbCircle
 10
4504.99999965
 20
2868.00000033
 30
0.0
 40
2.000000326795
100
AcDbArc
 50
270.00000936
 51
359.99999064
  0
LINE
  5
1287
330
2
100
AcDbEntity
  8
YKK_B2
  6
ByBlock
 48
0.5
370
    -2
100
AcDbLine
 10
4506.99999998
 20
2868.0
 30
0.0
 11
4506.99999998
 21
2905.0
 31
0.0
  0
LINE
  5
1288
330
2
100
AcDbEntity
  8
YKK_B2
  6
ByBlock
 48
0.5
370
    -2
100
AcDbLine
 10
4506.99999998
 20
2905.0
 30
0.0
 11
4499.99999998
 21
2905.0
 31
0.0
  0
LINE
  5
1289
330
2
100
AcDbEntity
  8
YKK_B2
  6
ByBlock
 48
0.5
370
    -2
100
AcDbLine
 10
4499.99999998
 20
2905.0
 30
0.0
 11
4499.99999998
 21
2875.0
 31
0.0
  0
LINE
  5
128A
330
2
100
AcDbEntity
  8
YKK_B2
  6
ByBlock
 48
0.5
370
    -2
100
AcDbLine
 10
4499.99999998
 20
2875.0
 30
0.0
 11
4423.99999998
 21
2875.0
 31
0.0
  0
LINE
  5
128B
330
2
100
AcDbEntity
  8
YKK_B2
  6
ByBlock
 48
0.5
370
    -2
100
AcDbLine
 10
4423.99999998
 20
2875.0
 30
0.0
 11
4423.99999998
 21
2891.0
 31
0.0
  0
LINE
  5
128C
330
2
100
AcDbEntity
  8
YKK_B2
  6
ByBlock
 48
0.5
370
    -2
100
AcDbLine
 10
4423.99999998
 20
2891.0
 30
0.0
 11
4416.99999998
 21
2891.0
 31
0.0
  0
LINE
  5
128D
330
2
100
AcDbEntity
  8
YKK_B2
  6
ByBlock
 48
0.5
370
    -2
100
AcDbLine
 10
4416.99999998
 20
2891.0
 30
0.0
 11
4416.99999998
 21
2868.0
 31
0.0
  0
ARC
  5
128E
330
2
100
AcDbEntity
  8
YKK_B2
  6
ByBlock
 48
0.5
370
    -2
100
AcDbCircle
 10
4419.00000031
 20
2868.00000033
 30
0.0
 40
2.000000326795
100
AcDbArc
 50
180.00000936
 51
269.99999064
  0
TEXT
  5
128F
330
2
100
AcDbEntity
  8
YKK_N1
  6
Continuous
100
AcDbText
 10
5165.50033367
 20
2422.0
 30
0.0
 40
40.0
  1
新設窓W=1690
  7
MX_NOTE_STANDARD
 11
5165.50033367
 21
2442.0
 31
0.0
100
AcDbText
 73
     2
  0
TEXT
  5
1290
330
2
100
AcDbEntity
  8
YKK_N1
  6
Continuous
100
AcDbText
 10
6267.88918162
 20
2412.000003
 30
0.0
 40
60.0
  1
35
  7
MX_NOTE_STANDARD
100
AcDbText
  0
LINE
  5
1291
330
2
100
AcDbEntity
  8
YKK_N1
  6
Continuous
100
AcDbLine
 10
6207.99999999
 20
2725.0
 30
0.0
 11
6207.99999999
 21
2200.0
 31
0.0
  0
LINE
  5
1292
330
2
100
AcDbEntity
  8
YKK_N1
  6
Continuous
100
AcDbLine
 10
6172.99999999
 20
2725.0
 30
0.0
 11
6172.99999999
 21
2400.0
 31
0.0
  0
LINE
  5
1293
330
2
100
AcDbEntity
  8
YKK_N1
  6
Continuous
100
AcDbLine
 10
6172.99999999
 20
2400.0
 30
0.0
 11
6207.99999999
 21
2400.0
 31
0.0
  0
CIRCLE
  5
1294
330
2
100
AcDbEntity
  8
YKK_N1
  6
Continuous
100
AcDbCircle
 10
6207.99999999
 20
2400.0
 30
0.0
 40
5.0
  0
LINE
  5
1295
330
2
100
AcDbEntity
  8
YKK_N1
  6
Continuous
100
AcDbLine
 10
6172.99999999
 20
2600.0
 30
0.0
 11
6142.99999999
 21
2600.0
 31
0.0
  0
LINE
  5
1296
330
2
100
AcDbEntity
  8
YKK_N1
  6
Continuous
100
AcDbLine
 10
6142.99999999
 20
2725.0
 30
0.0
 11
6142.99999999
 21
2600.0
 31
0.0
  0
CIRCLE
  5
1297
330
2
100
AcDbEntity
  8
YKK_N1
  6
Continuous
100
AcDbCircle
 10
6142.99999999
 20
2600.0
 30
0.0
 40
5.0
  0
CIRCLE
  5
1298
330
2
100
AcDbEntity
  8
YKK_N1
  6
Continuous
100
AcDbCircle
 10
6172.99999999
 20
2600.0
 30
0.0
 40
5.0
  0
LINE
  5
1299
330
2
100
AcDbEntity
  8
YKK_N1
  6
Continuous
100
AcDbLine
 10
6086.39745999
 20
2450.0
 30
0.0
 11
6086.39745999
 21
2350.0
 31
0.0
  0
LINE
  5
129A
330
2
100
AcDbEntity
  8
YKK_N1
  6
Continuous
100
AcDbLine
 10
6086.39745999
 20
2450.0
 30
0.0
 11
6172.99999999
 21
2400.0
 31
0.0
  0
LINE
  5
129B
330
2
100
AcDbEntity
  8
YKK_N1
  6
Continuous
100
AcDbLine
 10
6172.99999999
 20
2400.0
 30
0.0
 11
6086.39745999
 21
2350.0
 31
0.0
  0
TEXT
  5
129C
330
2
100
AcDbEntity
  8
YKK_N1
  6
Continuous
100
AcDbText
 10
6023.15047787
 20
2612.78324834
 30
0.0
 40
60.0
  1
30
  7
MX_NOTE_STANDARD
 11
6023.15047787
 21
2642.78324834
 31
0.0
100
AcDbText
 73
     2
  0
LINE
  5
129D
330
2
100
AcDbEntity
  8
YKK_N1
  6
Continuous
100
AcDbLine
 10
4569.60253999
 20
2450.0
 30
0.0
 11
4482.99999999
 21
2400.0
 31
0.0
  0
LINE
  5
129E
330
2
100
AcDbEntity
  8
YKK_N1
  6
Continuous
100
AcDbLine
 10
4482.99999999
 20
2400.0
 30
0.0
 11
4569.60253999
 21
2350.0
 31
0.0
  0
TEXT
  5
129F
330
2
100
AcDbEntity
  8
YKK_N1
  6
Continuous
100
AcDbText
 10
4527.41851112
 20
2612.78324834
 30
0.0
 40
60.0
  1
30
  7
MX_NOTE_STANDARD
 11
4527.41851112
 21
2642.78324834
 31
0.0
100
AcDbText
 73
     2
  0
CIRCLE
  5
12A0
330
2
100
AcDbEntity
  8
YKK_N1
  6
Continuous
100
AcDbCircle
 10
4447.99999999
 20
2400.0
 30
0.0
 40
5.0
  0
LINE
  5
12A1
330
2
100
AcDbEntity
  8
YKK_N1
  6
Continuous
100
AcDbLine
 10
4447.99999999
 20
2400.0
 30
0.0
 11
4482.99999999
 21
2400.0
 31
0.0
  0
CIRCLE
  5
12A2
330
2
100
AcDbEntity
  8
YKK_N1
  6
Continuous
100
AcDbCircle
 10
4512.99999999
 20
2600.0
 30
0.0
 40
5.0
  0
CIRCLE
  5
12A3
330
2
100
AcDbEntity
  8
YKK_N1
  6
Continuous
100
AcDbCircle
 10
4482.99999999
 20
2600.0
 30
0.0
 40
5.0
  0
LINE
  5
12A4
330
2
100
AcDbEntity
  8
YKK_N1
  6
Continuous
100
AcDbLine
 10
4482.99999999
 20
2600.0
 30
0.0
 11
4512.99999999
 21
2600.0
 31
0.0
  0
LINE
  5
12A5
330
2
100
AcDbEntity
  8
YKK_N1
  6
Continuous
100
AcDbLine
 10
4569.60253999
 20
2450.0
 30
0.0
 11
4569.60253999
 21
2350.0
 31
0.0
  0
TEXT
  5
12A6
330
2
100
AcDbEntity
  8
YKK_N1
  6
Continuous
100
AcDbText
 10
4272.80229543
 20
2412.000003
 30
0.0
 40
60.0
  1
35
  7
MX_NOTE_STANDARD
100
AcDbText
  0
LINE
  5
12A7
330
2
100
AcDbEntity
  8
YKK_N1
  6
Continuous
100
AcDbLine
 10
6172.99999999
 20
2400.0
 30
0.0
 11
4482.99999999
 21
2400.0
 31
0.0
  0
LINE
  5
12A8
330
2
100
AcDbEntity
  8
YKK_N1
  6
Continuous
100
AcDbLine
 10
4512.99999999
 20
2725.0
 30
0.0
 11
4512.99999999
 21
2600.0
 31
0.0
  0
LINE
  5
12A9
330
2
100
AcDbEntity
  8
YKK_N1
  6
Continuous
100
AcDbLine
 10
4482.99999999
 20
2725.0
 30
0.0
 11
4482.99999999
 21
2400.0
 31
0.0
  0
LINE
  5
12AA
330
2
100
AcDbEntity
  8
YKK_N1
  6
Continuous
100
AcDbLine
 10
4447.99999999
 20
2725.0
 30
0.0
 11
4447.99999999
 21
2200.0
 31
0.0
  0
LINE
  5
12AB
330
2
100
AcDbEntity
  8
YKK_N1
  6
Continuous
100
AcDbLine
 10
6207.99999999
 20
2200.0
 30
0.0
 11
4447.99999999
 21
2200.0
 31
0.0
  0
LINE
  5
12AC
330
2
100
AcDbEntity
  8
YKK_N1
  6
Continuous
100
AcDbLine
 10
6212.99999999
 20
2000.0
 30
0.0
 11
4442.99999999
 21
2000.0
 31
0.0
  0
LINE
  5
12AD
330
2
100
AcDbEntity
  8
YKK_N1
  6
Continuous
100
AcDbLine
 10
4442.99999999
 20
2725.0
 30
0.0
 11
4442.99999999
 21
2000.0
 31
0.0
  0
LINE
  5
12AE
330
2
100
AcDbEntity
  8
YKK_N1
  6
Continuous
100
AcDbLine
 10
6212.99999999
 20
2725.0
 30
0.0
 11
6212.99999999
 21
2000.0
 31
0.0
  0
LINE
  5
12AF
330
2
100
AcDbEntity
  8
YKK_N1
100
AcDbLine
 10
4447.99999999
 20
2200.0
 30
0.0
 11
4442.99999999
 21
2200.0
 31
0.0
  0
LINE
  5
12B0
330
2
100
AcDbEntity
  8
YKK_N1
100
AcDbLine
 10
6207.99999999
 20
2200.0
 30
0.0
 11
6212.99999999
 21
2200.0
 31
0.0
  0
LINE
  5
12B1
330
2
100
AcDbEntity
  8
YKK_N1
  6
Continuous
100
AcDbLine
 10
4534.60253999
 20
2250.0
 30
0.0
 11
4447.99999999
 21
2200.0
 31
0.0
  0
LINE
  5
12B2
330
2
100
AcDbEntity
  8
YKK_N1
  6
Continuous
100
AcDbLine
 10
4447.99999999
 20
2200.0
 30
0.0
 11
4534.60253999
 21
2150.0
 31
0.0
  0
LINE
  5
12B3
330
2
100
AcDbEntity
  8
YKK_N1
  6
Continuous
100
AcDbLine
 10
4534.60253999
 20
2250.0
 30
0.0
 11
4534.60253999
 21
2150.0
 31
0.0
  0
LINE
  5
12B4
330
2
100
AcDbEntity
  8
YKK_N1
  6
Continuous
100
AcDbLine
 10
4529.60253999
 20
2050.0
 30
0.0
 11
4442.99999999
 21
2000.0
 31
0.0
  0
LINE
  5
12B5
330
2
100
AcDbEntity
  8
YKK_N1
  6
Continuous
100
AcDbLine
 10
4442.99999999
 20
2000.0
 30
0.0
 11
4529.60253999
 21
1950.0
 31
0.0
  0
LINE
  5
12B6
330
2
100
AcDbEntity
  8
YKK_N1
  6
Continuous
100
AcDbLine
 10
4529.60253999
 20
2050.0
 30
0.0
 11
4529.60253999
 21
1950.0
 31
0.0
  0
LINE
  5
12B7
330
2
100
AcDbEntity
  8
YKK_N1
  6
Continuous
100
AcDbLine
 10
6121.39745999
 20
2250.0
 30
0.0
 11
6121.39745999
 21
2150.0
 31
0.0
  0
LINE
  5
12B8
330
2
100
AcDbEntity
  8
YKK_N1
  6
Continuous
100
AcDbLine
 10
6121.39745999
 20
2250.0
 30
0.0
 11
6207.99999999
 21
2200.0
 31
0.0
  0
LINE
  5
12B9
330
2
100
AcDbEntity
  8
YKK_N1
  6
Continuous
100
AcDbLine
 10
6207.99999999
 20
2200.0
 30
0.0
 11
6121.39745999
 21
2150.0
 31
0.0
  0
LINE
  5
12BA
330
2
100
AcDbEntity
  8
YKK_N1
  6
Continuous
100
AcDbLine
 10
6126.39745999
 20
2050.0
 30
0.0
 11
6126.39745999
 21
1950.0
 31
0.0
  0
LINE
  5
12BB
330
2
100
AcDbEntity
  8
YKK_N1
  6
Continuous
100
AcDbLine
 10
6126.39745999
 20
2050.0
 30
0.0
 11
6212.99999999
 21
2000.0
 31
0.0
  0
LINE
  5
12BC
330
2
100
AcDbEntity
  8
YKK_N1
  6
Continuous
100
AcDbLine
 10
6212.99999999
 20
2000.0
 30
0.0
 11
6126.39745999
 21
1950.0
 31
0.0
  0
CIRCLE
  5
12BD
330
2
100
AcDbEntity
  8
YKK_N1
  6
Continuous
100
AcDbCircle
 10
4442.99999999
 20
2200.0
 30
0.0
 40
5.0
  0
CIRCLE
  5
12BE
330
2
100
AcDbEntity
  8
YKK_N1
  6
Continuous
100
AcDbCircle
 10
6212.99999999
 20
2200.0
 30
0.0
 40
5.0
  0
TEXT
  5
12BF
330
2
100
AcDbEntity
  8
YKK_N1
  6
Continuous
100
AcDbText
 10
5002.00998875
 20
2222.0
 30
0.0
 40
40.0
  1
ジョイント枠出来幅JW=1760
  7
MX_NOTE_STANDARD
 11
5002.00998875
 21
2242.0
 31
0.0
100
AcDbText
 73
     2
  0
TEXT
  5
12C0
330
2
100
AcDbEntity
  8
YKK_N1
  6
Continuous
100
AcDbText
 10
5044.96975992
 20
2022.0
 30
0.0
 40
40.0
  1
既設窓枠開口幅KW=1770
  7
MX_NOTE_STANDARD
 11
5044.96975992
 21
2042.0
 31
0.0
100
AcDbText
 73
     2
  0
TEXT
  5
12C1
330
2
100
AcDbEntity
  8
YKK_N1
  6
Continuous
100
AcDbText
 10
6274.47397
 20
2212.000003
 30
0.0
 40
60.0
  1
5
  7
MX_NOTE_STANDARD
100
AcDbText
  0
TEXT
  5
12C2
330
2
100
AcDbEntity
  8
YKK_N1
  6
Continuous
100
AcDbText
 10
4321.70033597
 20
2212.000003
 30
0.0
 40
60.0
  1
5
  7
MX_NOTE_STANDARD
100
AcDbText
  0
LINE
  5
12C3
330
2
100
AcDbEntity
  8
YKK_B1
  6
Continuous
370
    13
100
AcDbLine
 10
4460.19999998
 20
3007.68532636
 30
0.0
 11
4466.61471861
 21
3014.10004499
 31
0.0
  0
LINE
  5
12C4
330
2
100
AcDbEntity
  8
YKK_B1
  6
Continuous
370
    13
100
AcDbLine
 10
4460.19999998
 20
3002.02847211
 30
0.0
 11
4467.99999998
 21
3009.82847211
 31
0.0
  0
LINE
  5
12C5
330
2
100
AcDbEntity
  8
YKK_B1
  6
Continuous
370
    13
100
AcDbLine
 10
4462.1284271
 20
2998.30004499
 30
0.0
 11
4467.99999998
 21
3004.17161787
 31
0.0
  0
LINE
  5
12C6
330
2
100
AcDbEntity
  8
YKK_B1E
100
AcDbLine
 10
4425.50011845
 20
3052.50004515
 30
0.00000001
 11
4442.50001821
 21
3052.50004515
 31
0.00000001
  0
LINE
  5
12C7
330
2
100
AcDbEntity
  8
YKK_B1E
100
AcDbLine
 10
4431.50010245
 20
3052.50004515
 30
0.00000001
 11
4431.4999689
 21
2982.50004507
 31
0.00000001
  0
LINE
  5
12C8
330
2
100
AcDbEntity
  8
YKK_B1E
100
AcDbLine
 10
4402.99997021
 20
3009.50004507
 30
0.0
 11
4431.49998521
 21
3009.50004507
 31
0.0
  0
LINE
  5
12C9
330
2
100
AcDbEntity
  8
YKK_B1
100
AcDbLine
 10
4424.99999998
 20
3052.50004499
 30
0.0
 11
4424.99999998
 21
3057.50004499
 31
0.0
  0
LINE
  5
12CA
330
2
100
AcDbEntity
  8
YKK_B1
100
AcDbLine
 10
4424.99999998
 20
3057.50004499
 30
0.0
 11
4480.99999998
 21
3057.50004499
 31
0.0
  0
LINE
  5
12CB
330
2
100
AcDbEntity
  8
YKK_B1
100
AcDbLine
 10
4480.99999998
 20
3057.50004499
 30
0.0
 11
4480.99999998
 21
3041.50004511
 31
0.0
  0
LINE
  5
12CC
330
2
100
AcDbEntity
  8
YKK_B1
100
AcDbLine
 10
4447.99999998
 20
2964.00004499
 30
0.0
 11
4447.99999998
 21
3057.50004499
 31
0.0
  0
LINE
  5
12CD
330
2
100
AcDbEntity
  8
YKK_B1
100
AcDbLine
 10
4467.99999998
 20
2979.00004499
 30
0.0
 11
4447.99999998
 21
2979.00004499
 31
0.0
  0
LINE
  5
12CE
330
2
100
AcDbEntity
  8
YKK_B1
100
AcDbLine
 10
4467.99999998
 20
2979.00004499
 30
0.0
 11
4467.99999998
 21
3057.50004499
 31
0.0
  0
LINE
  5
12CF
330
2
100
AcDbEntity
  8
YKK_B1
100
AcDbLine
 10
4467.99999998
 20
2998.30004499
 30
0.0
 11
4447.99999998
 21
2998.30004499
 31
0.0
  0
LINE
  5
12D0
330
2
100
AcDbEntity
  8
YKK_B1
100
AcDbLine
 10
4460.19999998
 20
2998.30004499
 30
0.0
 11
4460.19999998
 21
3014.10004499
 31
0.0
  0
LINE
  5
12D1
330
2
100
AcDbEntity
  8
YKK_B1
100
AcDbLine
 10
4447.99999998
 20
3014.10004499
 30
0.0
 11
4467.99999998
 21
3014.10004499
 31
0.0
  0
LINE
  5
12D2
330
2
100
AcDbEntity
  8
YKK_B1
100
AcDbLine
 10
4472.99999951
 20
2962.00004528
 30
0.0
 11
4472.99999951
 21
3041.50004511
 31
0.0
  0
LINE
  5
12D3
330
2
100
AcDbEntity
  8
YKK_B1
100
AcDbLine
 10
4472.99999951
 20
3041.50004511
 30
0.0
 11
4521.99999948
 21
3041.50004511
 31
0.0
  0
LINE
  5
12D4
330
2
100
AcDbEntity
  8
YKK_B1
100
AcDbLine
 10
4496.99999948
 20
3041.50004511
 30
0.0
 11
4496.99999948
 21
2934.50004511
 31
0.0
  0
LINE
  5
12D5
330
2
100
AcDbEntity
  8
YKK_B1
100
AcDbLine
 10
4454.49999998
 20
2978.20004499
 30
0.0
 11
4469.99999998
 21
2978.20004499
 31
0.0
  0
LINE
  5
12D6
330
2
100
AcDbEntity
  8
YKK_B1
100
AcDbLine
 10
4469.99999998
 20
2904.50004499
 30
0.0
 11
4466.99999998
 21
2904.50004499
 31
0.0
  0
LINE
  5
12D7
330
2
100
AcDbEntity
  8
YKK_B1E
100
AcDbLine
 10
4426.99992621
 20
3003.90006007
 30
0.0
 11
4431.49998521
 21
3003.90006007
 31
0.0
  0
LINE
  5
12D8
330
2
100
AcDbEntity
  8
YKK_B1E
100
AcDbLine
 10
4431.50006944
 20
3035.20001207
 30
0.00000001
 11
4443.00000021
 21
3035.20001207
 31
0.0
  0
LINE
  5
12D9
330
2
100
AcDbEntity
  8
YKK_B1E
100
AcDbLine
 10
4439.49999821
 20
3015.50003007
 30
0.0
 11
4431.50003186
 21
3015.50003007
 31
0.00000001
  0
LINE
  5
12DA
330
2
100
AcDbEntity
  8
YKK_B1E
100
AcDbLine
 10
4426.99992621
 20
2985.50004007
 30
0.0
 11
4426.99992621
 21
2982.50004507
 31
0.0
  0
LINE
  5
12DB
330
2
100
AcDbEntity
  8
YKK_B1E
100
AcDbLine
 10
4426.99992621
 20
2982.50004507
 30
0.0
 11
4442.99998321
 21
2982.50004507
 31
0.0
  0
LINE
  5
12DC
330
2
100
AcDbEntity
  8
YKK_B1E
100
AcDbLine
 10
4442.99998321
 20
2982.50004507
 30
0.0
 11
4442.99998321
 21
2985.00004007
 31
0.0
  0
LINE
  5
12DD
330
2
100
AcDbEntity
  8
YKK_B1
100
AcDbLine
 10
4469.99999998
 20
2904.50004499
 30
0.0
 11
4469.99999998
 21
2978.20004499
 31
0.0
  0
LINE
  5
12DE
330
2
100
AcDbEntity
  8
YKK_B1
100
AcDbLine
 10
4510.49999948
 20
2919.50004511
 30
0.0
 11
4512.99999948
 21
2919.50004511
 31
0.0
  0
LINE
  5
12DF
330
2
100
AcDbEntity
  8
YKK_B1
100
AcDbLine
 10
4512.99999948
 20
2919.50004511
 30
0.0
 11
4512.99999948
 21
2934.50004511
 31
0.0
  0
LINE
  5
12E0
330
2
100
AcDbEntity
  8
YKK_B1
100
AcDbLine
 10
4521.99999948
 20
2934.50004511
 30
0.0
 11
4482.99999948
 21
2934.50004511
 31
0.0
  0
LINE
  5
12E1
330
2
100
AcDbEntity
  8
YKK_B1
100
AcDbLine
 10
4482.99999948
 20
2934.50004511
 30
0.0
 11
4482.99999948
 21
2962.00004528
 31
0.0
  0
LINE
  5
12E2
330
2
100
AcDbEntity
  8
YKK_B1
100
AcDbLine
 10
4482.99999948
 20
2962.00004528
 30
0.0
 11
4472.99999948
 21
2962.00004528
 31
0.0
  0
LINE
  5
12E3
330
2
100
AcDbEntity
  8
YKK_B1
100
AcDbLine
 10
4469.99999998
 20
2953.50004499
 30
0.0
 11
4482.99999948
 21
2953.50004499
 31
0.0
  0
LINE
  5
12E4
330
2
100
AcDbEntity
  8
YKK_B1
100
AcDbLine
 10
4469.99999998
 20
2969.50004499
 30
0.0
 11
4472.99999948
 21
2969.50004499
 31
0.0
  0
LINE
  5
12E5
330
2
100
AcDbEntity
  8
YKK_B1
100
AcDbLine
 10
4496.99999948
 20
3017.50004511
 30
0.0
 11
4522.99999948
 21
3017.50004511
 31
0.0
  0
LINE
  5
12E6
330
2
100
AcDbEntity
  8
YKK_B1
100
AcDbLine
 10
4522.99999948
 20
3017.50004511
 30
0.0
 11
4522.99999948
 21
3006.50004511
 31
0.0
  0
LINE
  5
12E7
330
2
100
AcDbEntity
  8
YKK_B1
100
AcDbLine
 10
4522.99999948
 20
3006.50004511
 30
0.0
 11
4496.99999948
 21
3006.50004511
 31
0.0
  0
LINE
  5
12E8
330
2
100
AcDbEntity
  8
YKK_B1
100
AcDbLine
 10
4496.99999948
 20
2966.50004511
 30
0.0
 11
4522.99999948
 21
2966.50004511
 31
0.0
  0
LINE
  5
12E9
330
2
100
AcDbEntity
  8
YKK_B1
100
AcDbLine
 10
4522.99999948
 20
2966.50004511
 30
0.0
 11
4522.99999948
 21
2955.50004511
 31
0.0
  0
LINE
  5
12EA
330
2
100
AcDbEntity
  8
YKK_B1
100
AcDbLine
 10
4522.99999948
 20
2955.50004511
 30
0.0
 11
4496.99999948
 21
2955.50004511
 31
0.0
  0
LINE
  5
12EB
330
2
100
AcDbEntity
  8
YKK_B1
100
AcDbLine
 10
4512.99990358
 20
3030.00004511
 30
0.0
 11
4588.99899875
 21
3030.00004511
 31
0.0
  0
LINE
  5
12EC
330
2
100
AcDbEntity
  8
YKK_B1
100
AcDbLine
 10
4588.99990358
 20
2994.00004511
 30
0.0
 11
4512.99990358
 21
2994.00004511
 31
0.0
  0
LINE
  5
12ED
330
2
100
AcDbEntity
  8
YKK_B1
100
AcDbLine
 10
4537.99990358
 20
3030.00004511
 30
0.0
 11
4537.99990358
 21
2994.00004511
 31
0.0
  0
LINE
  5
12EE
330
2
100
AcDbEntity
  8
YKK_B1
100
AcDbLine
 10
4571.99899875
 20
3030.00435194
 30
0.0
 11
4571.99899875
 21
2994.00004511
 31
0.0
  0
LINE
  5
12EF
330
2
100
AcDbEntity
  8
YKK_B1
100
AcDbLine
 10
5281.49710677
 20
3030.00004509
 30
0.0
 11
5357.49902117
 21
3030.00004509
 31
0.0
  0
LINE
  5
12F0
330
2
100
AcDbEntity
  8
YKK_B1
100
AcDbLine
 10
5357.49902117
 20
3030.00004509
 30
0.0
 11
5357.49902117
 21
2994.00004509
 31
0.0
  0
LINE
  5
12F1
330
2
100
AcDbEntity
  8
YKK_B1
100
AcDbLine
 10
5357.49902117
 20
2994.00004509
 30
0.0
 11
5281.49902117
 21
2994.00004509
 31
0.0
  0
LINE
  5
12F2
330
2
100
AcDbEntity
  8
YKK_B1
100
AcDbLine
 10
5298.49902117
 20
3030.00004509
 30
0.0
 11
5298.49902117
 21
2994.00004509
 31
0.0
  0
LINE
  5
12F3
330
2
100
AcDbEntity
  8
YKK_B1
100
AcDbLine
 10
5374.4978443
 20
2979.00004509
 30
0.0
 11
5298.49874911
 21
2979.00004509
 31
0.0
  0
LINE
  5
12F4
330
2
100
AcDbEntity
  8
YKK_B1
100
AcDbLine
 10
5298.49874911
 20
2979.00004509
 30
0.0
 11
5298.49874911
 21
2943.00004509
 31
0.0
  0
LINE
  5
12F5
330
2
100
AcDbEntity
  8
YKK_B1
100
AcDbLine
 10
5298.49874911
 20
2943.00004509
 30
0.0
 11
5374.49874911
 21
2943.00004509
 31
0.0
  0
LINE
  5
12F6
330
2
100
AcDbEntity
  8
YKK_B1
100
AcDbLine
 10
5350.69874911
 20
2979.00004509
 30
0.0
 11
5350.69874911
 21
2943.00004509
 31
0.0
  0
LINE
  5
12F7
330
2
100
AcDbEntity
  8
YKK_B1
  6
Continuous
370
    13
100
AcDbLine
 10
6195.8
 20
3007.68532636
 30
0.0
 11
6189.38528137
 21
3014.10004499
 31
0.0
  0
LINE
  5
12F8
330
2
100
AcDbEntity
  8
YKK_B1
  6
Continuous
370
    13
100
AcDbLine
 10
6195.8
 20
3002.02847211
 30
0.0
 11
6188.0
 21
3009.82847211
 31
0.0
  0
LINE
  5
12F9
330
2
100
AcDbEntity
  8
YKK_B1
  6
Continuous
370
    13
100
AcDbLine
 10
6193.87157288
 20
2998.30004499
 30
0.0
 11
6188.0
 21
3004.17161787
 31
0.0
  0
LINE
  5
12FA
330
2
100
AcDbEntity
  8
YKK_B1E
100
AcDbLine
 10
6230.49988153
 20
3052.50004515
 30
0.00000001
 11
6213.49998177
 21
3052.50004515
 31
0.00000001
  0
LINE
  5
12FB
330
2
100
AcDbEntity
  8
YKK_B1E
100
AcDbLine
 10
6224.49989753
 20
3052.50004515
 30
0.00000001
 11
6224.50003108
 21
2982.50004507
 31
0.00000001
  0
LINE
  5
12FC
330
2
100
AcDbEntity
  8
YKK_B1E
100
AcDbLine
 10
6253.00002977
 20
3009.50004507
 30
0.0
 11
6224.50001477
 21
3009.50004507
 31
0.0
  0
LINE
  5
12FD
330
2
100
AcDbEntity
  8
YKK_B1
100
AcDbLine
 10
6231.0
 20
3052.50004499
 30
0.0
 11
6231.0
 21
3057.50004499
 31
0.0
  0
LINE
  5
12FE
330
2
100
AcDbEntity
  8
YKK_B1
100
AcDbLine
 10
6231.0
 20
3057.50004499
 30
0.0
 11
6175.0
 21
3057.50004499
 31
0.0
  0
LINE
  5
12FF
330
2
100
AcDbEntity
  8
YKK_B1
100
AcDbLine
 10
6175.0
 20
3057.50004499
 30
0.0
 11
6175.0
 21
3041.50004511
 31
0.0
  0
LINE
  5
1300
330
2
100
AcDbEntity
  8
YKK_B1
100
AcDbLine
 10
6208.0
 20
2964.00004499
 30
0.0
 11
6208.0
 21
3057.50004499
 31
0.0
  0
LINE
  5
1301
330
2
100
AcDbEntity
  8
YKK_B1
100
AcDbLine
 10
6188.0
 20
2979.00004499
 30
0.0
 11
6208.0
 21
2979.00004499
 31
0.0
  0
LINE
  5
1302
330
2
100
AcDbEntity
  8
YKK_B1
100
AcDbLine
 10
6188.0
 20
2979.00004499
 30
0.0
 11
6188.0
 21
3057.50004499
 31
0.0
  0
LINE
  5
1303
330
2
100
AcDbEntity
  8
YKK_B1
100
AcDbLine
 10
6188.0
 20
2998.30004499
 30
0.0
 11
6208.0
 21
2998.30004499
 31
0.0
  0
LINE
  5
1304
330
2
100
AcDbEntity
  8
YKK_B1
100
AcDbLine
 10
6195.8
 20
2998.30004499
 30
0.0
 11
6195.8
 21
3014.10004499
 31
0.0
  0
LINE
  5
1305
330
2
100
AcDbEntity
  8
YKK_B1
100
AcDbLine
 10
6208.0
 20
3014.10004499
 30
0.0
 11
6188.0
 21
3014.10004499
 31
0.0
  0
LINE
  5
1306
330
2
100
AcDbEntity
  8
YKK_B1
100
AcDbLine
 10
6183.00000047
 20
2962.00004528
 30
0.0
 11
6183.00000047
 21
3041.50004511
 31
0.0
  0
LINE
  5
1307
330
2
100
AcDbEntity
  8
YKK_B1
100
AcDbLine
 10
6183.00000047
 20
3041.50004511
 30
0.0
 11
6134.0000005
 21
3041.50004511
 31
0.0
  0
LINE
  5
1308
330
2
100
AcDbEntity
  8
YKK_B1
100
AcDbLine
 10
6159.0000005
 20
3041.50004511
 30
0.0
 11
6159.0000005
 21
2934.50004511
 31
0.0
  0
LINE
  5
1309
330
2
100
AcDbEntity
  8
YKK_B1
100
AcDbLine
 10
6201.5
 20
2978.20004499
 30
0.0
 11
6186.0
 21
2978.20004499
 31
0.0
  0
LINE
  5
130A
330
2
100
AcDbEntity
  8
YKK_B1
100
AcDbLine
 10
6186.0
 20
2904.50004499
 30
0.0
 11
6189.0
 21
2904.50004499
 31
0.0
  0
LINE
  5
130B
330
2
100
AcDbEntity
  8
YKK_B1E
100
AcDbLine
 10
6229.00007377
 20
3003.90006007
 30
0.0
 11
6224.50001477
 21
3003.90006007
 31
0.0
  0
LINE
  5
130C
330
2
100
AcDbEntity
  8
YKK_B1E
100
AcDbLine
 10
6224.49993054
 20
3035.20001207
 30
0.00000001
 11
6212.99999977
 21
3035.20001207
 31
0.0
  0
LINE
  5
130D
330
2
100
AcDbEntity
  8
YKK_B1E
100
AcDbLine
 10
6216.50000177
 20
3015.50003007
 30
0.0
 11
6224.49996812
 21
3015.50003007
 31
0.00000001
  0
LINE
  5
130E
330
2
100
AcDbEntity
  8
YKK_B1E
100
AcDbLine
 10
6229.00007377
 20
2985.50004007
 30
0.0
 11
6229.00007377
 21
2982.50004507
 31
0.0
  0
LINE
  5
130F
330
2
100
AcDbEntity
  8
YKK_B1E
100
AcDbLine
 10
6229.00007377
 20
2982.50004507
 30
0.0
 11
6213.00001677
 21
2982.50004507
 31
0.0
  0
LINE
  5
1310
330
2
100
AcDbEntity
  8
YKK_B1E
100
AcDbLine
 10
6213.00001677
 20
2982.50004507
 30
0.0
 11
6213.00001677
 21
2985.00004007
 31
0.0
  0
LINE
  5
1311
330
2
100
AcDbEntity
  8
YKK_B1
100
AcDbLine
 10
6186.0
 20
2904.50004499
 30
0.0
 11
6186.0
 21
2978.20004499
 31
0.0
  0
LINE
  5
1312
330
2
100
AcDbEntity
  8
YKK_B1
100
AcDbLine
 10
6145.5000005
 20
2919.50004511
 30
0.0
 11
6143.0000005
 21
2919.50004511
 31
0.0
  0
LINE
  5
1313
330
2
100
AcDbEntity
  8
YKK_B1
100
AcDbLine
 10
6143.0000005
 20
2919.50004511
 30
0.0
 11
6143.0000005
 21
2934.50004511
 31
0.0
  0
LINE
  5
1314
330
2
100
AcDbEntity
  8
YKK_B1
100
AcDbLine
 10
6134.0000005
 20
2934.50004511
 30
0.0
 11
6173.0000005
 21
2934.50004511
 31
0.0
  0
LINE
  5
1315
330
2
100
AcDbEntity
  8
YKK_B1
100
AcDbLine
 10
6173.0000005
 20
2934.50004511
 30
0.0
 11
6173.0000005
 21
2962.00004528
 31
0.0
  0
LINE
  5
1316
330
2
100
AcDbEntity
  8
YKK_B1
100
AcDbLine
 10
6173.0000005
 20
2962.00004528
 30
0.0
 11
6183.0000005
 21
2962.00004528
 31
0.0
  0
LINE
  5
1317
330
2
100
AcDbEntity
  8
YKK_B1
100
AcDbLine
 10
6186.0
 20
2953.50004499
 30
0.0
 11
6173.0000005
 21
2953.50004499
 31
0.0
  0
LINE
  5
1318
330
2
100
AcDbEntity
  8
YKK_B1
100
AcDbLine
 10
6186.0
 20
2969.50004499
 30
0.0
 11
6183.0000005
 21
2969.50004499
 31
0.0
  0
LINE
  5
1319
330
2
100
AcDbEntity
  8
YKK_B1
100
AcDbLine
 10
6159.0000005
 20
3017.50004511
 30
0.0
 11
6133.0000005
 21
3017.50004511
 31
0.0
  0
LINE
  5
131A
330
2
100
AcDbEntity
  8
YKK_B1
100
AcDbLine
 10
6133.0000005
 20
3017.50004511
 30
0.0
 11
6133.0000005
 21
3006.50004511
 31
0.0
  0
LINE
  5
131B
330
2
100
AcDbEntity
  8
YKK_B1
100
AcDbLine
 10
6133.0000005
 20
3006.50004511
 30
0.0
 11
6159.0000005
 21
3006.50004511
 31
0.0
  0
LINE
  5
131C
330
2
100
AcDbEntity
  8
YKK_B1
100
AcDbLine
 10
6159.0000005
 20
2966.50004511
 30
0.0
 11
6133.0000005
 21
2966.50004511
 31
0.0
  0
LINE
  5
131D
330
2
100
AcDbEntity
  8
YKK_B1
100
AcDbLine
 10
6133.0000005
 20
2966.50004511
 30
0.0
 11
6133.0000005
 21
2955.50004511
 31
0.0
  0
LINE
  5
131E
330
2
100
AcDbEntity
  8
YKK_B1
100
AcDbLine
 10
6133.0000005
 20
2955.50004511
 30
0.0
 11
6159.0000005
 21
2955.50004511
 31
0.0
  0
LINE
  5
131F
330
2
100
AcDbEntity
  8
YKK_B1
100
AcDbLine
 10
6142.99990356
 20
2979.00004511
 30
0.0
 11
6067.00080839
 21
2979.00004511
 31
0.0
  0
LINE
  5
1320
330
2
100
AcDbEntity
  8
YKK_B1
100
AcDbLine
 10
6066.99990356
 20
2943.00004511
 30
0.0
 11
6142.99990356
 21
2943.00004511
 31
0.0
  0
LINE
  5
1321
330
2
100
AcDbEntity
  8
YKK_B1
100
AcDbLine
 10
6117.99990356
 20
2979.00004511
 30
0.0
 11
6117.99990356
 21
2943.00004511
 31
0.0
  0
LINE
  5
1322
330
2
100
AcDbEntity
  8
YKK_B1
100
AcDbLine
 10
6084.00080839
 20
2979.00435194
 30
0.0
 11
6084.00080839
 21
2943.00004511
 31
0.0
  0
LINE
  5
1323
330
2
100
AcDbEntity
  8
YKK_B1
100
AcDbLine
 10
4575.99773526
 20
3024.00219851
 30
0.0
 11
5294.49773526
 21
3024.00219851
 31
0.0
  0
LINE
  5
1324
330
2
100
AcDbEntity
  8
YKK_B1
100
AcDbLine
 10
5294.49773526
 20
3002.00219851
 30
0.0
 11
4575.99773526
 21
3002.00219851
 31
0.0
  0
LINE
  5
1325
330
2
100
AcDbEntity
  8
YKK_B1
100
AcDbLine
 10
5361.49658081
 20
2973.00219851
 30
0.0
 11
6079.99658081
 21
2973.00219851
 31
0.0
  0
LINE
  5
1326
330
2
100
AcDbEntity
  8
YKK_B1
100
AcDbLine
 10
6079.99658081
 20
2951.00219851
 30
0.0
 11
5361.49658081
 21
2951.00219851
 31
0.0
  0
LINE
  5
1327
330
2
100
AcDbEntity
  8
YKK_B1
100
AcDbLine
 10
4490.99999998
 20
3056.80003592
 30
0.0
 11
6165.0
 21
3056.80003592
 31
0.0
  0
LINE
  5
1328
330
2
100
AcDbEntity
  8
YKK_B1
100
AcDbLine
 10
6132.99976045
 20
2919.5000451
 30
0.0
 11
4522.99999948
 21
2919.5000451
 31
0.0
  0
TEXT
  5
1329
330
2
100
AcDbEntity
  8
YKK_N1
  6
Continuous
100
AcDbText
 10
6566.00056282
 20
2891.27655654
 30
0.0
 40
60.0
  1
27
 50
90.0
  7
MX_NOTE_STANDARD
 11
6536.00056282
 21
2891.27655654
 31
0.0
100
AcDbText
 73
     2
  0
TEXT
  5
132A
330
2
100
AcDbEntity
  8
YKK_N1
  6
Continuous
100
AcDbText
 10
6482.00056282
 20
2804.40909997
 30
0.0
 40
60.0
  1
15
 50
90.0
  7
MX_NOTE_STANDARD
 11
6452.00056282
 21
2804.40909997
 31
0.0
100
AcDbText
 73
     2
  0
LINE
  5
132B
330
2
100
AcDbEntity
  8
YKK_N1
  6
Continuous
100
AcDbLine
 10
6494.00056282
 20
3041.49973256
 30
0.0
 11
6494.00056282
 21
2961.49973256
 31
0.0
  0
CIRCLE
  5
132C
330
2
100
AcDbEntity
  8
YKK_N1
  6
Continuous
100
AcDbCircle
 10
6494.10681282
 20
3041.49973256
 30
0.0
 40
5.0
  0
LINE
  5
132D
330
2
100
AcDbEntity
  8
YKK_N1
  6
Continuous
100
AcDbLine
 10
6494.00056282
 20
2934.49973256
 30
0.0
 11
6494.00056282
 21
2961.49973256
 31
0.0
  0
CIRCLE
  5
132E
330
2
100
AcDbEntity
  8
YKK_N1
  6
Continuous
100
AcDbCircle
 10
6494.00056282
 20
2961.49973256
 30
0.0
 40
5.0
  0
LINE
  5
132F
330
2
100
AcDbEntity
  8
YKK_N1
  6
Continuous
100
AcDbLine
 10
6494.00056282
 20
2919.49973256
 30
0.0
 11
6494.00056282
 21
2934.49973256
 31
0.0
  0
CIRCLE
  5
1330
330
2
100
AcDbEntity
  8
YKK_N1
  6
Continuous
100
AcDbCircle
 10
6494.00056282
 20
2934.49973256
 30
0.0
 40
5.0
  0
CIRCLE
  5
1331
330
2
100
AcDbEntity
  8
YKK_N1
  6
Continuous
100
AcDbCircle
 10
6494.00056282
 20
2919.49973256
 30
0.0
 40
5.0
  0
LINE
  5
1332
330
2
100
AcDbEntity
  8
YKK_N1
  6
Continuous
100
AcDbLine
 10
6369.00056282
 20
3041.49973256
 30
0.0
 11
6494.00056282
 21
3041.49973256
 31
0.0
  0
LINE
  5
1333
330
2
100
AcDbEntity
  8
YKK_N1
  6
Continuous
100
AcDbLine
 10
6369.00056282
 20
2934.49973256
 30
0.0
 11
6494.00056282
 21
2934.49973256
 31
0.0
  0
LINE
  5
1334
330
2
100
AcDbEntity
  8
YKK_N1
  6
Continuous
100
AcDbLine
 10
6494.00056282
 20
2919.49973256
 30
0.0
 11
6369.00056282
 21
2919.49973256
 31
0.0
  0
LINE
  5
1335
330
2
100
AcDbEntity
  8
YKK_N1
  6
Continuous
100
AcDbLine
 10
6369.00056282
 20
2961.49973256
 30
0.0
 11
6494.00056282
 21
2961.49973256
 31
0.0
  0
TEXT
  5
1336
330
2
100
AcDbEntity
  8
YKK_N1
  6
Continuous
100
AcDbText
 10
6482.00056282
 20
3069.55787783
 30
0.0
 40
60.0
  1
80
 50
90.0
  7
MX_NOTE_STANDARD
 11
6452.00056282
 21
3069.55787783
 31
0.0
100
AcDbText
 73
     2
  0
TEXT
  5
1337
330
2
100
AcDbEntity
  8
YKK_N1
  6
Continuous
100
AcDbText
 10
4907.73027441
 20
3041.49881816
 30
0.0
 40
60.0
  1
107
 50
90.0
  7
MX_NOTE_STANDARD
 11
4877.73027441
 21
3041.49881816
 31
0.0
100
AcDbText
 73
     2
  0
CIRCLE
  5
1338
330
2
100
AcDbEntity
  8
YKK_N1
  6
Continuous
100
AcDbCircle
 10
4919.83652441
 20
2934.49883016
 30
0.0
 40
5.0
  0
CIRCLE
  5
1339
330
2
100
AcDbEntity
  8
YKK_N1
  6
Continuous
100
AcDbCircle
 10
4919.73027441
 20
3041.49881816
 30
0.0
 40
5.0
  0
LINE
  5
133A
330
2
100
AcDbEntity
  8
YKK_N1
  6
Continuous
100
AcDbLine
 10
4919.83652441
 20
3041.49881816
 30
0.0
 11
4919.83652441
 21
2934.49883016
 31
0.0
  0
LINE
  5
133B
330
2
100
AcDbEntity
  8
YKK_N1
  6
Continuous
100
AcDbLine
 10
5044.83652441
 20
2934.49883016
 30
0.0
 11
4919.83652441
 21
2934.49883016
 31
0.0
  0
LINE
  5
133C
330
2
100
AcDbEntity
  8
YKK_N1
  6
Continuous
100
AcDbLine
 10
5044.83652441
 20
3041.49881816
 30
0.0
 11
4919.83652441
 21
3041.49881816
 31
0.0
  0
CIRCLE
  5
133D
330
2
100
AcDbEntity
  8
YKK_N1
  6
Continuous
100
AcDbCircle
 10
4919.83652441
 20
2919.49883016
 30
0.0
 40
5.0
  0
LINE
  5
133E
330
2
100
AcDbEntity
  8
YKK_N1
  6
Continuous
100
AcDbLine
 10
5044.83652441
 20
2919.49883016
 30
0.0
 11
4919.83652441
 21
2919.49883016
 31
0.0
  0
LINE
  5
133F
330
2
100
AcDbEntity
  8
YKK_N1
100
AcDbLine
 10
4919.83652441
 20
2934.49883016
 30
0.0
 11
4919.83652441
 21
2919.49883016
 31
0.0
  0
TEXT
  5
1340
330
2
100
AcDbEntity
  8
YKK_N1
  6
Continuous
100
AcDbText
 10
4907.73027441
 20
2841.57186298
 30
0.0
 40
60.0
  1
15
 50
90.0
  7
MX_NOTE_STANDARD
 11
4877.73027441
 21
2841.57186298
 31
0.0
100
AcDbText
 73
     2
  0
LINE
  5
1341
330
2
100
AcDbEntity
  8
YKK_N1
  6
Continuous
100
AcDbLine
 10
4423.99999999
 20
2725.0
 30
0.0
 11
4423.99999999
 21
2000.0
 31
0.0
  0
LINE
  5
1342
330
2
100
AcDbEntity
  8
YKK_N1
  6
Continuous
100
AcDbLine
 10
4416.99999999
 20
2725.0
 30
0.0
 11
4416.99999999
 21
2000.0
 31
0.0
  0
LINE
  5
1343
330
2
100
AcDbEntity
  8
YKK_N1
100
AcDbLine
 10
4442.99999999
 20
2000.0
 30
0.0
 11
4423.99999999
 21
2000.0
 31
0.0
  0
LINE
  5
1344
330
2
100
AcDbEntity
  8
YKK_N1
100
AcDbLine
 10
4423.99999999
 20
2000.0
 30
0.0
 11
4416.99999999
 21
2000.0
 31
0.0
  0
CIRCLE
  5
1345
330
2
100
AcDbEntity
  8
YKK_N1
  6
Continuous
100
AcDbCircle
 10
4423.99999999
 20
2000.0
 30
0.0
 40
5.0
  0
CIRCLE
  5
1346
330
2
100
AcDbEntity
  8
YKK_N1
  6
Continuous
100
AcDbCircle
 10
4416.99999999
 20
2000.0
 30
0.0
 40
5.0
  0
TEXT
  5
1347
330
2
100
AcDbEntity
  8
YKK_N1
  6
Continuous
100
AcDbText
 10
4321.70033597
 20
2012.000003
 30
0.0
 40
60.0
  1
7
  7
MX_NOTE_STANDARD
100
AcDbText
  0
TEXT
  5
1348
330
2
100
AcDbEntity
  8
YKK_N1
  6
Continuous
100
AcDbText
 10
4390.33393158
 20
1903.04589779
 30
0.0
 40
60.0
  1
19
  7
MX_NOTE_STANDARD
100
AcDbText
  0
LINE
  5
1349
330
2
100
AcDbEntity
  8
YKK_N1
  6
Continuous
100
AcDbLine
 10
6231.99999999
 20
2725.0
 30
0.0
 11
6231.99999999
 21
2000.0
 31
0.0
  0
LINE
  5
134A
330
2
100
AcDbEntity
  8
YKK_N1
  6
Continuous
100
AcDbLine
 10
6238.99999999
 20
2725.0
 30
0.0
 11
6238.99999999
 21
2000.0
 31
0.0
  0
LINE
  5
134B
330
2
100
AcDbEntity
  8
YKK_N1
100
AcDbLine
 10
6212.99999999
 20
2000.0
 30
0.0
 11
6231.99999999
 21
2000.0
 31
0.0
  0
LINE
  5
134C
330
2
100
AcDbEntity
  8
YKK_N1
100
AcDbLine
 10
6231.99999999
 20
2000.0
 30
0.0
 11
6238.99999999
 21
2000.0
 31
0.0
  0
CIRCLE
  5
134D
330
2
100
AcDbEntity
  8
YKK_N1
  6
Continuous
100
AcDbCircle
 10
6231.99999999
 20
2000.0
 30
0.0
 40
5.0
  0
CIRCLE
  5
134E
330
2
100
AcDbEntity
  8
YKK_N1
  6
Continuous
100
AcDbCircle
 10
6238.99999999
 20
2000.0
 30
0.0
 40
5.0
  0
TEXT
  5
134F
330
2
100
AcDbEntity
  8
YKK_N1
  6
Continuous
100
AcDbText
 10
6271.22577637
 20
2012.000003
 30
0.0
 40
60.0
  1
7
  7
MX_NOTE_STANDARD
100
AcDbText
  0
TEXT
  5
1350
330
2
100
AcDbEntity
  8
YKK_N1
  6
Continuous
100
AcDbText
 10
6185.6660684
 20
1903.04589779
 30
0.0
 40
60.0
  1
19
  7
MX_NOTE_STANDARD
100
AcDbText
  0
LINE
  5
1351
330
2
100
AcDbEntity
  8
YKK_C1E
100
AcDbLine
 10
8078.50000143
 20
7097.0500667
 30
0.0
 11
8078.50000143
 21
7122.15014219
 31
0.0
  0
LINE
  5
1352
330
2
100
AcDbEntity
  8
YKK_C1E
100
AcDbLine
 10
8078.50000143
 20
7122.15014219
 30
0.0
 11
8105.93039195
 21
7124.5500207
 31
0.0
  0
LINE
  5
1353
330
2
100
AcDbEntity
  8
YKK_C1E
100
AcDbLine
 10
8105.93039195
 20
7124.5500207
 30
0.0
 11
8131.99994057
 21
7124.5500207
 31
0.0
  0
LINE
  5
1354
330
2
100
AcDbEntity
  8
YKK_C1E
100
AcDbLine
 10
8131.99994057
 20
7096.7500817
 30
0.0
 11
8131.99994057
 21
7126.7501207
 31
0.0
  0
LINE
  5
1355
330
2
100
AcDbEntity
  8
YKK_C1E
100
AcDbLine
 10
8096.99992524
 20
7096.7500657
 30
0.0
 11
8096.99992524
 21
7123.76869623
 31
0.0
  0
LINE
  5
1356
330
2
100
AcDbEntity
  8
YKK_C1E
100
AcDbLine
 10
8145.99992543
 20
7097.7500967
 30
0.0
 11
8148.49998643
 21
7097.7500967
 31
0.0
  0
LINE
  5
1357
330
2
100
AcDbEntity
  8
YKK_C1E
100
AcDbLine
 10
8148.49998643
 20
7097.7500967
 30
0.0
 11
8148.49998643
 21
7126.7500987
 31
0.0
  0
LINE
  5
1358
330
2
100
AcDbEntity
  8
YKK_C1E
100
AcDbLine
 10
8148.49998643
 20
7126.7500987
 30
0.0
 11
8146.49999043
 21
7126.7500987
 31
0.0
  0
LINE
  5
1359
330
2
100
AcDbEntity
  8
YKK_C1E
100
AcDbLine
 10
8121.49998643
 20
7151.7500967
 30
0.0
 11
8121.49998643
 21
7124.5500207
 31
0.0
  0
LINE
  5
135A
330
2
100
AcDbEntity
  8
YKK_C1E
100
AcDbLine
 10
8148.49998643
 20
7118.75002196
 30
0.0
 11
8131.99994057
 21
7118.75002196
 31
0.0
  0
LINE
  5
135B
330
2
100
AcDbEntity
  8
YKK_C1E
100
AcDbLine
 10
8146.50009455
 20
4926.25013502
 30
0.0
 11
8148.50009455
 21
4926.25013502
 31
0.0
  0
LINE
  5
135C
330
2
100
AcDbEntity
  8
YKK_C1E
100
AcDbLine
 10
8148.50009455
 20
4926.25013502
 30
0.0
 11
8148.50009455
 21
4971.25013502
 31
0.0
  0
LINE
  5
135D
330
2
100
AcDbEntity
  8
YKK_C1E
100
AcDbLine
 10
8146.50007205
 20
4971.25013502
 30
0.0
 11
8163.50009455
 21
4971.25013502
 31
0.0
  0
LINE
  5
135E
330
2
100
AcDbEntity
  8
YKK_C1E
100
AcDbLine
 10
8163.50009455
 20
4972.25013502
 30
0.0
 11
8163.50009455
 21
4968.75013502
 31
0.0
  0
LINE
  5
135F
330
2
100
AcDbEntity
  8
YKK_C1E
100
AcDbLine
 10
8130.60009455
 20
4926.25023663
 30
0.0
 11
8130.60009455
 21
4964.25010402
 31
0.0
  0
LINE
  5
1360
330
2
100
AcDbEntity
  8
YKK_C1E
100
AcDbLine
 10
8130.60009455
 20
4926.25023663
 30
0.0
 11
8078.50000255
 21
4926.25023663
 31
0.0
  0
LINE
  5
1361
330
2
100
AcDbEntity
  8
YKK_C1E
100
AcDbLine
 10
8078.50000255
 20
4919.25009002
 30
0.0
 11
8078.50000255
 21
4934.75010402
 31
0.0
  0
LINE
  5
1362
330
2
100
AcDbEntity
  8
YKK_C1E
100
AcDbLine
 10
8095.30011434
 20
4946.25008902
 30
0.0
 11
8095.30011434
 21
4926.25023663
 31
0.0
  0
LINE
  5
1363
330
2
100
AcDbEntity
  8
YKK_C1E
100
AcDbLine
 10
8095.30011434
 20
4935.25008654
 30
0.0
 11
8130.60009455
 21
4935.25008654
 31
0.0
  0
LINE
  5
1364
330
2
100
AcDbEntity
  8
YKK_C1E
100
AcDbLine
 10
8130.60009455
 20
4953.26055321
 30
0.0
 11
8148.50009455
 21
4953.26055321
 31
0.0
  0
LINE
  5
1365
330
2
100
AcDbEntity
  8
YKK_C1E
100
AcDbLine
 10
8121.50009455
 20
4906.25013502
 30
0.0
 11
8121.50009455
 21
4926.25023663
 31
0.0
  0
LINE
  5
1366
330
2
100
AcDbEntity
  8
YKK_C1
100
AcDbLine
 10
8211.50001449
 20
7032.25011977
 30
0.0
 11
8211.50001449
 21
7029.75011977
 31
0.0
  0
LINE
  5
1367
330
2
100
AcDbEntity
  8
YKK_C1
100
AcDbLine
 10
8211.50001449
 20
7029.75011977
 30
0.0
 11
8196.50001449
 21
7029.75011977
 31
0.0
  0
LINE
  5
1368
330
2
100
AcDbEntity
  8
YKK_C1
100
AcDbLine
 10
8196.50001449
 20
7020.75011977
 30
0.0
 11
8196.50001449
 21
7086.7501202
 31
0.0
  0
LINE
  5
1369
330
2
100
AcDbEntity
  8
YKK_C1
100
AcDbLine
 10
8226.49910215
 20
7086.7501202
 30
0.0
 11
8152.99910344
 21
7086.7501202
 31
0.0
  0
LINE
  5
136A
330
2
100
AcDbEntity
  8
YKK_C1
100
AcDbLine
 10
8152.99910344
 20
7086.7501202
 30
0.0
 11
8109.49910087
 21
7072.9501202
 31
0.0
  0
LINE
  5
136B
330
2
100
AcDbEntity
  8
YKK_C1
100
AcDbLine
 10
8109.49910087
 20
7072.9501202
 30
0.0
 11
8089.49910215
 21
7072.9501202
 31
0.0
  0
LINE
  5
136C
330
2
100
AcDbEntity
  8
YKK_C1
100
AcDbLine
 10
8109.49910215
 20
7069.7501202
 30
0.0
 11
8109.49910215
 21
7072.95012061
 31
0.0
  0
LINE
  5
136D
330
2
100
AcDbEntity
  8
YKK_C1
100
AcDbLine
 10
8089.49910215
 20
7069.7501202
 30
0.0
 11
8089.49910215
 21
7086.7501202
 31
0.0
  0
LINE
  5
136E
330
2
100
AcDbEntity
  8
YKK_C1
100
AcDbLine
 10
8089.50000182
 20
7066.15014257
 30
0.0
 11
8072.50000182
 21
7066.15014257
 31
0.0
  0
LINE
  5
136F
330
2
100
AcDbEntity
  8
YKK_C1
100
AcDbLine
 10
8072.50000182
 20
7066.15014257
 30
0.0
 11
8072.50000183
 21
7122.15014222
 31
0.0
  0
LINE
  5
1370
330
2
100
AcDbEntity
  8
YKK_C1
100
AcDbLine
 10
8196.50001449
 20
7059.75011977
 30
0.0
 11
8169.49910215
 21
7059.7501202
 31
0.0
  0
LINE
  5
1371
330
2
100
AcDbEntity
  8
YKK_C1
100
AcDbLine
 10
8169.49910215
 20
7059.7501202
 30
0.0
 11
8169.49910215
 21
7078.9501202
 31
0.0
  0
LINE
  5
1372
330
2
100
AcDbEntity
  8
YKK_C1
100
AcDbLine
 10
8152.99910215
 20
7069.75011977
 30
0.0
 11
8152.99910215
 21
7086.7501198
 31
0.0
  0
LINE
  5
1373
330
2
100
AcDbEntity
  8
YKK_C1
100
AcDbLine
 10
8170.79910215
 20
7086.7501202
 30
0.0
 11
8170.79910215
 21
7078.9501202
 31
0.0
  0
LINE
  5
1374
330
2
100
AcDbEntity
  8
YKK_C1
100
AcDbLine
 10
8170.79910215
 20
7078.9501202
 30
0.0
 11
8152.99910215
 21
7078.9501202
 31
0.0
  0
LINE
  5
1375
330
2
100
AcDbEntity
  8
YKK_C1
  6
Continuous
370
    13
100
AcDbLine
 10
8152.99910215
 20
7083.33742183
 30
0.0
 11
8156.41180055
 21
7086.75012022
 31
0.0
  0
LINE
  5
1376
330
2
100
AcDbEntity
  8
YKK_C1
100
AcDbLine
 10
8089.50001449
 20
7020.75011978
 30
0.0
 11
8089.50001449
 21
7069.75011977
 31
0.0
  0
LINE
  5
1377
330
2
100
AcDbEntity
  8
YKK_C1
100
AcDbLine
 10
8089.50001449
 20
7069.75011977
 30
0.0
 11
8169.49910215
 21
7069.75011977
 31
0.0
  0
LINE
  5
1378
330
2
100
AcDbEntity
  8
YKK_C1
100
AcDbLine
 10
8089.50001449
 20
7045.75011977
 30
0.0
 11
8196.50001449
 21
7045.75011977
 31
0.0
  0
LINE
  5
1379
330
2
100
AcDbEntity
  8
YKK_C1
100
AcDbLine
 10
8113.50001449
 20
7045.75011977
 30
0.0
 11
8113.50001449
 21
7019.75011977
 31
0.0
  0
LINE
  5
137A
330
2
100
AcDbEntity
  8
YKK_C1
100
AcDbLine
 10
8113.50001449
 20
7019.75011977
 30
0.0
 11
8124.50001449
 21
7019.75011977
 31
0.0
  0
LINE
  5
137B
330
2
100
AcDbEntity
  8
YKK_C1
100
AcDbLine
 10
8124.50001449
 20
7019.75011977
 30
0.0
 11
8124.50001449
 21
7045.75011977
 31
0.0
  0
LINE
  5
137C
330
2
100
AcDbEntity
  8
YKK_C1
100
AcDbLine
 10
8164.50001449
 20
7045.75011977
 30
0.0
 11
8164.50001449
 21
7019.75011977
 31
0.0
  0
LINE
  5
137D
330
2
100
AcDbEntity
  8
YKK_C1
100
AcDbLine
 10
8164.50001449
 20
7019.75011977
 30
0.0
 11
8175.50001449
 21
7019.75011977
 31
0.0
  0
LINE
  5
137E
330
2
100
AcDbEntity
  8
YKK_C1
100
AcDbLine
 10
8175.50001449
 20
7019.75011977
 30
0.0
 11
8175.50001449
 21
7045.75011977
 31
0.0
  0
LINE
  5
137F
330
2
100
AcDbEntity
  8
YKK_C1
100
AcDbLine
 10
8101.00001449
 20
7028.75011977
 30
0.0
 11
8101.00001449
 21
6952.75079655
 31
0.0
  0
LINE
  5
1380
330
2
100
AcDbEntity
  8
YKK_C1
100
AcDbLine
 10
8137.00001449
 20
7028.75011977
 30
0.0
 11
8137.00001449
 21
6952.75011977
 31
0.0
  0
LINE
  5
1381
330
2
100
AcDbEntity
  8
YKK_C1
100
AcDbLine
 10
8152.00001449
 20
7028.75011977
 30
0.0
 11
8152.00001449
 21
6952.75079654
 31
0.0
  0
LINE
  5
1382
330
2
100
AcDbEntity
  8
YKK_C1
100
AcDbLine
 10
8188.00001449
 20
7028.75011977
 30
0.0
 11
8188.00001449
 21
6952.75011977
 31
0.0
  0
LINE
  5
1383
330
2
100
AcDbEntity
  8
YKK_C1
100
AcDbLine
 10
8101.00001449
 20
7003.75011977
 30
0.0
 11
8137.00001449
 21
7003.75011977
 31
0.0
  0
LINE
  5
1384
330
2
100
AcDbEntity
  8
YKK_C1
100
AcDbLine
 10
8101.00034225
 20
6969.75011977
 30
0.0
 11
8137.00001449
 21
6969.75011977
 31
0.0
  0
LINE
  5
1385
330
2
100
AcDbEntity
  8
YKK_C1
100
AcDbLine
 10
8152.00001449
 20
7003.75011977
 30
0.0
 11
8188.00001449
 21
7003.75011977
 31
0.0
  0
LINE
  5
1386
330
2
100
AcDbEntity
  8
YKK_C1
100
AcDbLine
 10
8152.00001449
 20
6969.75011977
 30
0.0
 11
8188.00001449
 21
6969.75011977
 31
0.0
  0
LINE
  5
1387
330
2
100
AcDbEntity
  8
YKK_C1
100
AcDbLine
 10
8101.00001449
 20
5021.75011979
 30
0.0
 11
8101.00001449
 21
5097.74944301
 31
0.0
  0
LINE
  5
1388
330
2
100
AcDbEntity
  8
YKK_C1
100
AcDbLine
 10
8137.00001449
 20
5021.75011979
 30
0.0
 11
8137.00001449
 21
5097.75011979
 31
0.0
  0
LINE
  5
1389
330
2
100
AcDbEntity
  8
YKK_C1
100
AcDbLine
 10
8152.00001449
 20
5021.75011979
 30
0.0
 11
8152.00001449
 21
5097.74944301
 31
0.0
  0
LINE
  5
138A
330
2
100
AcDbEntity
  8
YKK_C1
100
AcDbLine
 10
8188.00001449
 20
5021.75011979
 30
0.0
 11
8188.00001449
 21
5097.75011979
 31
0.0
  0
LINE
  5
138B
330
2
100
AcDbEntity
  8
YKK_C1
100
AcDbLine
 10
8101.00001449
 20
5046.75011979
 30
0.0
 11
8137.00001449
 21
5046.75011979
 31
0.0
  0
LINE
  5
138C
330
2
100
AcDbEntity
  8
YKK_C1
100
AcDbLine
 10
8101.00034225
 20
5080.75011979
 30
0.0
 11
8137.00001449
 21
5080.75011979
 31
0.0
  0
LINE
  5
138D
330
2
100
AcDbEntity
  8
YKK_C1
100
AcDbLine
 10
8152.00001449
 20
5046.75011979
 30
0.0
 11
8188.00001449
 21
5046.75011979
 31
0.0
  0
LINE
  5
138E
330
2
100
AcDbEntity
  8
YKK_C1
100
AcDbLine
 10
8152.00001449
 20
5080.75011979
 30
0.0
 11
8188.00001449
 21
5080.75011979
 31
0.0
  0
LINE
  5
138F
330
2
100
AcDbEntity
  8
YKK_C1
100
AcDbLine
 10
8074.20090377
 20
4906.7501202
 30
0.0
 11
8074.20090377
 21
4979.75012021
 31
0.0
  0
LINE
  5
1390
330
2
100
AcDbEntity
  8
YKK_C1
100
AcDbLine
 10
8074.20090377
 20
4979.75012021
 30
0.0
 11
8105.60090377
 21
4979.7501202
 31
0.0
  0
LINE
  5
1391
330
2
100
AcDbEntity
  8
YKK_C1
100
AcDbLine
 10
8110.20001449
 20
4974.15011977
 30
0.0
 11
8105.60001449
 21
4974.15011977
 31
0.0
  0
LINE
  5
1392
330
2
100
AcDbEntity
  8
YKK_C1
100
AcDbLine
 10
8105.60001449
 20
4974.15011977
 30
0.0
 11
8105.60090377
 21
4979.7501202
 31
0.0
  0
LINE
  5
1393
330
2
100
AcDbEntity
  8
YKK_C1
100
AcDbLine
 10
8211.5000145
 20
4989.75011977
 30
0.0
 11
8169.00001449
 21
4989.75011977
 31
0.0
  0
LINE
  5
1394
330
2
100
AcDbEntity
  8
YKK_C1
100
AcDbLine
 10
8169.00001449
 20
4989.75011977
 30
0.0
 11
8169.00001449
 21
4979.75011977
 31
0.0
  0
LINE
  5
1395
330
2
100
AcDbEntity
  8
YKK_C1
100
AcDbLine
 10
8169.00001449
 20
4979.75011977
 30
0.0
 11
8089.50001449
 21
4979.75012021
 31
0.0
  0
LINE
  5
1396
330
2
100
AcDbEntity
  8
YKK_C1
100
AcDbLine
 10
8089.50001449
 20
4979.75012021
 30
0.0
 11
8089.50001449
 21
5028.75011977
 31
0.0
  0
LINE
  5
1397
330
2
100
AcDbEntity
  8
YKK_C1
100
AcDbLine
 10
8171.10000296
 20
4973.7501202
 30
0.0
 11
8117.70000296
 21
4973.7501202
 31
0.0
  0
LINE
  5
1398
330
2
100
AcDbEntity
  8
YKK_C1
100
AcDbLine
 10
8117.70000296
 20
4973.7501202
 30
0.0
 11
8117.70000296
 21
4979.7501202
 31
0.0
  0
LINE
  5
1399
330
2
100
AcDbEntity
  8
YKK_C1
100
AcDbLine
 10
8171.10000296
 20
4973.7501202
 30
0.0
 11
8171.10000296
 21
4989.7501202
 31
0.0
  0
LINE
  5
139A
330
2
100
AcDbEntity
  8
YKK_C1
100
AcDbLine
 10
8226.50000296
 20
4973.7501202
 30
0.0
 11
8226.50000296
 21
4976.9501202
 31
0.0
  0
LINE
  5
139B
330
2
100
AcDbEntity
  8
YKK_C1
100
AcDbLine
 10
8226.50000296
 20
4976.9501202
 30
0.0
 11
8197.20000296
 21
4976.9501202
 31
0.0
  0
LINE
  5
139C
330
2
100
AcDbEntity
  8
YKK_C1
100
AcDbLine
 10
8197.20000296
 20
4976.9501202
 30
0.0
 11
8197.20000296
 21
4989.7501202
 31
0.0
  0
LINE
  5
139D
330
2
100
AcDbEntity
  8
YKK_C1
100
AcDbLine
 10
8211.00000296
 20
4973.7501202
 30
0.0
 11
8211.00000296
 21
4976.9501202
 31
0.0
  0
LINE
  5
139E
330
2
100
AcDbEntity
  8
YKK_C1
100
AcDbLine
 10
8178.60000296
 20
4989.75011977
 30
0.0
 11
8178.60000296
 21
4979.7501202
 31
0.0
  0
LINE
  5
139F
330
2
100
AcDbEntity
  8
YKK_C1
100
AcDbLine
 10
8178.60000296
 20
4979.7501202
 30
0.0
 11
8197.20000296
 21
4979.7501202
 31
0.0
  0
LINE
  5
13A0
330
2
100
AcDbEntity
  8
YKK_C1
100
AcDbLine
 10
8211.50001449
 20
5026.25011977
 30
0.0
 11
8211.50001449
 21
5028.75011977
 31
0.0
  0
LINE
  5
13A1
330
2
100
AcDbEntity
  8
YKK_C1
100
AcDbLine
 10
8211.50001449
 20
5028.75011977
 30
0.0
 11
8196.50001449
 21
5028.75011977
 31
0.0
  0
LINE
  5
13A2
330
2
100
AcDbEntity
  8
YKK_C1
100
AcDbLine
 10
8196.50001449
 20
4989.75011977
 30
0.0
 11
8196.50001449
 21
5028.75011977
 31
0.0
  0
LINE
  5
13A3
330
2
100
AcDbEntity
  8
YKK_C1
100
AcDbLine
 10
8089.50001449
 20
5003.75011977
 30
0.0
 11
8196.50001449
 21
5003.75011977
 31
0.0
  0
LINE
  5
13A4
330
2
100
AcDbEntity
  8
YKK_C1
100
AcDbLine
 10
8113.50001449
 20
5003.75011977
 30
0.0
 11
8113.50001449
 21
5029.75011977
 31
0.0
  0
LINE
  5
13A5
330
2
100
AcDbEntity
  8
YKK_C1
100
AcDbLine
 10
8113.50001449
 20
5029.75011977
 30
0.0
 11
8124.50001449
 21
5029.75011977
 31
0.0
  0
LINE
  5
13A6
330
2
100
AcDbEntity
  8
YKK_C1
100
AcDbLine
 10
8124.50001449
 20
5029.75011977
 30
0.0
 11
8124.50001449
 21
5003.75011977
 31
0.0
  0
LINE
  5
13A7
330
2
100
AcDbEntity
  8
YKK_C1
100
AcDbLine
 10
8164.50001449
 20
5003.75011977
 30
0.0
 11
8164.50001449
 21
5029.75011977
 31
0.0
  0
LINE
  5
13A8
330
2
100
AcDbEntity
  8
YKK_C1
100
AcDbLine
 10
8164.50001449
 20
5029.75011977
 30
0.0
 11
8175.50001449
 21
5029.75011977
 31
0.0
  0
LINE
  5
13A9
330
2
100
AcDbEntity
  8
YKK_C1
100
AcDbLine
 10
8175.50001449
 20
5029.75011977
 30
0.0
 11
8175.50001449
 21
5003.75011977
 31
0.0
  0
LINE
  5
13AA
330
2
100
AcDbEntity
  8
YKK_C1
100
AcDbLine
 10
8107.00017838
 20
6965.75011978
 30
0.0
 11
8107.00017838
 21
5084.75011978
 31
0.0
  0
LINE
  5
13AB
330
2
100
AcDbEntity
  8
YKK_C1
100
AcDbLine
 10
8129.00017838
 20
5084.75011978
 30
0.0
 11
8129.00017838
 21
6965.75011978
 31
0.0
  0
LINE
  5
13AC
330
2
100
AcDbEntity
  8
YKK_C1
100
AcDbLine
 10
8158.00017838
 20
6965.75011978
 30
0.0
 11
8158.00017838
 21
5084.75011978
 31
0.0
  0
LINE
  5
13AD
330
2
100
AcDbEntity
  8
YKK_C1
100
AcDbLine
 10
8180.00017838
 20
5084.75011978
 30
0.0
 11
8180.00017838
 21
6965.75011978
 31
0.0
  0
LINE
  5
13AE
330
2
100
AcDbEntity
  8
YKK_C1
100
AcDbLine
 10
8073.48786982
 20
7056.15014257
 30
0.0
 11
8073.48787094
 21
4904.75012021
 31
0.0
  0
LINE
  5
13AF
330
2
100
AcDbEntity
  8
YKK_C1
100
AcDbLine
 10
8211.50000297
 20
7019.75012021
 30
0.0
 11
8211.50000297
 21
5038.75011977
 31
0.0
  0
TEXT
  5
13B0
330
2
100
AcDbEntity
  8
YKK_N1
  6
Continuous
100
AcDbText
 10
8719.0
 20
5758.16875055
 30
0.0
 40
60.0
  1
新設窓H=2030
 50
90.0
 41
1.122581
  7
MX_NOTE_STANDARD
 11
8689.0
 21
5758.16875055
 31
0.0
100
AcDbText
 73
     2
  0
TEXT
  5
13B1
330
2
100
AcDbEntity
  8
YKK_N1
  6
Continuous
100
AcDbText
 10
8719.0
 20
7149.00066313
 30
0.0
 40
60.0
  1
27
 50
90.0
  7
MX_NOTE_STANDARD
 11
8689.0
 21
7149.00066313
 31
0.0
100
AcDbText
 73
     2
  0
LINE
  5
13B2
330
2
100
AcDbEntity
  8
YKK_N1
  6
Continuous
100
AcDbLine
 10
8681.0
 20
6973.14757921
 30
0.0
 11
8781.0
 21
6973.14757921
 31
0.0
  0
LINE
  5
13B3
330
2
100
AcDbEntity
  8
YKK_N1
  6
Continuous
100
AcDbLine
 10
8681.0
 20
6973.14757921
 30
0.0
 11
8731.0
 21
7059.75012021
 31
0.0
  0
CIRCLE
  5
13B4
330
2
100
AcDbEntity
  8
YKK_N1
  6
Continuous
100
AcDbCircle
 10
8531.0
 20
7059.75012021
 30
0.0
 40
5.0
  0
CIRCLE
  5
13B5
330
2
100
AcDbEntity
  8
YKK_N1
  6
Continuous
100
AcDbCircle
 10
8531.0
 20
7029.75012021
 30
0.0
 40
5.0
  0
LINE
  5
13B6
330
2
100
AcDbEntity
  8
YKK_N1
  6
Continuous
100
AcDbLine
 10
8531.0
 20
7029.75012021
 30
0.0
 11
8531.0
 21
7059.75012021
 31
0.0
  0
LINE
  5
13B7
330
2
100
AcDbEntity
  8
YKK_N1
  6
Continuous
100
AcDbLine
 10
8731.0
 20
7086.75012021
 30
0.0
 11
8731.0
 21
7059.75012021
 31
0.0
  0
CIRCLE
  5
13B8
330
2
100
AcDbEntity
  8
YKK_N1
  6
Continuous
100
AcDbCircle
 10
8731.0
 20
7086.75012021
 30
0.0
 40
5.0
  0
LINE
  5
13B9
330
2
100
AcDbEntity
  8
YKK_N1
  6
Continuous
100
AcDbLine
 10
8781.0
 20
6973.14757921
 30
0.0
 11
8731.0
 21
7059.75012021
 31
0.0
  0
LINE
  5
13BA
330
2
100
AcDbEntity
  8
YKK_N1
  6
Continuous
100
AcDbLine
 10
8681.0
 20
5116.35306021
 30
0.0
 11
8781.0
 21
5116.35306021
 31
0.0
  0
LINE
  5
13BB
330
2
100
AcDbEntity
  8
YKK_N1
  6
Continuous
100
AcDbLine
 10
8681.0
 20
5116.35306021
 30
0.0
 11
8731.0
 21
5029.75052021
 31
0.0
  0
LINE
  5
13BC
330
2
100
AcDbEntity
  8
YKK_N1
  6
Continuous
100
AcDbLine
 10
8781.0
 20
5116.35306021
 30
0.0
 11
8731.0
 21
5029.75052021
 31
0.0
  0
LINE
  5
13BD
330
2
100
AcDbEntity
  8
YKK_N1
  6
Continuous
100
AcDbLine
 10
8731.0
 20
7059.75012021
 30
0.0
 11
8731.0
 21
5029.75012021
 31
0.0
  0
LINE
  5
13BE
330
2
100
AcDbEntity
  8
YKK_N1
  6
Continuous
100
AcDbLine
 10
8406.0
 20
5029.75012021
 30
0.0
 11
8731.0
 21
5029.75012021
 31
0.0
  0
LINE
  5
13BF
330
2
100
AcDbEntity
  8
YKK_N1
  6
Continuous
100
AcDbLine
 10
8406.0
 20
7086.75012021
 30
0.0
 11
8931.0
 21
7086.75012021
 31
0.0
  0
LINE
  5
13C0
330
2
100
AcDbEntity
  8
YKK_N1
  6
Continuous
100
AcDbLine
 10
8406.0
 20
7059.75012021
 30
0.0
 11
8731.0
 21
7059.75012021
 31
0.0
  0
LINE
  5
13C1
330
2
100
AcDbEntity
  8
YKK_N1
  6
Continuous
100
AcDbLine
 10
8406.0
 20
7029.75012021
 30
0.0
 11
8531.0
 21
7029.75012021
 31
0.0
  0
TEXT
  5
13C2
330
2
100
AcDbEntity
  8
YKK_N1
  6
Continuous
100
AcDbText
 10
8519.0
 20
6921.72824721
 30
0.0
 40
60.0
  1
30
 50
90.0
  7
MX_NOTE_STANDARD
 11
8489.0
 21
6921.72824721
 31
0.0
100
AcDbText
 73
     2
  0
LINE
  5
13C3
330
2
100
AcDbEntity
  8
YKK_N1
  6
Continuous
100
AcDbLine
 10
8931.0
 20
7086.75012021
 30
0.0
 11
8931.0
 21
4972.25012021
 31
0.0
  0
LINE
  5
13C4
330
2
100
AcDbEntity
  8
YKK_N1
  6
Continuous
100
AcDbLine
 10
9131.0
 20
7096.75012021
 30
0.0
 11
9131.0
 21
4972.25012021
 31
0.0
  0
LINE
  5
13C5
330
2
100
AcDbEntity
  8
YKK_N1
  6
Continuous
100
AcDbLine
 10
8406.0
 20
7096.75012021
 30
0.0
 11
9131.0
 21
7096.75012021
 31
0.0
  0
LINE
  5
13C6
330
2
100
AcDbEntity
  8
YKK_N1
100
AcDbLine
 10
8931.0
 20
7086.75012021
 30
0.0
 11
8931.0
 21
7096.75012021
 31
0.0
  0
LINE
  5
13C7
330
2
100
AcDbEntity
  8
YKK_N1
  6
Continuous
100
AcDbLine
 10
8881.0
 20
7000.14757921
 30
0.0
 11
8981.0
 21
7000.14757921
 31
0.0
  0
LINE
  5
13C8
330
2
100
AcDbEntity
  8
YKK_N1
  6
Continuous
100
AcDbLine
 10
8881.0
 20
7000.14757921
 30
0.0
 11
8931.0
 21
7086.75012021
 31
0.0
  0
LINE
  5
13C9
330
2
100
AcDbEntity
  8
YKK_N1
  6
Continuous
100
AcDbLine
 10
8981.0
 20
7000.14757921
 30
0.0
 11
8931.0
 21
7086.75012021
 31
0.0
  0
LINE
  5
13CA
330
2
100
AcDbEntity
  8
YKK_N1
  6
Continuous
100
AcDbLine
 10
9081.0
 20
7010.14757921
 30
0.0
 11
9181.0
 21
7010.14757921
 31
0.0
  0
LINE
  5
13CB
330
2
100
AcDbEntity
  8
YKK_N1
  6
Continuous
100
AcDbLine
 10
9081.0
 20
7010.14757921
 30
0.0
 11
9131.0
 21
7096.75012021
 31
0.0
  0
LINE
  5
13CC
330
2
100
AcDbEntity
  8
YKK_N1
  6
Continuous
100
AcDbLine
 10
9181.0
 20
7010.14757921
 30
0.0
 11
9131.0
 21
7096.75012021
 31
0.0
  0
CIRCLE
  5
13CD
330
2
100
AcDbEntity
  8
YKK_N1
  6
Continuous
100
AcDbCircle
 10
8931.0
 20
7096.75012021
 30
0.0
 40
5.0
  0
LINE
  5
13CE
330
2
100
AcDbEntity
  8
YKK_N1
  6
Continuous
100
AcDbLine
 10
8881.0
 20
5058.85266021
 30
0.0
 11
8981.0
 21
5058.85266021
 31
0.0
  0
LINE
  5
13CF
330
2
100
AcDbEntity
  8
YKK_N1
  6
Continuous
100
AcDbLine
 10
8881.0
 20
5058.85266021
 30
0.0
 11
8931.0
 21
4972.25012021
 31
0.0
  0
LINE
  5
13D0
330
2
100
AcDbEntity
  8
YKK_N1
  6
Continuous
100
AcDbLine
 10
8981.0
 20
5058.85266021
 30
0.0
 11
8931.0
 21
4972.25012021
 31
0.0
  0
LINE
  5
13D1
330
2
100
AcDbEntity
  8
YKK_N1
  6
Continuous
100
AcDbLine
 10
9081.0
 20
5058.85266021
 30
0.0
 11
9181.0
 21
5058.85266021
 31
0.0
  0
LINE
  5
13D2
330
2
100
AcDbEntity
  8
YKK_N1
  6
Continuous
100
AcDbLine
 10
9081.0
 20
5058.85266021
 30
0.0
 11
9131.0
 21
4972.25012021
 31
0.0
  0
LINE
  5
13D3
330
2
100
AcDbEntity
  8
YKK_N1
  6
Continuous
100
AcDbLine
 10
9181.0
 20
5058.85266021
 30
0.0
 11
9131.0
 21
4972.25012021
 31
0.0
  0
TEXT
  5
13D4
330
2
100
AcDbEntity
  8
YKK_N1
  6
Continuous
100
AcDbText
 10
8914.0
 20
5490.65267166
 30
0.0
 40
50.0
  1
ジョイント枠出来高JH=2114.5
 50
90.0
 41
1.122581
  7
MX_NOTE_STANDARD
 11
8889.0
 21
5490.65267166
 31
0.0
100
AcDbText
 73
     2
  0
TEXT
  5
13D5
330
2
100
AcDbEntity
  8
YKK_N1
  6
Continuous
100
AcDbText
 10
9114.0
 20
5541.77769751
 30
0.0
 40
50.0
  1
既設窓枠開口高KH=2124.5
 50
90.0
 41
1.122581
  7
MX_NOTE_STANDARD
 11
9089.0
 21
5541.77769751
 31
0.0
100
AcDbText
 73
     2
  0
TEXT
  5
13D6
330
2
100
AcDbEntity
  8
YKK_N1
  6
Continuous
100
AcDbText
 10
9049.63918671
 20
6986.30653452
 30
0.0
 40
60.0
  1
10
 50
90.0
  7
MX_NOTE_STANDARD
 11
9019.63918671
 21
6986.30653452
 31
0.0
100
AcDbText
 73
     2
  0
LINE
  5
13D7
330
2
100
AcDbEntity
  8
YKK_N1
100
AcDbLine
 10
9060.69364113
 20
6976.64330239
 30
-0.00000002
 11
9060.69364113
 21
7066.04567611
 31
-0.00000002
  0
LINE
  5
13D8
330
2
100
AcDbEntity
  8
YKK_N1
100
AcDbLine
 10
9060.69364113
 20
7066.04567611
 30
-0.00000002
 11
8931.0
 21
7091.75012021
 31
0.0
  0
LINE
  5
13D9
330
2
100
AcDbEntity
  8
YKK_N1
  6
Continuous
100
AcDbLine
 10
8406.0
 20
4989.75012021
 30
0.0
 11
8731.0
 21
4989.75012021
 31
0.0
  0
LINE
  5
13DA
330
2
100
AcDbEntity
  8
YKK_N1
  6
Continuous
100
AcDbLine
 10
8406.0
 20
4972.25012021
 30
0.0
 11
9131.0
 21
4972.25012021
 31
0.0
  0
LINE
  5
13DB
330
2
100
AcDbEntity
  8
YKK_N1
100
AcDbLine
 10
8731.0
 20
5029.75012021
 30
0.0
 11
8731.0
 21
4989.75012021
 31
0.0
  0
LINE
  5
13DC
330
2
100
AcDbEntity
  8
YKK_N1
100
AcDbLine
 10
8731.0
 20
4989.75012021
 30
0.0
 11
8731.0
 21
4972.25012021
 31
0.0
  0
CIRCLE
  5
13DD
330
2
100
AcDbEntity
  8
YKK_N1
  6
Continuous
100
AcDbCircle
 10
8731.0
 20
4989.75014521
 30
0.0
 40
5.0
  0
CIRCLE
  5
13DE
330
2
100
AcDbEntity
  8
YKK_N1
  6
Continuous
100
AcDbCircle
 10
8731.0
 20
4972.25014521
 30
0.0
 40
5.0
  0
TEXT
  5
13DF
330
2
100
AcDbEntity
  8
YKK_N1
  6
Continuous
100
AcDbText
 10
8620.13427565
 20
5083.68183081
 30
0.0
 40
60.0
  1
40
 50
90.0
  7
MX_NOTE_STANDARD
 11
8590.13427565
 21
5083.68183081
 31
0.0
100
AcDbText
 73
     2
  0
TEXT
  5
13E0
330
2
100
AcDbEntity
  8
YKK_N1
  6
Continuous
100
AcDbText
 10
8719.0
 20
4774.10670636
 30
0.0
 40
60.0
  1
17.5
 50
90.0
  7
MX_NOTE_STANDARD
 11
8689.0
 21
4774.10670636
 31
0.0
100
AcDbText
 73
     2
  0
LINE
  5
13E1
330
2
100
AcDbEntity
  8
YKK_N1
  6
Continuous
100
AcDbLine
 10
8406.0
 20
7118.75012021
 30
0.0
 11
9131.0
 21
7118.75012021
 31
0.0
  0
LINE
  5
13E2
330
2
100
AcDbEntity
  8
YKK_N1
  6
Continuous
100
AcDbLine
 10
8406.0
 20
7125.75012021
 30
0.0
 11
9131.0
 21
7125.75012021
 31
0.0
  0
LINE
  5
13E3
330
2
100
AcDbEntity
  8
YKK_N1
100
AcDbLine
 10
9131.0
 20
7096.75012021
 30
0.0
 11
9131.0
 21
7118.75012021
 31
0.0
  0
LINE
  5
13E4
330
2
100
AcDbEntity
  8
YKK_N1
100
AcDbLine
 10
9131.0
 20
7118.75012021
 30
0.0
 11
9131.0
 21
7125.75012021
 31
0.0
  0
CIRCLE
  5
13E5
330
2
100
AcDbEntity
  8
YKK_N1
  6
Continuous
100
AcDbCircle
 10
9131.0
 20
7118.75012021
 30
0.0
 40
5.0
  0
CIRCLE
  5
13E6
330
2
100
AcDbEntity
  8
YKK_N1
  6
Continuous
100
AcDbCircle
 10
9131.0
 20
7125.75012021
 30
0.0
 40
5.0
  0
TEXT
  5
13E7
330
2
100
AcDbEntity
  8
YKK_N1
  6
Continuous
100
AcDbText
 10
9124.0
 20
7159.00066313
 30
0.0
 40
60.0
  1
7
 50
90.0
  7
MX_NOTE_STANDARD
 11
9094.0
 21
7159.00066313
 31
0.0
100
AcDbText
 73
     2
  0
TEXT
  5
13E8
330
2
100
AcDbEntity
  8
YKK_N1
  6
Continuous
100
AcDbText
 10
9209.48789366
 20
7062.40759966
 30
0.0
 40
60.0
  1
22
 50
90.0
  7
MX_NOTE_STANDARD
 11
9179.48789366
 21
7062.40759966
 31
0.0
100
AcDbText
 73
     2
  0
LINE
  5
13E9
330
2
100
AcDbEntity
  8
YKK_N1
100
AcDbLine
 10
8731.0
 20
5009.75012021
 30
0.0
 11
8625.9295386
 21
5093.4528991
 31
0.0
  0
LINE
  5
13EA
330
2
100
AcDbEntity
  8
YKK_N1
100
AcDbLine
 10
8625.9295386
 20
5093.4528991
 30
0.0
 11
8625.9295386
 21
5171.66839653
 31
0.0
  0
TEXT
  5
13EB
330
2
100
AcDbEntity
  8
YKK_N1
  6
Continuous
100
AcDbText
 10
8074.54667678
 20
4546.75010803
 30
0.0
 40
60.0
  1
107
  7
MX_NOTE_STANDARD
 11
8074.54667678
 21
4576.75010803
 31
0.0
100
AcDbText
 73
     2
  0
TEXT
  5
13EC
330
2
100
AcDbEntity
  8
YKK_N1
  6
Continuous
100
AcDbText
 10
8231.59153638
 20
4630.75010803
 30
0.0
 40
60.0
  1
15
  7
MX_NOTE_STANDARD
 11
8231.59153638
 21
4660.75010803
 31
0.0
100
AcDbText
 73
     2
  0
LINE
  5
13ED
330
2
100
AcDbEntity
  8
YKK_N1
  6
Continuous
100
AcDbLine
 10
8074.20090378
 20
4618.75010803
 30
0.0
 11
8089.50090378
 21
4618.75010803
 31
0.0
  0
CIRCLE
  5
13EE
330
2
100
AcDbEntity
  8
YKK_N1
  6
Continuous
100
AcDbCircle
 10
8074.20090378
 20
4618.64385803
 30
0.0
 40
5.0
  0
CIRCLE
  5
13EF
330
2
100
AcDbEntity
  8
YKK_N1
  6
Continuous
100
AcDbCircle
 10
8074.20090378
 20
4618.75010803
 30
0.0
 40
0.10625
  0
LINE
  5
13F0
330
2
100
AcDbEntity
  8
YKK_N1
  6
Continuous
100
AcDbLine
 10
8196.50090378
 20
4618.75010803
 30
0.0
 11
8089.50090378
 21
4618.75010803
 31
0.0
  0
CIRCLE
  5
13F1
330
2
100
AcDbEntity
  8
YKK_N1
  6
Continuous
100
AcDbCircle
 10
8089.50090378
 20
4618.75010803
 30
0.0
 40
5.0
  0
CIRCLE
  5
13F2
330
2
100
AcDbEntity
  8
YKK_N1
  6
Continuous
100
AcDbCircle
 10
8196.50090378
 20
4618.75010803
 30
0.0
 40
5.0
  0
LINE
  5
13F3
330
2
100
AcDbEntity
  8
YKK_N1
  6
Continuous
100
AcDbLine
 10
8074.20090378
 20
4743.75010803
 30
0.0
 11
8074.20090378
 21
4618.75010803
 31
0.0
  0
LINE
  5
13F4
330
2
100
AcDbEntity
  8
YKK_N1
  6
Continuous
100
AcDbLine
 10
8196.50090378
 20
4743.75010803
 30
0.0
 11
8196.50090378
 21
4618.75010803
 31
0.0
  0
LINE
  5
13F5
330
2
100
AcDbEntity
  8
YKK_N1
  6
Continuous
100
AcDbLine
 10
8089.50090378
 20
4743.75010803
 30
0.0
 11
8089.50090378
 21
4618.75010803
 31
0.0
  0
TEXT
  5
13F6
330
2
100
AcDbEntity
  8
YKK_N1
  6
Continuous
100
AcDbText
 10
7884.44275851
 20
4630.75010803
 30
0.0
 40
60.0
  1
15.3
  7
MX_NOTE_STANDARD
 11
7884.44275851
 21
4660.75010803
 31
0.0
100
AcDbText
 73
     2
  0
LINE
  5
13F7
330
2
100
AcDbEntity
  8
YKK_N1
  6
Continuous
100
AcDbLine
 10
8211.50090378
 20
4618.75010803
 30
0.0
 11
8196.50090378
 21
4618.75010803
 31
0.0
  0
CIRCLE
  5
13F8
330
2
100
AcDbEntity
  8
YKK_N1
  6
Continuous
100
AcDbCircle
 10
8211.50090378
 20
4618.75010803
 30
0.0
 40
5.0
  0
LINE
  5
13F9
330
2
100
AcDbEntity
  8
YKK_N1
  6
Continuous
100
AcDbLine
 10
8211.50090378
 20
4618.75010803
 30
0.0
 11
8211.50090378
 21
4743.75010803
 31
0.0
  0
TEXT
  5
13FA
330
2
100
AcDbEntity
  8
YKK_N1
  6
Continuous
100
AcDbText
 10
7959.50001497
 20
5917.98770399
 30
0.0
 40
60.0
  1
107
  7
MX_NOTE_STANDARD
 11
7959.50001497
 21
5947.98770399
 31
0.0
100
AcDbText
 73
     2
  0
CIRCLE
  5
13FB
330
2
100
AcDbEntity
  8
YKK_N1
  6
Continuous
100
AcDbCircle
 10
8196.50000297
 20
5905.88145399
 30
0.0
 40
5.0
  0
CIRCLE
  5
13FC
330
2
100
AcDbEntity
  8
YKK_N1
  6
Continuous
100
AcDbCircle
 10
8089.50001497
 20
5905.98770399
 30
0.0
 40
5.0
  0
LINE
  5
13FD
330
2
100
AcDbEntity
  8
YKK_N1
  6
Continuous
100
AcDbLine
 10
8089.50001497
 20
5905.88145399
 30
0.0
 11
8196.50000297
 21
5905.88145399
 31
0.0
  0
LINE
  5
13FE
330
2
100
AcDbEntity
  8
YKK_N1
  6
Continuous
100
AcDbLine
 10
8196.50000297
 20
5780.88145399
 30
0.0
 11
8196.50000297
 21
5905.88145399
 31
0.0
  0
LINE
  5
13FF
330
2
100
AcDbEntity
  8
YKK_N1
  6
Continuous
100
AcDbLine
 10
8089.50001497
 20
5780.88145399
 30
0.0
 11
8089.50001497
 21
5905.88145399
 31
0.0
  0
CIRCLE
  5
1400
330
2
100
AcDbEntity
  8
YKK_N1
  6
Continuous
100
AcDbCircle
 10
8211.50000297
 20
5905.88145399
 30
0.0
 40
5.0
  0
LINE
  5
1401
330
2
100
AcDbEntity
  8
YKK_N1
  6
Continuous
100
AcDbLine
 10
8211.50000297
 20
5780.88145399
 30
0.0
 11
8211.50000297
 21
5905.88145399
 31
0.0
  0
LINE
  5
1402
330
2
100
AcDbEntity
  8
YKK_N1
100
AcDbLine
 10
8196.50000297
 20
5905.88145399
 30
0.0
 11
8211.50000297
 21
5905.88145399
 31
0.0
  0
TEXT
  5
1403
330
2
100
AcDbEntity
  8
YKK_N1
  6
Continuous
100
AcDbText
 10
8209.42697016
 20
5917.98770399
 30
0.0
 40
60.0
  1
15
  7
MX_NOTE_STANDARD
 11
8209.42697016
 21
5947.98770399
 31
0.0
100
AcDbText
 73
     2
  0
LINE
  5
1404
330
2
100
AcDbEntity
  8
YKK_A1
100
AcDbLine
 10
6231.0
 20
7122.15014222
 30
0.0
 11
4424.99999998
 21
7122.15014222
 31
0.0
  0
LINE
  5
1405
330
2
100
AcDbEntity
  8
YKK_A1
100
AcDbLine
 10
6175.0
 20
7066.15014257
 30
0.0
 11
4480.99999998
 21
7066.15014257
 31
0.0
  0
LINE
  5
1406
330
2
100
AcDbEntity
  8
YKK_A1
100
AcDbLine
 10
6134.0000005
 20
7020.75011978
 30
0.0
 11
4521.99999948
 21
7020.75011978
 31
0.0
  0
LINE
  5
1407
330
2
100
AcDbEntity
  8
YKK_A1
100
AcDbLine
 10
5281.50215568
 20
6952.75079655
 30
0.0
 11
4588.99919159
 21
6952.75079655
 31
0.0
  0
LINE
  5
1408
330
2
100
AcDbEntity
  8
YKK_A1
100
AcDbLine
 10
5374.50289321
 20
6952.75079655
 30
0.0
 11
6067.00100123
 21
6952.75079655
 31
0.0
  0
LINE
  5
1409
330
2
100
AcDbEntity
  8
YKK_A1
100
AcDbLine
 10
5281.50215568
 20
5097.74944301
 30
0.0
 11
4588.99919159
 21
5097.74944301
 31
0.0
  0
LINE
  5
140A
330
2
100
AcDbEntity
  8
YKK_A1
100
AcDbLine
 10
5374.50289321
 20
5097.74944301
 30
0.0
 11
6067.00100123
 21
5097.74944301
 31
0.0
  0
LINE
  5
140B
330
2
100
AcDbEntity
  8
YKK_A1
100
AcDbLine
 10
4521.99999948
 20
5028.75011977
 30
0.0
 11
6134.0000005
 21
5028.75011977
 31
0.0
  0
LINE
  5
140C
330
2
100
AcDbEntity
  8
YKK_A1
100
AcDbLine
 10
4480.99999998
 20
4979.75012021
 30
0.0
 11
6175.0
 21
4979.75012021
 31
0.0
  0
LINE
  5
140D
330
2
100
AcDbEntity
  8
YKK_A1
100
AcDbLine
 10
4424.99999998
 20
4906.7501202
 30
0.0
 11
6231.0
 21
4906.7501202
 31
0.0
  0
LINE
  5
140E
330
2
100
AcDbEntity
  8
YKK_A1
100
AcDbLine
 10
6231.0
 20
4906.7501202
 30
0.0
 11
6231.0
 21
7122.15014222
 31
0.0
  0
LINE
  5
140F
330
2
100
AcDbEntity
  8
YKK_A1
100
AcDbLine
 10
6175.0
 20
4979.75012021
 30
0.0
 11
6175.0
 21
7066.15014257
 31
0.0
  0
LINE
  5
1410
330
2
100
AcDbEntity
  8
YKK_A1
100
AcDbLine
 10
6134.0000005
 20
5028.75011977
 30
0.0
 11
6134.0000005
 21
7020.75011978
 31
0.0
  0
LINE
  5
1411
330
2
100
AcDbEntity
  8
YKK_A1
100
AcDbLine
 10
6067.00100123
 20
6952.75079655
 30
0.0
 11
6067.00100123
 21
5097.74944301
 31
0.0
  0
LINE
  5
1412
330
2
100
AcDbEntity
  8
YKK_A1
100
AcDbLine
 10
5374.50289321
 20
6952.75079655
 30
0.0
 11
5374.50289321
 21
5097.74944301
 31
0.0
  0
LINE
  5
1413
330
2
100
AcDbEntity
  8
YKK_A1
100
AcDbLine
 10
5298.50097881
 20
5028.75011977
 30
0.0
 11
5298.50097881
 21
7020.75011978
 31
0.0
  0
LINE
  5
1414
330
2
100
AcDbEntity
  8
YKK_A1
100
AcDbLine
 10
5281.50215568
 20
5097.74944301
 30
0.0
 11
5281.50215568
 21
6952.75079655
 31
0.0
  0
LINE
  5
1415
330
2
100
AcDbEntity
  8
YKK_A1
100
AcDbLine
 10
4588.99919159
 20
6952.75079655
 30
0.0
 11
4588.99919159
 21
5097.74944301
 31
0.0
  0
LINE
  5
1416
330
2
100
AcDbEntity
  8
YKK_A1
100
AcDbLine
 10
4521.99999948
 20
5028.75011977
 30
0.0
 11
4521.99999948
 21
7020.75011978
 31
0.0
  0
LINE
  5
1417
330
2
100
AcDbEntity
  8
YKK_A1
100
AcDbLine
 10
4480.99999998
 20
4979.75012021
 30
0.0
 11
4480.99999998
 21
7066.15014257
 31
0.0
  0
LINE
  5
1418
330
2
100
AcDbEntity
  8
YKK_A1
100
AcDbLine
 10
4424.99999998
 20
4906.7501202
 30
0.0
 11
4424.99999998
 21
7122.15014222
 31
0.0
  0
LINE
  5
1419
330
2
100
AcDbEntity
  8
YKK_A1
  6
Continuous
 48
0.5
100
AcDbLine
 10
5094.79516008
 20
6215.1180655
 30
0.0
 11
5124.79125204
 21
6235.11684361
 31
0.0
  0
LINE
  5
141A
330
2
100
AcDbEntity
  8
YKK_A1
  6
Continuous
 48
0.5
100
AcDbLine
 10
5094.79516008
 20
6215.1180655
 30
0.0
 11
5094.79516008
 21
6227.61318194
 31
0.0
  0
LINE
  5
141B
330
2
100
AcDbEntity
  8
YKK_A1
  6
Continuous
 48
0.5
100
AcDbLine
 10
5094.79125383
 20
6242.61440175
 30
0.0
 11
5094.79125383
 21
6255.11562171
 31
0.0
  0
LINE
  5
141C
330
2
100
AcDbEntity
  8
YKK_A1
  6
Continuous
 48
0.5
100
AcDbLine
 10
4911.45793142
 20
6227.60707843
 30
0.0
 11
5094.79516008
 21
6227.61318194
 31
0.0
  0
LINE
  5
141D
330
2
100
AcDbEntity
  8
YKK_A1
  6
Continuous
 48
0.5
100
AcDbLine
 10
4911.45011892
 20
6242.60512441
 30
0.0
 11
5094.79125383
 21
6242.61440175
 31
0.0
  0
LINE
  5
141E
330
2
100
AcDbEntity
  8
YKK_A1
  6
Continuous
 48
0.5
100
AcDbLine
 10
5094.79125383
 20
6255.11562171
 30
0.0
 11
5124.79125204
 21
6235.11684361
 31
0.0
  0
LINE
  5
141F
330
2
100
AcDbEntity
  8
YKK_A1
  6
Continuous
 48
0.5
100
AcDbLine
 10
4911.45793142
 20
6227.60707843
 30
0.0
 11
4911.45793142
 21
6242.60512441
 31
0.0
  0
LINE
  5
1420
330
2
100
AcDbEntity
  8
YKK_A1
  6
Continuous
 48
0.5
100
AcDbLine
 10
5619.21054123
 20
6105.1180655
 30
0.0
 11
5589.21444927
 21
6125.11684361
 31
0.0
  0
LINE
  5
1421
330
2
100
AcDbEntity
  8
YKK_A1
  6
Continuous
 48
0.5
100
AcDbLine
 10
5619.21054123
 20
6105.1180655
 30
0.0
 11
5619.21054123
 21
6117.61318194
 31
0.0
  0
LINE
  5
1422
330
2
100
AcDbEntity
  8
YKK_A1
  6
Continuous
 48
0.5
100
AcDbLine
 10
5619.21444748
 20
6132.61440175
 30
0.0
 11
5619.21444748
 21
6145.11562171
 31
0.0
  0
LINE
  5
1423
330
2
100
AcDbEntity
  8
YKK_A1
  6
Continuous
 48
0.5
100
AcDbLine
 10
5800.54777
 20
6117.60707843
 30
0.0
 11
5619.21054123
 21
6117.61318194
 31
0.0
  0
LINE
  5
1424
330
2
100
AcDbEntity
  8
YKK_A1
  6
Continuous
 48
0.5
100
AcDbLine
 10
5800.5555825
 20
6132.60512441
 30
0.0
 11
5619.21444748
 21
6132.61440175
 31
0.0
  0
LINE
  5
1425
330
2
100
AcDbEntity
  8
YKK_A1
  6
Continuous
 48
0.5
100
AcDbLine
 10
5619.21444748
 20
6145.11562171
 30
0.0
 11
5589.21444927
 21
6125.11684361
 31
0.0
  0
LINE
  5
1426
330
2
100
AcDbEntity
  8
YKK_A1
  6
Continuous
 48
0.5
100
AcDbLine
 10
5800.54777
 20
6117.60707843
 30
0.0
 11
5800.54777
 21
6132.60512441
 31
0.0
  0
TEXT
  5
1427
330
2
100
AcDbEntity
  8
YKK_N1
  6
Continuous
100
AcDbText
 10
6419.0
 20
5758.16875055
 30
0.0
 40
60.0
  1
新設窓H=2030
 50
90.0
 41
1.122581
  7
MX_NOTE_STANDARD
 11
6389.0
 21
5758.16875055
 31
0.0
100
AcDbText
 73
     2
  0
TEXT
  5
1428
330
2
100
AcDbEntity
  8
YKK_N1
  6
Continuous
100
AcDbText
 10
6419.0
 20
7149.00066313
 30
0.0
 40
60.0
  1
27
 50
90.0
  7
MX_NOTE_STANDARD
 11
6389.0
 21
7149.00066313
 31
0.0
100
AcDbText
 73
     2
  0
LINE
  5
1429
330
2
100
AcDbEntity
  8
YKK_N1
  6
Continuous
100
AcDbLine
 10
6381.0
 20
6973.14757921
 30
0.0
 11
6481.0
 21
6973.14757921
 31
0.0
  0
LINE
  5
142A
330
2
100
AcDbEntity
  8
YKK_N1
  6
Continuous
100
AcDbLine
 10
6381.0
 20
6973.14757921
 30
0.0
 11
6431.0
 21
7059.75012021
 31
0.0
  0
LINE
  5
142B
330
2
100
AcDbEntity
  8
YKK_N1
  6
Continuous
100
AcDbLine
 10
6431.0
 20
7086.75012021
 30
0.0
 11
6431.0
 21
7059.75012021
 31
0.0
  0
CIRCLE
  5
142C
330
2
100
AcDbEntity
  8
YKK_N1
  6
Continuous
100
AcDbCircle
 10
6431.0
 20
7086.75012021
 30
0.0
 40
5.0
  0
LINE
  5
142D
330
2
100
AcDbEntity
  8
YKK_N1
  6
Continuous
100
AcDbLine
 10
6481.0
 20
6973.14757921
 30
0.0
 11
6431.0
 21
7059.75012021
 31
0.0
  0
LINE
  5
142E
330
2
100
AcDbEntity
  8
YKK_N1
  6
Continuous
100
AcDbLine
 10
6381.0
 20
5116.35306021
 30
0.0
 11
6481.0
 21
5116.35306021
 31
0.0
  0
LINE
  5
142F
330
2
100
AcDbEntity
  8
YKK_N1
  6
Continuous
100
AcDbLine
 10
6381.0
 20
5116.35306021
 30
0.0
 11
6431.0
 21
5029.75052021
 31
0.0
  0
LINE
  5
1430
330
2
100
AcDbEntity
  8
YKK_N1
  6
Continuous
100
AcDbLine
 10
6481.0
 20
5116.35306021
 30
0.0
 11
6431.0
 21
5029.75052021
 31
0.0
  0
LINE
  5
1431
330
2
100
AcDbEntity
  8
YKK_N1
  6
Continuous
100
AcDbLine
 10
6431.0
 20
7059.75012021
 30
0.0
 11
6431.0
 21
5029.75012021
 31
0.0
  0
LINE
  5
1432
330
2
100
AcDbEntity
  8
YKK_N1
  6
Continuous
100
AcDbLine
 10
6306.0
 20
5029.75012021
 30
0.0
 11
6431.0
 21
5029.75012021
 31
0.0
  0
LINE
  5
1433
330
2
100
AcDbEntity
  8
YKK_N1
  6
Continuous
100
AcDbLine
 10
6306.0
 20
7086.75012021
 30
0.0
 11
6631.0
 21
7086.75012021
 31
0.0
  0
LINE
  5
1434
330
2
100
AcDbEntity
  8
YKK_N1
  6
Continuous
100
AcDbLine
 10
6306.0
 20
7059.75012021
 30
0.0
 11
6431.0
 21
7059.75012021
 31
0.0
  0
LINE
  5
1435
330
2
100
AcDbEntity
  8
YKK_N1
  6
Continuous
100
AcDbLine
 10
6631.0
 20
7086.75012021
 30
0.0
 11
6631.0
 21
4972.25012021
 31
0.0
  0
LINE
  5
1436
330
2
100
AcDbEntity
  8
YKK_N1
  6
Continuous
100
AcDbLine
 10
6581.0
 20
7000.14757921
 30
0.0
 11
6681.0
 21
7000.14757921
 31
0.0
  0
LINE
  5
1437
330
2
100
AcDbEntity
  8
YKK_N1
  6
Continuous
100
AcDbLine
 10
6581.0
 20
7000.14757921
 30
0.0
 11
6631.0
 21
7086.75012021
 31
0.0
  0
LINE
  5
1438
330
2
100
AcDbEntity
  8
YKK_N1
  6
Continuous
100
AcDbLine
 10
6681.0
 20
7000.14757921
 30
0.0
 11
6631.0
 21
7086.75012021
 31
0.0
  0
LINE
  5
1439
330
2
100
AcDbEntity
  8
YKK_N1
  6
Continuous
100
AcDbLine
 10
6581.0
 20
5058.85266021
 30
0.0
 11
6681.0
 21
5058.85266021
 31
0.0
  0
LINE
  5
143A
330
2
100
AcDbEntity
  8
YKK_N1
  6
Continuous
100
AcDbLine
 10
6581.0
 20
5058.85266021
 30
0.0
 11
6631.0
 21
4972.25012021
 31
0.0
  0
LINE
  5
143B
330
2
100
AcDbEntity
  8
YKK_N1
  6
Continuous
100
AcDbLine
 10
6681.0
 20
5058.85266021
 30
0.0
 11
6631.0
 21
4972.25012021
 31
0.0
  0
TEXT
  5
143C
330
2
100
AcDbEntity
  8
YKK_N1
  6
Continuous
100
AcDbText
 10
6614.0
 20
5490.65267166
 30
0.0
 40
50.0
  1
ジョイント枠出来高JH=2114.5
 50
90.0
 41
1.122581
  7
MX_NOTE_STANDARD
 11
6589.0
 21
5490.65267166
 31
0.0
100
AcDbText
 73
     2
  0
LINE
  5
143D
330
2
100
AcDbEntity
  8
YKK_N1
  6
Continuous
100
AcDbLine
 10
6306.0
 20
4989.75012021
 30
0.0
 11
6431.0
 21
4989.75012021
 31
0.0
  0
LINE
  5
143E
330
2
100
AcDbEntity
  8
YKK_N1
  6
Continuous
100
AcDbLine
 10
6306.0
 20
4972.25012021
 30
0.0
 11
6631.0
 21
4972.25012021
 31
0.0
  0
LINE
  5
143F
330
2
100
AcDbEntity
  8
YKK_N1
100
AcDbLine
 10
6431.0
 20
5029.75012021
 30
0.0
 11
6431.0
 21
4989.75012021
 31
0.0
  0
LINE
  5
1440
330
2
100
AcDbEntity
  8
YKK_N1
100
AcDbLine
 10
6431.0
 20
4989.75012021
 30
0.0
 11
6431.0
 21
4972.25012021
 31
0.0
  0
CIRCLE
  5
1441
330
2
100
AcDbEntity
  8
YKK_N1
  6
Continuous
100
AcDbCircle
 10
6431.0
 20
4989.75014521
 30
0.0
 40
5.0
  0
CIRCLE
  5
1442
330
2
100
AcDbEntity
  8
YKK_N1
  6
Continuous
100
AcDbCircle
 10
6431.0
 20
4972.25014521
 30
0.0
 40
5.0
  0
TEXT
  5
1443
330
2
100
AcDbEntity
  8
YKK_N1
  6
Continuous
100
AcDbText
 10
6320.13427565
 20
5083.68183081
 30
0.0
 40
60.0
  1
40
 50
90.0
  7
MX_NOTE_STANDARD
 11
6290.13427565
 21
5083.68183081
 31
0.0
100
AcDbText
 73
     2
  0
TEXT
  5
1444
330
2
100
AcDbEntity
  8
YKK_N1
  6
Continuous
100
AcDbText
 10
6419.0
 20
4774.10670636
 30
0.0
 40
60.0
  1
17.5
 50
90.0
  7
MX_NOTE_STANDARD
 11
6389.0
 21
4774.10670636
 31
0.0
100
AcDbText
 73
     2
  0
LINE
  5
1445
330
2
100
AcDbEntity
  8
YKK_N1
100
AcDbLine
 10
6431.0
 20
5009.75012021
 30
0.0
 11
6325.9295386
 21
5093.4528991
 31
0.0
  0
LINE
  5
1446
330
2
100
AcDbEntity
  8
YKK_N1
100
AcDbLine
 10
6325.9295386
 20
5093.4528991
 30
0.0
 11
6325.9295386
 21
5171.66839653
 31
0.0
  0
TEXT
  5
1447
330
2
100
AcDbEntity
  8
YKK_N1
  6
Continuous
100
AcDbText
 10
5165.50033367
 20
4728.7501202
 30
0.0
 40
40.0
  1
新設窓W=1690
  7
MX_NOTE_STANDARD
 11
5165.50033367
 21
4748.7501202
 31
0.0
100
AcDbText
 73
     2
  0
TEXT
  5
1448
330
2
100
AcDbEntity
  8
YKK_N1
  6
Continuous
100
AcDbText
 10
6226.24822674
 20
4718.7501232
 30
0.0
 40
60.0
  1
35
  7
MX_NOTE_STANDARD
100
AcDbText
  0
LINE
  5
1449
330
2
100
AcDbEntity
  8
YKK_N1
  6
Continuous
100
AcDbLine
 10
6207.99999999
 20
4831.7501202
 30
0.0
 11
6207.99999999
 21
4506.7501202
 31
0.0
  0
LINE
  5
144A
330
2
100
AcDbEntity
  8
YKK_N1
  6
Continuous
100
AcDbLine
 10
6172.99999999
 20
4831.7501202
 30
0.0
 11
6172.99999999
 21
4706.7501202
 31
0.0
  0
LINE
  5
144B
330
2
100
AcDbEntity
  8
YKK_N1
  6
Continuous
100
AcDbLine
 10
6172.99999999
 20
4706.7501202
 30
0.0
 11
6207.99999999
 21
4706.7501202
 31
0.0
  0
CIRCLE
  5
144C
330
2
100
AcDbEntity
  8
YKK_N1
  6
Continuous
100
AcDbCircle
 10
6207.99999999
 20
4706.7501202
 30
0.0
 40
5.0
  0
LINE
  5
144D
330
2
100
AcDbEntity
  8
YKK_N1
  6
Continuous
100
AcDbLine
 10
6086.39745999
 20
4756.7501202
 30
0.0
 11
6086.39745999
 21
4656.7501202
 31
0.0
  0
LINE
  5
144E
330
2
100
AcDbEntity
  8
YKK_N1
  6
Continuous
100
AcDbLine
 10
6086.39745999
 20
4756.7501202
 30
0.0
 11
6172.99999999
 21
4706.7501202
 31
0.0
  0
LINE
  5
144F
330
2
100
AcDbEntity
  8
YKK_N1
  6
Continuous
100
AcDbLine
 10
6172.99999999
 20
4706.7501202
 30
0.0
 11
6086.39745999
 21
4656.7501202
 31
0.0
  0
LINE
  5
1450
330
2
100
AcDbEntity
  8
YKK_N1
  6
Continuous
100
AcDbLine
 10
4569.60253999
 20
4756.7501202
 30
0.0
 11
4482.99999999
 21
4706.7501202
 31
0.0
  0
LINE
  5
1451
330
2
100
AcDbEntity
  8
YKK_N1
  6
Continuous
100
AcDbLine
 10
4482.99999999
 20
4706.7501202
 30
0.0
 11
4569.60253999
 21
4656.7501202
 31
0.0
  0
CIRCLE
  5
1452
330
2
100
AcDbEntity
  8
YKK_N1
  6
Continuous
100
AcDbCircle
 10
4447.99999999
 20
4706.7501202
 30
0.0
 40
5.0
  0
LINE
  5
1453
330
2
100
AcDbEntity
  8
YKK_N1
  6
Continuous
100
AcDbLine
 10
4447.99999999
 20
4706.7501202
 30
0.0
 11
4482.99999999
 21
4706.7501202
 31
0.0
  0
LINE
  5
1454
330
2
100
AcDbEntity
  8
YKK_N1
  6
Continuous
100
AcDbLine
 10
4569.60253999
 20
4756.7501202
 30
0.0
 11
4569.60253999
 21
4656.7501202
 31
0.0
  0
TEXT
  5
1455
330
2
100
AcDbEntity
  8
YKK_N1
  6
Continuous
100
AcDbText
 10
4322.5241471
 20
4718.7501232
 30
0.0
 40
60.0
  1
35
  7
MX_NOTE_STANDARD
100
AcDbText
  0
LINE
  5
1456
330
2
100
AcDbEntity
  8
YKK_N1
  6
Continuous
100
AcDbLine
 10
6172.99999999
 20
4706.7501202
 30
0.0
 11
4482.99999999
 21
4706.7501202
 31
0.0
  0
LINE
  5
1457
330
2
100
AcDbEntity
  8
YKK_N1
  6
Continuous
100
AcDbLine
 10
4482.99999999
 20
4831.7501202
 30
0.0
 11
4482.99999999
 21
4706.7501202
 31
0.0
  0
LINE
  5
1458
330
2
100
AcDbEntity
  8
YKK_N1
  6
Continuous
100
AcDbLine
 10
4447.99999999
 20
4831.7501202
 30
0.0
 11
4447.99999999
 21
4506.7501202
 31
0.0
  0
LINE
  5
1459
330
2
100
AcDbEntity
  8
YKK_N1
  6
Continuous
100
AcDbLine
 10
6207.99999999
 20
4506.7501202
 30
0.0
 11
4447.99999999
 21
4506.7501202
 31
0.0
  0
LINE
  5
145A
330
2
100
AcDbEntity
  8
YKK_N1
  6
Continuous
100
AcDbLine
 10
4534.60253999
 20
4556.7501202
 30
0.0
 11
4447.99999999
 21
4506.7501202
 31
0.0
  0
LINE
  5
145B
330
2
100
AcDbEntity
  8
YKK_N1
  6
Continuous
100
AcDbLine
 10
4447.99999999
 20
4506.7501202
 30
0.0
 11
4534.60253999
 21
4456.7501202
 31
0.0
  0
LINE
  5
145C
330
2
100
AcDbEntity
  8
YKK_N1
  6
Continuous
100
AcDbLine
 10
4534.60253999
 20
4556.7501202
 30
0.0
 11
4534.60253999
 21
4456.7501202
 31
0.0
  0
LINE
  5
145D
330
2
100
AcDbEntity
  8
YKK_N1
  6
Continuous
100
AcDbLine
 10
6121.39745999
 20
4556.7501202
 30
0.0
 11
6121.39745999
 21
4456.7501202
 31
0.0
  0
LINE
  5
145E
330
2
100
AcDbEntity
  8
YKK_N1
  6
Continuous
100
AcDbLine
 10
6121.39745999
 20
4556.7501202
 30
0.0
 11
6207.99999999
 21
4506.7501202
 31
0.0
  0
LINE
  5
145F
330
2
100
AcDbEntity
  8
YKK_N1
  6
Continuous
100
AcDbLine
 10
6207.99999999
 20
4506.7501202
 30
0.0
 11
6121.39745999
 21
4456.7501202
 31
0.0
  0
TEXT
  5
1460
330
2
100
AcDbEntity
  8
YKK_N1
  6
Continuous
100
AcDbText
 10
5002.00998875
 20
4528.7501202
 30
0.0
 40
40.0
  1
ジョイント枠出来幅JW=1760
  7
MX_NOTE_STANDARD
 11
5002.00998875
 21
4548.7501202
 31
0.0
100
AcDbText
 73
     2
  0
ENDSEC
  0
SECTION
  2
OBJECTS
  0
DICTIONARY
  5
1E
330
0
100
AcDbDictionary
281
     1
  3
ACAD_BACKGROUND
350
6EF
  3
ACAD_CIP_PREVIOUS_PRODUCT_INFO
350
9D
  3
ACAD_COLOR
350
7B
  3
ACAD_DETAILVIEWSTYLE
350
95
  3
ACAD_GROUP
350
1C
  3
ACAD_LAYOUT
350
7C
  3
ACAD_MATERIAL
350
49
  3
ACAD_MLEADERSTYLE
350
91
  3
ACAD_MLINESTYLE
350
1D
  3
ACAD_PLOTSETTINGS
350
97
  3
ACAD_PLOTSTYLENAME
350
47
  3
ACAD_RENDER_ACTIVE_RAPIDRT_SETTINGS
350
A7
  3
ACAD_RENDER_ACTIVE_SETTINGS
350
744
  3
ACAD_SCALELIST
350
7F
  3
ACAD_SECTIONVIEWSTYLE
350
93
  3
ACAD_TABLESTYLE
350
7D
  3
ACAD_VISUALSTYLE
350
62
  3
ACDB_RECOMPOSE_DATA
350
14BE
  3
AcDbVariableDictionary
350
74B
  0
DICTIONARY
  5
705
330
16
100
AcDbDictionary
280
     1
281
     1
  0
DICTIONARY
  5
116
330
E
100
AcDbDictionary
280
     1
281
     1
  3
ACAD_LAYERSTATES
360
117
  0
DICTIONARY
  5
B2
330
6
100
AcDbDictionary
280
     1
281
     1
  3
ADSK_XREC_LAYER_RECONCILED
360
B3
  0
DICTIONARY
  5
B4
330
24
100
AcDbDictionary
280
     1
281
     1
  3
ADSK_XREC_LAYER_RECONCILED
360
B5
  0
DICTIONARY
  5
105
330
104
100
AcDbDictionary
280
     1
281
     1
  0
DICTIONARY
  5
107
330
106
100
AcDbDictionary
280
     1
281
     1
  0
DICTIONARY
  5
109
330
108
100
AcDbDictionary
280
     1
281
     1
  0
DICTIONARY
  5
10B
330
10A
100
AcDbDictionary
280
     1
281
     1
  0
DICTIONARY
  5
10D
330
10C
100
AcDbDictionary
280
     1
281
     1
  0
DICTIONARY
  5
10F
330
10E
100
AcDbDictionary
280
     1
281
     1
  0
DICTIONARY
  5
3
330
2
100
AcDbDictionary
280
     1
281
     1
  3
ACAD_LAYOUTSELFREF
360
4
  0
DICTIONARY
  5
A
330
9
100
AcDbDictionary
280
     1
281
     1
  3
ACAD_LAYOUTSELFREF
360
B
  0
DICTIONARY
  5
6EF
102
{ACAD_REACTORS
330
1E
102
}
330
1E
100
AcDbDictionary
281
     1
  0
XRECORD
  5
9D
102
{ACAD_REACTORS
330
1E
102
}
330
1E
100
AcDbXrecord
280
     1
300
ACD
300
2018
300
86830ACD_2018_0F
  0
DICTIONARY
  5
7B
102
{ACAD_REACTORS
330
1E
102
}
330
1E
100
AcDbDictionary
281
     1
  0
DICTIONARY
  5
95
102
{ACAD_REACTORS
330
1E
102
}
330
1E
100
AcDbDictionary
281
     1
  3
Imperial24
350
96
  3
Metric50
350
119
  0
DICTIONARY
  5
1C
102
{ACAD_REACTORS
330
1E
102
}
330
1E
100
AcDbDictionary
281
     1
  0
DICTIONARY
  5
7C
102
{ACAD_REACTORS
330
1E
102
}
330
1E
100
AcDbDictionary
281
     1
  3
Model
350
98
  3
レイアウト1
350
99
  0
DICTIONARY
  5
49
102
{ACAD_REACTORS
330
1E
102
}
330
1E
100
AcDbDictionary
281
     1
  3
ByBlock
350
52
  3
ByLayer
350
4A
  3
Global
350
5A
  0
DICTIONARY
  5
91
102
{ACAD_REACTORS
330
1E
102
}
330
1E
100
AcDbDictionary
281
     1
  3
Standard
350
92
  0
DICTIONARY
  5
1D
102
{ACAD_REACTORS
330
1E
102
}
330
1E
100
AcDbDictionary
281
     1
  3
STANDARD
350
1F
  0
DICTIONARY
  5
97
102
{ACAD_REACTORS
330
1E
102
}
330
1E
100
AcDbDictionary
281
     1
  0
ACDBDICTIONARYWDFLT
  5
47
102
{ACAD_REACTORS
330
1E
102
}
330
1E
100
AcDbDictionary
281
     1
  3
Normal
350
48
100
AcDbDictionaryWithDefault
340
48
  0
RAPIDRTRENDERSETTINGS
  5
A7
102
{ACAD_REACTORS
330
1E
102
}
330
1E
100
AcDbRenderSettings
 90
        2
  1
中
290
     1
290
     0
290
     1
290
     1
  1

  1
5 レンダリング レベルを適用
 90
        0
100
AcDbRapidRTRenderSettings
 90
        3
 70
     0
 90
        5
 90
        1
 70
     1
 70
     2
 40
3.0
 40
3.0
290
     1
  0
MENTALRAYRENDERSETTINGS
  5
744
102
{ACAD_XDICTIONARY
360
745
102
}
102
{ACAD_REACTORS
330
1E
102
}
330
1E
100
AcDbRenderSettings
 90
        2
  1
中間
290
     1
290
     1
290
     1
290
     1
  1

  1

 90
        0
100
AcDbMentalRayRenderSettings
 90
        2
 90
        0
 90
        1
 70
     2
 40
3.0
 40
3.0
 40
0.05
 40
0.05
 40
0.05
 40
0.05
 70
     0
290
     0
290
     1
 90
        5
 90
        5
 90
        5
290
     0
 90
      500
290
     0
 40
1.0
 90
    10000
 90
        5
 90
        5
 90
        5
290
     0
 90
      200
290
     0
290
     0
290
     0
 40
1.0
 40
1.0
 40
1500.0
 70
     0
 70
     0
 40
10.0
 70
     0
 70
     0
290
     0
  1

 90
       32
 70
     0
 90
     1048
290
     0
 40
1.0
  0
DICTIONARY
  5
7F
102
{ACAD_REACTORS
330
1E
102
}
330
1E
100
AcDbDictionary
281
     1
  3
A0
350
80
  3
A1
350
81
  3
A2
350
82
  3
A3
350
83
  3
A4
350
84
  3
A5
350
85
  3
A6
350
86
  3
A7
350
87
  3
A8
350
88
  3
A9
350
89
  3
B0
350
8A
  3
B1
350
8B
  3
B2
350
8C
  3
B3
350
8D
  3
B4
350
8E
  3
B5
350
8F
  3
B6
350
90
  0
DICTIONARY
  5
93
102
{ACAD_REACTORS
330
1E
102
}
330
1E
100
AcDbDictionary
281
     1
  3
Imperial24
350
94
  3
Metric50
350
118
  0
DICTIONARY
  5
7D
102
{ACAD_REACTORS
330
1E
102
}
330
1E
100
AcDbDictionary
281
     1
  3
Standard
350
7E
  0
DICTIONARY
  5
62
102
{ACAD_REACTORS
330
1E
102
}
330
1E
100
AcDbDictionary
281
     1
  3
2dWireframe
350
68
  3
Basic
350
67
  3
Brighten
350
6E
  3
ColorChange
350
72
  3
Conceptual
350
6B
  3
Dim
350
6D
  3
EdgeColorOff
350
7A
  3
Facepattern
350
71
  3
Flat
350
63
  3
FlatWithEdges
350
64
  3
Gouraud
350
65
  3
GouraudWithEdges
350
66
  3
Hidden
350
6A
  3
JitterOff
350
78
  3
Linepattern
350
70
  3
OverhangOff
350
79
  3
Realistic
350
6C
  3
Shaded
350
77
  3
Shaded with edges
350
76
  3
Shades of Gray
350
73
  3
Sketchy
350
74
  3
Thicken
350
6F
  3
Wireframe
350
69
  3
X-Ray
350
75
  0
XRECORD
  5
14BE
102
{ACAD_REACTORS
330
1E
102
}
330
1E
100
AcDbXrecord
280
     1
 90
        1
330
7E
  0
DICTIONARY
  5
74B
102
{ACAD_REACTORS
330
1E
102
}
330
1E
100
AcDbDictionary
281
     1
  3
CANNOSCALE
350
750
  3
CMLEADERSTYLE
350
74D
  3
CTABLESTYLE
350
74C
  3
CVIEWDETAILSTYLE
350
74E
  3
CVIEWSECTIONSTYLE
350
74F
  3
XCLIPFRAME
350
14BC
  0
DICTIONARY
  5
117
102
{ACAD_REACTORS
330
116
102
}
330
116
100
AcDbDictionary
281
     1
  0
XRECORD
  5
B3
102
{ACAD_REACTORS
330
B2
102
}
330
B2
100
AcDbXrecord
280
     1
290
     1
  0
XRECORD
  5
B5
102
{ACAD_REACTORS
330
B4
102
}
330
B4
100
AcDbXrecord
280
     1
290
     1
  0
XRECORD
  5
4
102
{ACAD_REACTORS
330
3
102
}
330
3
100
AcDbXrecord
280
     1
340
2
  0
XRECORD
  5
B
102
{ACAD_REACTORS
330
A
102
}
330
A
100
AcDbXrecord
280
     1
340
9
  0
ACDBDETAILVIEWSTYLE
  5
96
102
{ACAD_XDICTIONARY
360
14F7
102
}
102
{ACAD_REACTORS
330
95
102
}
330
95
100
AcDbModelDocViewStyle
 70
     0
  3
Imperial24
290
     0
100
AcDbDetailViewStyle
 70
     0
 71
     0
 90
        3
 71
     1
340
10
 62
   256
 40
0.24
340
0
 62
   256
 40
0.24
300

 40
0.36
280
     3
 71
     2
340
7
 90
       25
 62
   256
 71
     3
340
10
 62
   256
 40
0.24
 90
        1
 40
0.75
 90
        1
300
%<\AcVar ViewType \f "%tc1">% %<\AcVar ViewDetailId>%\PSCALE %<\AcVar ViewScale \f "%sn">%
 71
     4
340
7
 90
       25
 62
   256
340
7
 90
       25
 62
   256
280
     0
  0
ACDBDETAILVIEWSTYLE
  5
119
102
{ACAD_XDICTIONARY
360
14FB
102
}
102
{ACAD_REACTORS
330
95
102
}
330
95
100
AcDbModelDocViewStyle
 70
     0
  3
Metric50
290
     0
100
AcDbDetailViewStyle
 70
     0
 71
     0
 90
        3
 71
     1
340
10
 62
   256
 40
5.0
340
0
 62
   256
 40
5.0
300

 40
0.0
280
     1
 71
     2
340
7
 90
       25
 62
   256
 71
     3
340
10
 62
   256
 40
5.0
 90
        0
 40
15.0
 90
        1
300
%<\AcVar ViewDetailId>% (%<\AcVar ViewScale \f "%sn">%)
 71
     4
340
7
 90
       25
 62
   256
340
7
 90
       25
 62
   256
280
     0
  0
LAYOUT
  5
98
102
{ACAD_XDICTIONARY
360
742
102
}
102
{ACAD_REACTORS
330
7C
102
}
330
7C
100
AcDbPlotSettings
  1

  2
FX ApeosPort-V C7776
  4
A4
  6

 40
4.90008307
 41
4.90005493
 42
4.90008545
 43
4.90008545
 44
210.01567078
 45
297.01065063
 46
0.0
 47
0.0
 48
0.0
 49
0.0
140
0.0
141
0.0
142
1.0
143
6240.87038063
 70
  1712
 72
     0
 73
     0
 74
     0
  7
monochrome.ctb
 75
     0
147
0.00016023
 76
     0
 77
     2
 78
   300
148
38988.52545419
149
1987.59756046
100
AcDbLayout
  1
Model
 70
     1
 71
     0
 10
0.0
 20
0.0
 11
12.0
 21
9.0
 12
0.0
 22
0.0
 32
0.0
 14
0.0
 24
0.0
 34
0.0
 15
0.0
 25
0.0
 35
0.0
146
0.0
 13
0.0
 23
0.0
 33
0.0
 16
1.0
 26
0.0
 36
0.0
 17
0.0
 27
1.0
 37
0.0
 76
     0
330
2
331
45
  0
LAYOUT
  5
99
102
{ACAD_REACTORS
330
7C
102
}
330
7C
100
AcDbPlotSettings
  1

  2
FX ApeosPort-V C7776
  4
A4
  6

 40
4.90008307
 41
4.90005493
 42
4.90008545
 43
4.90008545
 44
210.01567078
 45
297.01065063
 46
0.0
 47
0.0
 48
0.0
 49
0.0
140
0.0
141
0.0
142
1.0
143
1.0
 70
   688
 72
     0
 73
     0
 74
     5
  7
monochrome.ctb
 75
    16
147
1.0
 76
     0
 77
     2
 78
   300
148
0.0
149
0.0
100
AcDbLayout
  1
レイアウト1
 70
     0
 71
     1
 10
0.0
 20
0.0
 11
12.0
 21
9.0
 12
0.0
 22
0.0
 32
0.0
 14
1.00000000E+20
 24
1.00000000E+20
 34
1.00000000E+20
 15
-1.00000000E+20
 25
-1.00000000E+20
 35
-1.00000000E+20
146
0.0
 13
0.0
 23
0.0
 33
0.0
 16
1.0
 26
0.0
 36
0.0
 17
0.0
 27
1.0
 37
0.0
 76
     0
330
9
  0
MATERIAL
  5
52
102
{ACAD_XDICTIONARY
360
53
102
}
102
{ACAD_REACTORS
330
49
102
}
330
49
100
AcDbMaterial
  1
ByBlock
 72
     0
 43
0.02083333
 43
0.0
 43
0.0
 43
0.0
 43
0.0
 43
0.02083333
 43
0.0
 43
0.0
 43
0.0
 43
0.0
 43
1.0
 43
0.0
 43
0.0
 43
0.0
 43
0.0
 43
1.0
 77
     0
 47
0.02083333
 47
0.0
 47
0.0
 47
0.0
 47
0.0
 47
0.02083333
 47
0.0
 47
0.0
 47
0.0
 47
0.0
 47
1.0
 47
0.0
 47
0.0
 47
0.0
 47
0.0
 47
1.0
171
     0
 49
0.02083333
 49
0.0
 49
0.0
 49
0.0
 49
0.0
 49
0.02083333
 49
0.0
 49
0.0
 49
0.0
 49
0.0
 49
1.0
 49
0.0
 49
0.0
 49
0.0
 49
0.0
 49
1.0
175
     0
142
0.02083333
142
0.0
142
0.0
142
0.0
142
0.0
142
0.02083333
142
0.0
142
0.0
142
0.0
142
0.0
142
1.0
142
0.0
142
0.0
142
0.0
142
0.0
142
1.0
179
     0
144
0.02083333
144
0.0
144
0.0
144
0.0
144
0.0
144
0.02083333
144
0.0
144
0.0
144
0.0
144
0.0
144
1.0
144
0.0
144
0.0
144
0.0
144
0.0
144
1.0
147
0.02083333
147
0.0
147
0.0
147
0.0
147
0.0
147
0.02083333
147
0.0
147
0.0
147
0.0
147
0.0
147
1.0
147
0.0
147
0.0
147
0.0
147
0.0
147
1.0
  0
MATERIAL
  5
4A
102
{ACAD_XDICTIONARY
360
4B
102
}
102
{ACAD_REACTORS
330
49
102
}
330
49
100
AcDbMaterial
  1
ByLayer
 72
     0
 43
0.02083333
 43
0.0
 43
0.0
 43
0.0
 43
0.0
 43
0.02083333
 43
0.0
 43
0.0
 43
0.0
 43
0.0
 43
1.0
 43
0.0
 43
0.0
 43
0.0
 43
0.0
 43
1.0
 77
     0
 47
0.02083333
 47
0.0
 47
0.0
 47
0.0
 47
0.0
 47
0.02083333
 47
0.0
 47
0.0
 47
0.0
 47
0.0
 47
1.0
 47
0.0
 47
0.0
 47
0.0
 47
0.0
 47
1.0
171
     0
 49
0.02083333
 49
0.0
 49
0.0
 49
0.0
 49
0.0
 49
0.02083333
 49
0.0
 49
0.0
 49
0.0
 49
0.0
 49
1.0
 49
0.0
 49
0.0
 49
0.0
 49
0.0
 49
1.0
175
     0
142
0.02083333
142
0.0
142
0.0
142
0.0
142
0.0
142
0.02083333
142
0.0
142
0.0
142
0.0
142
0.0
142
1.0
142
0.0
142
0.0
142
0.0
142
0.0
142
1.0
179
     0
144
0.02083333
144
0.0
144
0.0
144
0.0
144
0.0
144
0.02083333
144
0.0
144
0.0
144
0.0
144
0.0
144
1.0
144
0.0
144
0.0
144
0.0
144
0.0
144
1.0
147
0.02083333
147
0.0
147
0.0
147
0.0
147
0.0
147
0.02083333
147
0.0
147
0.0
147
0.0
147
0.0
147
1.0
147
0.0
147
0.0
147
0.0
147
0.0
147
1.0
  0
MATERIAL
  5
5A
102
{ACAD_XDICTIONARY
360
5B
102
}
102
{ACAD_REACTORS
330
49
102
}
330
49
100
AcDbMaterial
  1
Global
 72
     0
 43
0.02083333
 43
0.0
 43
0.0
 43
0.0
 43
0.0
 43
0.02083333
 43
0.0
 43
0.0
 43
0.0
 43
0.0
 43
1.0
 43
0.0
 43
0.0
 43
0.0
 43
0.0
 43
1.0
 77
     0
 47
0.02083333
 47
0.0
 47
0.0
 47
0.0
 47
0.0
 47
0.02083333
 47
0.0
 47
0.0
 47
0.0
 47
0.0
 47
1.0
 47
0.0
 47
0.0
 47
0.0
 47
0.0
 47
1.0
171
     0
 49
0.02083333
 49
0.0
 49
0.0
 49
0.0
 49
0.0
 49
0.02083333
 49
0.0
 49
0.0
 49
0.0
 49
0.0
 49
1.0
 49
0.0
 49
0.0
 49
0.0
 49
0.0
 49
1.0
175
     0
142
0.02083333
142
0.0
142
0.0
142
0.0
142
0.0
142
0.02083333
142
0.0
142
0.0
142
0.0
142
0.0
142
1.0
142
0.0
142
0.0
142
0.0
142
0.0
142
1.0
179
     0
144
0.02083333
144
0.0
144
0.0
144
0.0
144
0.0
144
0.02083333
144
0.0
144
0.0
144
0.0
144
0.0
144
1.0
144
0.0
144
0.0
144
0.0
144
0.0
144
1.0
147
0.02083333
147
0.0
147
0.0
147
0.0
147
0.0
147
0.02083333
147
0.0
147
0.0
147
0.0
147
0.0
147
1.0
147
0.0
147
0.0
147
0.0
147
0.0
147
1.0
  0
MLEADERSTYLE
  5
92
102
{ACAD_XDICTIONARY
360
14F3
102
}
102
{ACAD_REACTORS
330
91
102
}
330
91
100
AcDbMLeaderStyle
170
     2
171
     1
172
     0
 90
        2
 40
0.0
 41
0.0
173
     1
 91
-1056964608
340
12
 92
       -2
290
     1
 42
0.09
291
     1
 43
0.36
  3
Standard
 44
0.18
300

342
10
174
     1
178
     6
175
     1
176
     0
 93
-1056964608
 45
0.18
292
     0
297
     0
 46
0.18
 94
-1056964608
 47
1.0
 49
1.0
140
1.0
293
     1
141
0.0
294
     1
177
     0
142
1.0
295
     0
296
     0
143
0.125
1001
ACAD_MLEADERVER
1070
     2
  0
MLINESTYLE
  5
1F
102
{ACAD_REACTORS
330
1D
102
}
330
1D
100
AcDbMlineStyle
  2
STANDARD
 70
     0
  3

 62
   256
 51
90.0
 52
90.0
 71
     2
 49
0.5
 62
   256
  6
BYLAYER
 49
-0.5
 62
   256
  6
BYLAYER
  0
ACDBPLACEHOLDER
  5
48
102
{ACAD_REACTORS
330
47
102
}
330
47
  0
DICTIONARY
  5
745
330
744
100
AcDbDictionary
280
     1
281
     1
  3
ADSK_XREC_MENTALRAYSETTINGSINFO
360
746
  0
SCALE
  5
80
102
{ACAD_REACTORS
330
7F
102
}
330
7F
100
AcDbScale
 70
     0
300
1:1
140
1.0
141
1.0
290
     1
  0
SCALE
  5
81
102
{ACAD_REACTORS
330
7F
102
}
330
7F
100
AcDbScale
 70
     0
300
1/128" = 1'-0"
140
0.0078125
141
12.0
290
     0
  0
SCALE
  5
82
102
{ACAD_REACTORS
330
7F
102
}
330
7F
100
AcDbScale
 70
     0
300
1/64" = 1'-0"
140
0.015625
141
12.0
290
     0
  0
SCALE
  5
83
102
{ACAD_REACTORS
330
7F
102
}
330
7F
100
AcDbScale
 70
     0
300
1/32" = 1'-0"
140
0.03125
141
12.0
290
     0
  0
SCALE
  5
84
102
{ACAD_REACTORS
330
7F
102
}
330
7F
100
AcDbScale
 70
     0
300
1/16" = 1'-0"
140
0.0625
141
12.0
290
     0
  0
SCALE
  5
85
102
{ACAD_REACTORS
330
7F
102
}
330
7F
100
AcDbScale
 70
     0
300
3/32" = 1'-0"
140
0.09375
141
12.0
290
     0
  0
SCALE
  5
86
102
{ACAD_REACTORS
330
7F
102
}
330
7F
100
AcDbScale
 70
     0
300
1/8" = 1'-0"
140
0.125
141
12.0
290
     0
  0
SCALE
  5
87
102
{ACAD_REACTORS
330
7F
102
}
330
7F
100
AcDbScale
 70
     0
300
3/16" = 1'-0"
140
0.1875
141
12.0
290
     0
  0
SCALE
  5
88
102
{ACAD_REACTORS
330
7F
102
}
330
7F
100
AcDbScale
 70
     0
300
1/4" = 1'-0"
140
0.25
141
12.0
290
     0
  0
SCALE
  5
89
102
{ACAD_REACTORS
330
7F
102
}
330
7F
100
AcDbScale
 70
     0
300
3/8" = 1'-0"
140
0.375
141
12.0
290
     0
  0
SCALE
  5
8A
102
{ACAD_REACTORS
330
7F
102
}
330
7F
100
AcDbScale
 70
     0
300
1/2" = 1'-0"
140
0.5
141
12.0
290
     0
  0
SCALE
  5
8B
102
{ACAD_REACTORS
330
7F
102
}
330
7F
100
AcDbScale
 70
     0
300
3/4" = 1'-0"
140
0.75
141
12.0
290
     0
  0
SCALE
  5
8C
102
{ACAD_REACTORS
330
7F
102
}
330
7F
100
AcDbScale
 70
     0
300
1" = 1'-0"
140
1.0
141
12.0
290
     0
  0
SCALE
  5
8D
102
{ACAD_REACTORS
330
7F
102
}
330
7F
100
AcDbScale
 70
     0
300
1-1/2" = 1'-0"
140
1.5
141
12.0
290
     0
  0
SCALE
  5
8E
102
{ACAD_REACTORS
330
7F
102
}
330
7F
100
AcDbScale
 70
     0
300
3" = 1'-0"
140
3.0
141
12.0
290
     0
  0
SCALE
  5
8F
102
{ACAD_REACTORS
330
7F
102
}
330
7F
100
AcDbScale
 70
     0
300
6" = 1'-0"
140
6.0
141
12.0
290
     0
  0
SCALE
  5
90
102
{ACAD_REACTORS
330
7F
102
}
330
7F
100
AcDbScale
 70
     0
300
1'-0" = 1'-0"
140
12.0
141
12.0
290
     0
  0
ACDBSECTIONVIEWSTYLE
  5
94
102
{ACAD_XDICTIONARY
360
14F5
102
}
102
{ACAD_REACTORS
330
93
102
}
330
93
100
AcDbModelDocViewStyle
 70
     0
  3
Imperial24
290
     0
100
AcDbSectionViewStyle
 70
     0
 71
     0
 90
       78
 71
     1
340
10
 62
   256
 40
0.24
340
0
340
0
 62
   256
 40
0.24
300
I, O, Q, S, X, Z
 40
0.48
 90
        3
 40
0.18
 90
        1
 71
     2
340
7
 90
       25
 62
   256
340
7
 90
       50
 62
   256
 40
0.24
 40
0.0
 40
0.24
 71
     3
340
10
 62
   256
 40
0.24
 90
        1
 40
0.75
 90
        1
300
%<\AcVar ViewType \f "%tc1">% %<\AcVar ViewSectionStartId>%-%<\AcVar ViewSectionEndId>%\PSCALE %<\AcVar ViewScale \f "%sn">%
 71
     4
 62
   256
 62
   257
300
ANSI31
 40
1.0
 90
        0
290
     0
290
     0
 90
        6
 40
0.0
 40
1.57079633
 40
0.26179939
 40
1.30899694
 40
-0.26179939
 40
1.83259571
  0
ACDBSECTIONVIEWSTYLE
  5
118
102
{ACAD_XDICTIONARY
360
14F9
102
}
102
{ACAD_REACTORS
330
93
102
}
330
93
100
AcDbModelDocViewStyle
 70
     0
  3
Metric50
290
     0
100
AcDbSectionViewStyle
 70
     0
 71
     0
 90
      102
 71
     1
340
10
 62
   256
 40
5.0
340
0
340
0
 62
   256
 40
5.0
300
I, O, Q, S, X, Z
 40
10.0
 90
        0
 40
2.5
 90
        0
 71
     2
340
7
 90
       25
 62
   256
340
7
 90
       50
 62
   256
 40
5.0
 40
2.5
 40
5.0
 71
     3
340
10
 62
   256
 40
5.0
 90
        0
 40
15.0
 90
        1
300
%<\AcVar ViewSectionStartId>%-%<\AcVar ViewSectionEndId>% (%<\AcVar ViewScale \f "%sn">%)
 71
     4
 62
   256
 62
   257
300
ANSI31
 40
1.0
 90
        0
290
     0
290
     0
 90
        6
 40
0.0
 40
1.57079633
 40
0.26179939
 40
1.30899694
 40
-0.26179939
 40
1.83259571
  0
TABLESTYLE
  5
7E
102
{ACAD_XDICTIONARY
360
6FA
102
}
102
{ACAD_REACTORS
330
7D
102
}
330
7D
100
AcDbTableStyle
  3
Standard
 70
     0
 71
     0
 40
0.06
 41
0.06
280
     0
281
     0
  7
STANDARD
140
0.18
170
     2
 62
     0
 63
     7
283
     0
274
    -2
284
     1
 64
     0
275
    -2
285
     1
 65
     0
276
    -2
286
     1
 66
     0
277
    -2
287
     1
 67
     0
278
    -2
288
     1
 68
     0
279
    -2
289
     1
 69
     0
  7
STANDARD
140
0.25
170
     5
 62
     0
 63
     7
283
     0
274
    -2
284
     1
 64
     0
275
    -2
285
     1
 65
     0
276
    -2
286
     1
 66
     0
277
    -2
287
     1
 67
     0
278
    -2
288
     1
 68
     0
279
    -2
289
     1
 69
     0
  7
STANDARD
140
0.18
170
     5
 62
     0
 63
     7
283
     0
274
    -2
284
     1
 64
     0
275
    -2
285
     1
 65
     0
276
    -2
286
     1
 66
     0
277
    -2
287
     1
 67
     0
278
    -2
288
     1
 68
     0
279
    -2
289
     1
 69
     0
  0
VISUALSTYLE
  5
68
102
{ACAD_XDICTIONARY
360
14CC
102
}
102
{ACAD_REACTORS
330
62
102
}
330
62
100
AcDbVisualStyle
  2
2dWireframe
 70
     4
 71
     0
 72
     2
 73
     0
 90
        0
 40
-0.6
 41
-30.0
 62
     5
 63
     7
421
 16777215
 74
     1
 91
        4
 64
     7
 65
   257
 75
     1
175
     1
 42
1.0
 92
        0
 66
   257
 43
1.0
 76
     1
 77
     6
 78
     2
 67
     7
 79
     5
170
     0
171
     0
290
     0
174
     0
 93
        1
 44
0.0
173
     0
291
     0
 45
0.0
1001
ACAD
1000
AcDbSavedByObjectVersion
1070
     0
  0
VISUALSTYLE
  5
67
102
{ACAD_XDICTIONARY
360
14CA
102
}
102
{ACAD_REACTORS
330
62
102
}
330
62
100
AcDbVisualStyle
  2
Basic
 70
     7
 71
     1
 72
     0
 73
     1
 90
        0
 40
-0.6
 41
-30.0
 62
     5
 63
     7
421
 16777215
 74
     0
 91
        4
 64
     7
 65
   257
 75
     1
175
     1
 42
1.0
 92
        8
 66
     7
 43
1.0
 76
     1
 77
     6
 78
     2
 67
     7
 79
     5
170
     0
171
     0
290
     0
174
     0
 93
        1
 44
0.0
173
     0
291
     1
 45
0.0
1001
ACAD
1000
AcDbSavedByObjectVersion
1070
     0
  0
VISUALSTYLE
  5
6E
102
{ACAD_XDICTIONARY
360
14D8
102
}
102
{ACAD_REACTORS
330
62
102
}
330
62
100
AcDbVisualStyle
  2
Brighten
 70
    12
 71
     2
 72
     2
 73
     0
 90
        0
 40
-0.6
 41
-30.0
 62
     5
 63
     7
421
 16777215
 74
     1
 91
        4
 64
     7
 65
   257
 75
     1
175
     1
 42
1.0
 92
        8
 66
     7
 43
1.0
 76
     1
 77
     6
 78
     2
 67
     7
 79
     5
170
     0
171
     0
290
     0
174
     0
 93
        1
 44
50.0
173
     0
291
     1
 45
0.0
1001
ACAD
1000
AcDbSavedByObjectVersion
1070
     0
  0
VISUALSTYLE
  5
72
102
{ACAD_XDICTIONARY
360
14E0
102
}
102
{ACAD_REACTORS
330
62
102
}
330
62
100
AcDbVisualStyle
  2
ColorChange
 70
    16
 71
     2
 72
     2
 73
     3
 90
        0
 40
-0.6
 41
-30.0
 62
     5
 63
     8
421
  8421504
 74
     1
 91
        4
 64
     7
 65
   257
 75
     1
175
     1
 42
1.0
 92
        8
 66
     8
424
  8421504
 43
1.0
 76
     1
 77
     6
 78
     2
 67
     7
 79
     5
170
     0
171
     0
290
     0
174
     0
 93
        1
 44
0.0
173
     0
291
     1
 45
0.0
1001
ACAD
1000
AcDbSavedByObjectVersion
1070
     0
  0
VISUALSTYLE
  5
6B
102
{ACAD_XDICTIONARY
360
14D2
102
}
102
{ACAD_REACTORS
330
62
102
}
330
62
100
AcDbVisualStyle
  2
Conceptual
 70
     9
 71
     3
 72
     2
 73
     0
 90
        0
 40
-0.6
 41
-30.0
 62
     5
 63
     7
421
 16777215
 74
     2
 91
        2
 64
     7
 65
   257
 75
     1
175
     1
 42
179.0
 92
        8
 66
     7
 43
1.0
 76
     1
 77
     6
 78
     2
 67
     7
 79
     3
170
     0
171
     0
290
     0
174
     0
 93
        1
 44
0.0
173
     0
291
     0
 45
0.0
1001
ACAD
1000
AcDbSavedByObjectVersion
1070
     0
  0
VISUALSTYLE
  5
6D
102
{ACAD_XDICTIONARY
360
14D6
102
}
102
{ACAD_REACTORS
330
62
102
}
330
62
100
AcDbVisualStyle
  2
Dim
 70
    11
 71
     2
 72
     2
 73
     0
 90
        0
 40
-0.6
 41
-30.0
 62
     5
 63
     7
421
 16777215
 74
     1
 91
        4
 64
     7
 65
   257
 75
     1
175
     1
 42
1.0
 92
        8
 66
     7
 43
1.0
 76
     1
 77
     6
 78
     2
 67
     7
 79
     5
170
     0
171
     0
290
     0
174
     0
 93
        1
 44
-50.0
173
     0
291
     1
 45
0.0
1001
ACAD
1000
AcDbSavedByObjectVersion
1070
     0
  0
VISUALSTYLE
  5
7A
102
{ACAD_XDICTIONARY
360
14F0
102
}
102
{ACAD_REACTORS
330
62
102
}
330
62
100
AcDbVisualStyle
  2
EdgeColorOff
 70
    22
 71
     2
 72
     2
 73
     0
 90
        0
 40
-0.6
 41
-30.0
 62
     5
 63
     7
421
 16777215
 74
     1
 91
        4
 64
     7
 65
   257
 75
     1
175
     1
 42
1.0
 92
        8
 66
     7
 43
1.0
 76
     1
 77
     6
 78
     2
 67
     7
 79
     5
170
     0
171
     0
290
     0
174
     0
 93
        1
 44
0.0
173
     0
291
     1
 45
0.0
1001
ACAD
1000
AcDbSavedByObjectVersion
1070
     0
  0
VISUALSTYLE
  5
71
102
{ACAD_XDICTIONARY
360
14DE
102
}
102
{ACAD_REACTORS
330
62
102
}
330
62
100
AcDbVisualStyle
  2
Facepattern
 70
    15
 71
     2
 72
     2
 73
     0
 90
        0
 40
-0.6
 41
-30.0
 62
     5
 63
     7
421
 16777215
 74
     1
 91
        4
 64
     7
 65
   257
 75
     1
175
     1
 42
1.0
 92
        8
 66
     7
 43
1.0
 76
     1
 77
     6
 78
     2
 67
     7
 79
     5
170
     0
171
     0
290
     0
174
     0
 93
        1
 44
0.0
173
     0
291
     1
 45
0.0
1001
ACAD
1000
AcDbSavedByObjectVersion
1070
     0
  0
VISUALSTYLE
  5
63
102
{ACAD_XDICTIONARY
360
14C2
102
}
102
{ACAD_REACTORS
330
62
102
}
330
62
100
AcDbVisualStyle
  2
Flat
 70
     0
 71
     2
 72
     1
 73
     1
 90
        2
 40
-0.6
 41
30.0
 62
     5
 63
     7
421
 16777215
 74
     0
 91
        0
 64
     7
 65
   257
 75
     1
175
     1
 42
1.0
 92
        8
 66
     7
 43
1.0
 76
     1
 77
     6
 78
     2
 67
     7
 79
     5
170
     0
171
     0
290
     0
174
     0
 93
       13
 44
0.0
173
     0
291
     1
 45
0.0
1001
ACAD
1000
AcDbSavedByObjectVersion
1070
     0
  0
VISUALSTYLE
  5
64
102
{ACAD_XDICTIONARY
360
14C4
102
}
102
{ACAD_REACTORS
330
62
102
}
330
62
100
AcDbVisualStyle
  2
FlatWithEdges
 70
     1
 71
     2
 72
     1
 73
     1
 90
        2
 40
-0.6
 41
30.0
 62
     5
 63
     7
421
 16777215
 74
     1
 91
        0
 64
     7
 65
   257
 75
     1
175
     1
 42
1.0
 92
        0
 66
   257
 43
1.0
 76
     1
 77
     6
 78
     2
 67
     7
 79
     5
170
     0
171
     0
290
     0
174
     0
 93
       13
 44
0.0
173
     0
291
     1
 45
0.0
1001
ACAD
1000
AcDbSavedByObjectVersion
1070
     0
  0
VISUALSTYLE
  5
65
102
{ACAD_XDICTIONARY
360
14C6
102
}
102
{ACAD_REACTORS
330
62
102
}
330
62
100
AcDbVisualStyle
  2
Gouraud
 70
     2
 71
     2
 72
     2
 73
     1
 90
        2
 40
-0.6
 41
30.0
 62
     5
 63
     7
421
 16777215
 74
     0
 91
        0
 64
     7
 65
   257
 75
     1
175
     1
 42
1.0
 92
        0
 66
     7
 43
1.0
 76
     1
 77
     6
 78
     2
 67
     7
 79
     5
170
     0
171
     0
290
     0
174
     0
 93
       13
 44
0.0
173
     0
291
     1
 45
0.0
1001
ACAD
1000
AcDbSavedByObjectVersion
1070
     0
  0
VISUALSTYLE
  5
66
102
{ACAD_XDICTIONARY
360
14C8
102
}
102
{ACAD_REACTORS
330
62
102
}
330
62
100
AcDbVisualStyle
  2
GouraudWithEdges
 70
     3
 71
     2
 72
     2
 73
     1
 90
        2
 40
-0.6
 41
30.0
 62
     5
 63
     7
421
 16777215
 74
     1
 91
        0
 64
     7
 65
   257
 75
     1
175
     1
 42
1.0
 92
        0
 66
   257
 43
1.0
 76
     1
 77
     6
 78
     2
 67
     7
 79
     5
170
     0
171
     0
290
     0
174
     0
 93
       13
 44
0.0
173
     0
291
     1
 45
0.0
1001
ACAD
1000
AcDbSavedByObjectVersion
1070
     0
  0
VISUALSTYLE
  5
6A
102
{ACAD_XDICTIONARY
360
14D0
102
}
102
{ACAD_REACTORS
330
62
102
}
330
62
100
AcDbVisualStyle
  2
Hidden
 70
     6
 71
     1
 72
     2
 73
     2
 90
        0
 40
-0.6
 41
-30.0
 62
     5
 63
     7
421
 16777215
 74
     2
 91
        2
 64
     7
 65
   257
 75
     2
175
     1
 42
40.0
 92
        0
 66
   257
 43
1.0
 76
     1
 77
     6
 78
     2
 67
     7
 79
     3
170
     0
171
     0
290
     0
174
     0
 93
        1
 44
0.0
173
     0
291
     0
 45
0.0
1001
ACAD
1000
AcDbSavedByObjectVersion
1070
     0
  0
VISUALSTYLE
  5
78
102
{ACAD_XDICTIONARY
360
14EC
102
}
102
{ACAD_REACTORS
330
62
102
}
330
62
100
AcDbVisualStyle
  2
JitterOff
 70
    20
 71
     2
 72
     2
 73
     0
 90
        0
 40
-0.6
 41
-30.0
 62
     5
 63
     7
421
 16777215
 74
     1
 91
        4
 64
     7
 65
   257
 75
     1
175
     1
 42
1.0
 92
       10
 66
     7
 43
1.0
 76
     1
 77
     6
 78
     2
 67
     7
 79
     5
170
     0
171
     0
290
     0
174
     0
 93
        1
 44
0.0
173
     0
291
     1
 45
0.0
1001
ACAD
1000
AcDbSavedByObjectVersion
1070
     0
  0
VISUALSTYLE
  5
70
102
{ACAD_XDICTIONARY
360
14DC
102
}
102
{ACAD_REACTORS
330
62
102
}
330
62
100
AcDbVisualStyle
  2
Linepattern
 70
    14
 71
     2
 72
     2
 73
     0
 90
        0
 40
-0.6
 41
-30.0
 62
     5
 63
     7
421
 16777215
 74
     1
 91
        4
 64
     7
 65
   257
 75
     7
175
     7
 42
1.0
 92
        8
 66
     7
 43
1.0
 76
     1
 77
     6
 78
     2
 67
     7
 79
     5
170
     0
171
     0
290
     0
174
     0
 93
        1
 44
0.0
173
     0
291
     1
 45
0.0
1001
ACAD
1000
AcDbSavedByObjectVersion
1070
     0
  0
VISUALSTYLE
  5
79
102
{ACAD_XDICTIONARY
360
14EE
102
}
102
{ACAD_REACTORS
330
62
102
}
330
62
100
AcDbVisualStyle
  2
OverhangOff
 70
    21
 71
     2
 72
     2
 73
     0
 90
        0
 40
-0.6
 41
-30.0
 62
     5
 63
     7
421
 16777215
 74
     1
 91
        4
 64
     7
 65
   257
 75
     1
175
     1
 42
1.0
 92
        9
 66
     7
 43
1.0
 76
     1
 77
     6
 78
     2
 67
     7
 79
     5
170
     0
171
     0
290
     0
174
     0
 93
        1
 44
0.0
173
     0
291
     1
 45
0.0
1001
ACAD
1000
AcDbSavedByObjectVersion
1070
     0
  0
VISUALSTYLE
  5
6C
102
{ACAD_XDICTIONARY
360
14D4
102
}
102
{ACAD_REACTORS
330
62
102
}
330
62
100
AcDbVisualStyle
  2
Realistic
 70
     8
 71
     2
 72
     2
 73
     0
 90
        2
 40
-0.6
 41
30.0
 62
     5
 63
     7
421
 16777215
 74
     0
 91
        0
 64
     7
 65
   257
 75
     1
175
     1
 42
1.0
 92
        8
 66
   257
 43
1.0
 76
     1
 77
     6
 78
     2
 67
     7
 79
     3
170
     0
171
     0
290
     0
174
     0
 93
       13
 44
0.0
173
     0
291
     0
 45
0.0
1001
ACAD
1000
AcDbSavedByObjectVersion
1070
     0
  0
VISUALSTYLE
  5
77
102
{ACAD_XDICTIONARY
360
14EA
102
}
102
{ACAD_REACTORS
330
62
102
}
330
62
100
AcDbVisualStyle
  2
Shaded
 70
    27
 71
     2
 72
     2
 73
     1
 90
        2
 40
-0.6
 41
30.0
 62
     5
 63
     7
421
 16777215
 74
     0
 91
        4
 64
     7
 65
   257
 75
     1
175
     1
 42
1.0
 92
        8
 66
   257
 43
1.0
 76
     1
 77
     6
 78
     2
 67
     8
425
  7895160
 79
     3
170
     0
171
     0
290
     0
174
     0
 93
        5
 44
0.0
173
     0
291
     0
 45
0.0
1001
ACAD
1000
AcDbSavedByObjectVersion
1070
     0
  0
VISUALSTYLE
  5
76
102
{ACAD_XDICTIONARY
360
14E8
102
}
102
{ACAD_REACTORS
330
62
102
}
330
62
100
AcDbVisualStyle
  2
Shaded with edges
 70
    26
 71
     2
 72
     2
 73
     1
 90
        2
 40
-0.6
 41
30.0
 62
     5
 63
     7
421
 16777215
 74
     1
 91
        2
 64
     7
 65
   257
 75
     2
175
     1
 42
1.0
 92
        8
 66
   257
 43
1.0
 76
     1
 77
     6
 78
     2
 67
     7
 79
     3
170
     0
171
     0
290
     0
174
     0
 93
        5
 44
0.0
173
     0
291
     0
 45
0.0
1001
ACAD
1000
AcDbSavedByObjectVersion
1070
     0
  0
VISUALSTYLE
  5
73
102
{ACAD_XDICTIONARY
360
14E2
102
}
102
{ACAD_REACTORS
330
62
102
}
330
62
100
AcDbVisualStyle
  2
Shades of Gray
 70
    23
 71
     2
 72
     2
 73
     3
 90
        0
 40
-0.6
 41
-30.0
 62
     5
 63
     7
421
 16777215
 74
     2
 91
        2
 64
     7
 65
     7
 75
     1
175
     1
 42
40.0
 92
        8
 66
     7
 43
1.0
 76
     1
 77
     6
 78
     2
 67
     7
 79
     3
170
     0
171
     0
290
     0
174
     0
 93
        1
 44
0.0
173
     0
291
     0
 45
0.0
1001
ACAD
1000
AcDbSavedByObjectVersion
1070
     0
  0
VISUALSTYLE
  5
74
102
{ACAD_XDICTIONARY
360
14E4
102
}
102
{ACAD_REACTORS
330
62
102
}
330
62
100
AcDbVisualStyle
  2
Sketchy
 70
    24
 71
     1
 72
     2
 73
     2
 90
        0
 40
-0.6
 41
-30.0
 62
     5
 63
     7
421
 16777215
 74
     2
 91
        2
 64
     7
 65
     7
 75
     1
175
     1
 42
40.0
 92
       11
 66
     7
 43
1.0
 76
     1
 77
     6
 78
     2
 67
     7
 79
     6
170
     0
171
     0
290
     0
174
     0
 93
        1
 44
0.0
173
     0
291
     0
 45
0.0
1001
ACAD
1000
AcDbSavedByObjectVersion
1070
     0
  0
VISUALSTYLE
  5
6F
102
{ACAD_XDICTIONARY
360
14DA
102
}
102
{ACAD_REACTORS
330
62
102
}
330
62
100
AcDbVisualStyle
  2
Thicken
 70
    13
 71
     2
 72
     2
 73
     0
 90
        0
 40
-0.6
 41
-30.0
 62
     5
 63
     7
421
 16777215
 74
     1
 91
        4
 64
     7
 65
   257
 75
     1
175
     1
 42
1.0
 92
       12
 66
     7
 43
1.0
 76
     1
 77
     6
 78
     2
 67
     7
 79
     5
170
     0
171
     0
290
     0
174
     0
 93
        1
 44
0.0
173
     0
291
     1
 45
0.0
1001
ACAD
1000
AcDbSavedByObjectVersion
1070
     0
  0
VISUALSTYLE
  5
69
102
{ACAD_XDICTIONARY
360
14CE
102
}
102
{ACAD_REACTORS
330
62
102
}
330
62
100
AcDbVisualStyle
  2
Wireframe
 70
     5
 71
     0
 72
     2
 73
     0
 90
        0
 40
-0.6
 41
-30.0
 62
     5
 63
     7
421
 16777215
 74
     1
 91
        4
 64
     7
 65
   257
 75
     1
175
     1
 42
1.0
 92
        0
 66
   257
 43
1.0
 76
     1
 77
     6
 78
     2
 67
     7
 79
     3
170
     0
171
     0
290
     0
174
     0
 93
        1
 44
0.0
173
     0
291
     0
 45
0.0
1001
ACAD
1000
AcDbSavedByObjectVersion
1070
     0
  0
VISUALSTYLE
  5
75
102
{ACAD_XDICTIONARY
360
14E6
102
}
102
{ACAD_REACTORS
330
62
102
}
330
62
100
AcDbVisualStyle
  2
X-Ray
 70
    25
 71
     2
 72
     2
 73
     1
 90
        1
 40
0.5
 41
-30.0
 62
     5
 63
     7
421
 16777215
 74
     1
 91
        0
 64
     7
 65
   257
 75
     1
175
     1
 42
1.0
 92
        8
 66
     7
 43
1.0
 76
     1
 77
     6
 78
     2
 67
     7
 79
     3
170
     0
171
     0
290
     0
174
     0
 93
       13
 44
0.0
173
     0
291
     0
 45
0.0
1001
ACAD
1000
AcDbSavedByObjectVersion
1070
     0
  0
DICTIONARYVAR
  5
750
102
{ACAD_REACTORS
330
74B
102
}
330
74B
100
DictionaryVariables
280
     0
  1
1:1
  0
DICTIONARYVAR
  5
74D
102
{ACAD_REACTORS
330
74B
102
}
330
74B
100
DictionaryVariables
280
     0
  1
STANDARD
  0
DICTIONARYVAR
  5
74C
102
{ACAD_REACTORS
330
74B
102
}
330
74B
100
DictionaryVariables
280
     0
  1
STANDARD
  0
DICTIONARYVAR
  5
74E
102
{ACAD_REACTORS
330
74B
102
}
330
74B
100
DictionaryVariables
280
     0
  1
Imperial24
  0
DICTIONARYVAR
  5
74F
102
{ACAD_REACTORS
330
74B
102
}
330
74B
100
DictionaryVariables
280
     0
  1
Imperial24
  0
DICTIONARYVAR
  5
14BC
102
{ACAD_REACTORS
330
74B
102
}
330
74B
100
DictionaryVariables
280
     0
  1
2
  0
DICTIONARY
  5
14F7
330
96
100
AcDbDictionary
280
     1
281
     1
  3
ACAD_XREC_ROUNDTRIP
360
14F8
  0
DICTIONARY
  5
14FB
330
119
100
AcDbDictionary
280
     1
281
     1
  3
ACAD_XREC_ROUNDTRIP
360
14FC
  0
DICTIONARY
  5
742
330
98
100
AcDbDictionary
280
     1
281
     1
  3
ADSK_XREC_LAYOUTTHUMBNAIL
360
743
  0
DICTIONARY
  5
53
330
52
100
AcDbDictionary
280
     1
281
     1
  3
ACAD_XREC_ROUNDTRIP
360
14C0
  3
BUMPTILE
360
55
  3
DIFFUSETILE
360
54
  3
OPACITYTILE
360
58
  3
REFLECTIONTILE
360
57
  3
REFRACTIONTILE
360
59
  3
SPECULARTILE
360
56
  0
DICTIONARY
  5
4B
330
4A
100
AcDbDictionary
280
     1
281
     1
  3
ACAD_XREC_ROUNDTRIP
360
14BF
  3
BUMPTILE
360
4D
  3
DIFFUSETILE
360
4C
  3
OPACITYTILE
360
50
  3
REFLECTIONTILE
360
4F
  3
REFRACTIONTILE
360
51
  3
SPECULARTILE
360
4E
  0
DICTIONARY
  5
5B
330
5A
100
AcDbDictionary
280
     1
281
     1
  3
ACAD_XREC_ROUNDTRIP
360
14C1
  3
BUMPTILE
360
5D
  3
DIFFUSETILE
360
5C
  3
OPACITYTILE
360
60
  3
REFLECTIONTILE
360
5F
  3
REFRACTIONTILE
360
61
  3
SPECULARTILE
360
5E
  0
DICTIONARY
  5
14F3
330
92
100
AcDbDictionary
280
     1
281
     1
  3
ACAD_XREC_ROUNDTRIP
360
14F4
  0
XRECORD
  5
746
102
{ACAD_REACTORS
330
745
102
}
330
745
100
AcDbXrecord
280
     1
 70
     2
 71
     3
 72
     0
  0
DICTIONARY
  5
14F5
330
94
100
AcDbDictionary
280
     1
281
     1
  3
ACAD_XREC_ROUNDTRIP
360
14F6
  0
DICTIONARY
  5
14F9
330
118
100
AcDbDictionary
280
     1
281
     1
  3
ACAD_XREC_ROUNDTRIP
360
14FA
  0
DICTIONARY
  5
6FA
330
7E
100
AcDbDictionary
280
     1
281
     1
  3
ACAD_ROUNDTRIP_2008_TABLESTYLE_CELLSTYLEMAP
360
14BD
  3
ACAD_XREC_ROUNDTRIP
360
14F2
  0
DICTIONARY
  5
14CC
330
68
100
AcDbDictionary
280
     1
281
     1
  3
ACAD_XREC_ROUNDTRIP
360
14CD
  0
DICTIONARY
  5
14CA
330
67
100
AcDbDictionary
280
     1
281
     1
  3
ACAD_XREC_ROUNDTRIP
360
14CB
  0
DICTIONARY
  5
14D8
330
6E
100
AcDbDictionary
280
     1
281
     1
  3
ACAD_XREC_ROUNDTRIP
360
14D9
  0
DICTIONARY
  5
14E0
330
72
100
AcDbDictionary
280
     1
281
     1
  3
ACAD_XREC_ROUNDTRIP
360
14E1
  0
DICTIONARY
  5
14D2
330
6B
100
AcDbDictionary
280
     1
281
     1
  3
ACAD_XREC_ROUNDTRIP
360
14D3
  0
DICTIONARY
  5
14D6
330
6D
100
AcDbDictionary
280
     1
281
     1
  3
ACAD_XREC_ROUNDTRIP
360
14D7
  0
DICTIONARY
  5
14F0
330
7A
100
AcDbDictionary
280
     1
281
     1
  3
ACAD_XREC_ROUNDTRIP
360
14F1
  0
DICTIONARY
  5
14DE
330
71
100
AcDbDictionary
280
     1
281
     1
  3
ACAD_XREC_ROUNDTRIP
360
14DF
  0
DICTIONARY
  5
14C2
330
63
100
AcDbDictionary
280
     1
281
     1
  3
ACAD_XREC_ROUNDTRIP
360
14C3
  0
DICTIONARY
  5
14C4
330
64
100
AcDbDictionary
280
     1
281
     1
  3
ACAD_XREC_ROUNDTRIP
360
14C5
  0
DICTIONARY
  5
14C6
330
65
100
AcDbDictionary
280
     1
281
     1
  3
ACAD_XREC_ROUNDTRIP
360
14C7
  0
DICTIONARY
  5
14C8
330
66
100
AcDbDictionary
280
     1
281
     1
  3
ACAD_XREC_ROUNDTRIP
360
14C9
  0
DICTIONARY
  5
14D0
330
6A
100
AcDbDictionary
280
     1
281
     1
  3
ACAD_XREC_ROUNDTRIP
360
14D1
  0
DICTIONARY
  5
14EC
330
78
100
AcDbDictionary
280
     1
281
     1
  3
ACAD_XREC_ROUNDTRIP
360
14ED
  0
DICTIONARY
  5
14DC
330
70
100
AcDbDictionary
280
     1
281
     1
  3
ACAD_XREC_ROUNDTRIP
360
14DD
  0
DICTIONARY
  5
14EE
330
79
100
AcDbDictionary
280
     1
281
     1
  3
ACAD_XREC_ROUNDTRIP
360
14EF
  0
DICTIONARY
  5
14D4
330
6C
100
AcDbDictionary
280
     1
281
     1
  3
ACAD_XREC_ROUNDTRIP
360
14D5
  0
DICTIONARY
  5
14EA
330
77
100
AcDbDictionary
280
     1
281
     1
  3
ACAD_XREC_ROUNDTRIP
360
14EB
  0
DICTIONARY
  5
14E8
330
76
100
AcDbDictionary
280
     1
281
     1
  3
ACAD_XREC_ROUNDTRIP
360
14E9
  0
DICTIONARY
  5
14E2
330
73
100
AcDbDictionary
280
     1
281
     1
  3
ACAD_XREC_ROUNDTRIP
360
14E3
  0
DICTIONARY
  5
14E4
330
74
100
AcDbDictionary
280
     1
281
     1
  3
ACAD_XREC_ROUNDTRIP
360
14E5
  0
DICTIONARY
  5
14DA
330
6F
100
AcDbDictionary
280
     1
281
     1
  3
ACAD_XREC_ROUNDTRIP
360
14DB
  0
DICTIONARY
  5
14CE
330
69
100
AcDbDictionary
280
     1
281
     1
  3
ACAD_XREC_ROUNDTRIP
360
14CF
  0
DICTIONARY
  5
14E6
330
75
100
AcDbDictionary
280
     1
281
     1
  3
ACAD_XREC_ROUNDTRIP
360
14E7
  0
XRECORD
  5
14F8
102
{ACAD_REACTORS
330
14F7
102
}
330
14F7
100
AcDbXrecord
280
     1
102
DISPLAYNAME
  1
Imperial24
102
FLAGS
 90
        0
  0
XRECORD
  5
14FC
102
{ACAD_REACTORS
330
14FB
102
}
330
14FB
100
AcDbXrecord
280
     1
102
DISPLAYNAME
  1
Metric50
102
FLAGS
 90
        0
  0
XRECORD
  5
743
102
{ACAD_REACTORS
330
742
102
}
330
742
100
AcDbXrecord
280
     1
310
2800000000010000630000000100080000000000006300000100000001000000000100000000000000000000FFFFFF52000000FF000000FF000000FF000000FF000000FF000000FF000000FF000000FF000000FF330000FF660000FF990000FFCC0000FFFF0000FF003300FF333300FF663300FF993300FFCC3300FFFF3300
310
FF006600FF336600FF666600FF996600FFCC6600FFFF6600FF009900FF339900FF669900FF999900FFCC9900FFFF9900FF00CC00FF33CC00FF66CC00FF99CC00FFCCCC00FFFFCC00FF00FF00FF33FF00FF66FF00FF99FF00FFCCFF00FFFFFF00FF000033FF330033FF660033FF990033FFCC0033FFFF0033FF003333FF3333
310
33FF663333FF993333FFCC3333FFFF3333FF006633FF336633FF666633FF996633FFCC6633FFFF6633FF009933FF339933FF669933FF999933FFCC9933FFFF9933FF00CC33FF33CC33FF66CC33FF99CC33FFCCCC33FFFFCC33FF00FF33FF33FF33FF66FF33FF99FF33FFCCFF33FFFFFF33FF000066FF330066FF660066FF99
310
0066FFCC0066FFFF0066FF003366FF333366FF663366FF993366FFCC3366FFFF3366FF006666FF336666FF666666FF996666FFCC6666FFFF6666FF009966FF339966FF669966FF999966FFCC9966FFFF9966FF00CC66FF33CC66FF66CC66FF99CC66FFCCCC66FFFFCC66FF00FF66FF33FF66FF66FF66FF99FF66FFCCFF66FF
310
FFFF66FF000099FF330099FF660099FF990099FFCC0099FFFF0099FF003399FF333399FF663399FF993399FFCC3399FFFF3399FF006699FF336699FF666699FF996699FFCC6699FFFF6699FF009999FF339999FF669999FF999999FFCC9999FFFF9999FF00CC99FF33CC99FF66CC99FF99CC99FFCCCC99FFFFCC99FF00FF99
310
FF33FF99FF66FF99FF99FF99FFCCFF99FFFFFF99FF0000CCFF3300CCFF6600CCFF9900CCFFCC00CCFFFF00CCFF0033CCFF3333CCFF6633CCFF9933CCFFCC33CCFFFF33CCFF0066CCFF3366CCFF6666CCFF9966CCFFCC66CCFFFF66CCFF0099CCFF3399CCFF6699CCFF9999CCFFCC99CCFFFF99CCFF00CCCCFF33CCCCFF66CC
310
CCFF99CCCCFFCCCCCCFFFFCCCCFF00FFCCFF33FFCCFF66FFCCFF99FFCCFFCCFFCCFFFFFFCCFF0000FFFF3300FFFF6600FFFF9900FFFFCC00FFFFFF00FFFF0033FFFF3333FFFF6633FFFF9933FFFFCC33FFFFFF33FFFF0066FFFF3366FFFF6666FFFF9966FFFFCC66FFFFFF66FFFF0099FFFF3399FFFF6699FFFF9999FFFFCC
310
99FFFFFF99FFFF00CCFFFF33CCFFFF66CCFFFF99CCFFFFCCCCFFFFFFCCFFFF00FFFFFF33FFFFFF66FFFFFF99FFFFFFCCFFFFFFFFFFFFFF000000FF0D0D0DFF1A1A1AFF282828FF353535FF434343FF505050FF5D5D5DFF6B6B6BFF787878FF868686FF939393FFA1A1A1FFAEAEAEFFBBBBBBFFC9C9C9FFD6D6D6FFE4E4E4FF
310
F1F1F1FFFFFFFFFF000000FF000000FF000000FF000000FF000000FF000000FF000000FF000000FF000000FF000000FF00000000000000000000000000000000000000000000000000000000000000000000000000000000000000000000000000000000000000000000000000000000000000000000000000000000000000
310
00000000000000000000000000000000000000000000000000000000000000000000000000000000000000000000000000000000000000000000000000000000000000000000000000000000000000000000000000000000000000000000000000000000000000000000000000000000000000000000000000000000000000
310
0000000000000000000000000000000000000000000000000000000000000000000000000000000000000000000000000000000000000000000000000000000000000000000000000000000000000000000000000000000000000000000000000000000000000000000000000000F5F5F5F5F5F5F5F5F5F5F5F5F5F5F5F5F5
310
F5F5F5F5F5F5F5F5F5F5F5F5F5F5F5F5F5F5F5F5F5F5F5F5F5F5F5F5F5F5F5F5F5F5F5F5F5F5F5F5F5F5F5F5F5F5F5F5F5F5F5F5F5F5F5F5F5F5F5F5F5F5F5F5F5F5F5F5F5F5F5F5F5F5F5F5F5F5F5F5F5F5F5F5F5F5F5F5F5F5F5F5F5F5F5F5F5F5F5F5F5F5F5F5F5F5F5F5F5F5F5F5F5F5F5F5F5F5F50000000000000000
310
00000000000000000000000000000000000000000000000000000000000000000000000000000000000000000000000000000000000000000000000000000000000000000000000000000000000000000000000000000000000000000000000000000000000000000000000000000000F50000000000000000000000000000
310
000000000000000000000000000000000000000000000000000000000000000000000000000000000000000000000000000000000000000000000000000000000000000000000000000000000000000000000000000000000000000000000000000000000000000000000000000000000000000000F50000F5000000000000
310
000000000000000000000000000000000000000000000000000000000000000000000000000000000000000000000000000000000000000000000000000000000000000000000000000000000000000000000000000000000000000000000000000000000000000000000000000000000000F5000000000000000000000000
310
0000000000000000000000000000000000000000000000000000000000000000000000000000000000000000000000000000000000000000000000000000000000000000000000000000000000000000000000000000000000000000000000000000000000000000000000000000000000000000000000F50000F500000000
310
0000000000000000000000000000000000000000000000000000000000000000000000000000000000000000000000000000000000000000000000000000000000000000000000000000000000000000000000000000000000000000000000000000000000000000000000000000000000000000F500000000000000000000
310
00000000000000000000000000000000000000000000000000000000000000000000000000000000000000000000000000000000000000000000000000000000000000000000000000000000000000000000000000000000000000000000000000000000000000000000000000000000000000000000000000F50000F50000
310
00000000000000000000000000000000000000000000000000000000000000000000000000000000000000000000000000000000000000000000000000000000000000000000000000000000000000000000000000000000000000000000000000000000000000000000000000000000000000000000F50000000000000000
310
000000000000000000000000000000000000000000000000000000000000000000000000000000000000000000000000000000000000000000000000000000000000000000000000000000000000000000000000000000000000000000000000000000000000000000000000000000000000000000000000000000F50000F5
310
000000000000000000000000000000000000000000000000000000000000000000000000000000000000000000000000000000000000000000000000000000000000000000000000000000000000000000000000000000000000000000000000000000000000000000000000000000000000000000000000F5000000000000
310
0000000000000000000000000000000000000000000000000000000000000000000000000000000000000000000000000000000000000000000000000000000000000000000000000000000000000000000000000000000000000000000000000000000000000000000000000000000000000000000000000000000000F500
310
00F5000000000000000000000000000000000000000000000000000000000000000000000000000000000000000000000000000000000000000000000000000000000000000000000000000000000000000000000000000000000000000000000000000000000000000000000000000000000000000000000000F500000000
310
00000000000000000000000000000000000000000000000000000000000000000000000000000000000000000000000000000000000000000000000000000000000000000000000000000000000000000000000000000000000000000000000000000000000000000000000000000000000000000000000000000000000000
310
F50000F5000000000000000000000000000000000000000000000000000000000000000000000000000000000000000000000000000000000000000000000000000000000000000000000000000000000000000000000000000000000000000000000000000000000000000000000000000000000000000000000000F50000
310
00000000000000000000000000000000000000000000000000000000000000000000000000000000000000000000000000000000000000000000000000000000000000000000000000000000000000000000000000000000000000000000000000000000000000000000000000000000000000000000000000000000000000
310
0000F50000F5000000000000000000000000000000000000000000000000000000000000000000000000000000000000000000000000000000000000000000000000000000000000000000000000000000000000000000000000000000000000000000000000000000000000000000000000000000000000000000000000F5
310
00000000000000000000000000000000000000000000000000000000000000000000000000000000000000000000000000000000000000000000000000000000000000000000000000000000000000000000000000000000000000000000000000000000000000000000000000000000000000000000000000000000000000
310
00000000F50000F50000000000000000000000000000000000000000000000000000000000000000000000000000000000000000000000000000000000000000000000000000000000000000000000000000000000000000000000000000000000000000000000000000000000000000000000000000000000000000000000
310
00F50000000000000000000000000000000000000000000000000000000000000000000000000000000000000000000000000000000000000000000000000000000000000000000000000000000000000000000000000000000000000000000000000000000000000000000000000000000000000000000000000000000000
310
000000000000F50000F5000000000000000000000000000000000000000000000000000000000000000000000000000000000000000000000000000000000000000000000000000000000000000000000000000000000000000000000000000000000000000000000000000000000000000000000000000000000000000000
310
000000F5000000000000000000000000000000000000000000000000000000000000000000000000000000000000000000000000000000000000000000000000000000000000000000000000000000000000000000000000000000000000000000000000000000000000000000000000000000000000000000000000000000
310
0000000000000000F50000F500000000000000000000000000000000000000000000000000000000000000000000000000000000000000000000000000000000000000000000000000000000000000000000000000000000000000000000000000000000000000000000000000000000000000000000000000000000000000
310
0000000000F500000000000000000000000000000000000000000000000000000000000000000000000000000000000000000000000000000000000000000000000000000000000000000000000000000000000000000000000000000000000000000000000000000000000000000000000000000000000000000000000000
310
00000000000000000000F50000F50000000000000000000000000000000000000000000000000000000000000000000000000000000000000000000000000000000000000000000000000000000000000000000000000000000000000000000000000000000000000000000000000000000000000000000000000000000000
310
00000000000000F50000000000000000000000000000000000000000000000000000000000000000000000000000000000000000000000000000000000000000000000000000000000000000000000000000000000000000000000000000000000000000000000000000000000000000000000000000000000000000000000
310
000000000000000000000000F50000F5000000000000000000000000000000000000000000000000000000000000000000000000000000000000000000000000000000000000000000000000000000000000000000000000000000000000000000000000000000000000000000000000000000000000000000000000000000
310
000000000000000000F5000000000000000000000000000000000000000000000000000000000000000000000000000000000000000000000000000000000000000000000000000000000000000000000000000000000000000000000000000000000000000000000000000000000000000000000000000000000000000000
310
0000000000000000000000000000F50000F500000000000000000000000000000000000000000000000000000000000000000000000000000000000000000000000000000000000000000000000000000000000000000000000000000000000000000000000000000000000000000000000000000000000000000000000000
310
0000000000000000000000F500000000000000000000000000000000000000000000000000000000000000000000000000000000000000000000000000000000000000000000000000000000000000000000000000000000000000000000000000000000000000000000000000000000000000000000000000000000000000
310
00000000000000000000000000000000F50000F50000000000000000000000000000000000000000000000000000000000000000000000000000000000000000000000000000000000000000000000000000000000000000000000000000000000000000000000000000000000000000000000000000000000000000000000
310
00000000000000000000000000F50000000000000000000000000000000000000000000000000000000000000000000000000000000000000000000000000000000000000000000000000000000000000000000000000000000000000000000000000000000000000000000000000000000000000000000000000000000000
310
000000000000000000000000000000000000F50000F5000000000000000000000000000000000000000000000000000000000000000000000000000000000000000000000000000000000000000000000000000000000000000000000000000000000000000000000000000000000000000000000000000000000000000000
310
000000000000000000000000000000F5000000000000000000000000000000000000000000000000000000000000000000000000000000000000000000000000000000000000000000000000000000000000000000000000000000000000000000000000000000000000000000000000000000000000000000000000000000
310
0000000000000000000000000000000000000000F50000F500000000000000000000000000000000000000000000000000000000000000000000000000000000000000000000000000000000000000000000000000000000000000000000000000000000000000000000000000000000000000000000000000000000000000
310
0000000000000000000000000000000000F500000000000000000000000000000000000000000000000000000000000000000000000000000000000000000000000000000000000000000000000000000000000000000000000000000000000000000000000000000000000000000000000000000000000000000000000000
310
00000000000000000000000000000000000000000000F50000F50000000000000000000000000000000000000000000000000000000000000000000000000000000000000000000000000000000000000000000000000000000000000000000000000000000000000000000000000000000000000000000000000000000000
310
00000000000000000000000000000000000000F5000000000000000000000000000000000000000000000000000000000000000000000000000000000000DCDCDC0000000000000000000000000000DCDCDC000000000000000000000000000000000000000000000000000000000000000000000000000000000000000000
310
000000000000000000000000000000000000000000000000F50000F5000000000000000000000000000000000000000000000000000000000000000000000000000000000000000000000000000000000000000000000000000000000000000000000000000000000000000000000000000000000000000000000000000000
310
000000000000000000000000000000000000000000F5000000000000000000000000000000000000000000000000000000000000000000000000000000000000DCDCDCDCDCDCDCDCDCDCDCDCDCDCDCDCDCDCDCDC00000000000000000000000000000000000000000000000000000000000000000000000000000000000000
310
0000000000000000000000000000000000000000000000000000F50000F500000000000000000000000000000000000000000000000000000000000000000000000000000000000000000000000000000000000000000000000000000000000000000000000000000000000000000000000000000000000000000000000000
310
0000000000000000000000000000000000000000000000F5000000000000000000000000000000000000000000000000000000000000000000000000000000000000DCDCDC00000000DCDCDCDCDCDC00000000DCDCDC0000000000000000000000000000000000000000000000000000000000000000000000000000000000
310
00000000000000000000000000000000000000000000000000000000F50000F50000000000000000000000000000000000000000000000000000000000000000000000000000000000000000000000000000000000000000000000000000000000000000000000000000000000000000000000000000000000000000000000
310
00000000000000000000000000000000000000000000000000F5000000000000000000000000000000000000000000000000000000000000000000000000000000000000DCDCDCDCDCDCDCDCDCDCDCDCDCDCDCDCDCDCDCDC000000000000000000000000000000000000000000000000000000000000000000000000000000
310
000000000000000000000000000000000000000000000000000000000000F50000F5000000000000000000000000000000000000000000000000000000000000000000000000000000000000000000000000000000000000000000000000000000000000000000000000000000000000000000000000000000000000000000
310
000000000000000000000000000000000000000000000000000000F5000000000000000000000000000000000000000000000000000000000000000000000000000000000000DCDCDC0000000000000000000000000000DCDCDC00000000000000000000000000000000000000000000000000000000000000000000000000
310
0000000000000000000000000000000000000000000000000000000000000000F50000F500000000000000000000000000000000000000000000000000000000000000000000000000000000000000000000000000000000000000000000000000000000000000000000000000000000000000000000000000000000000000
310
0000000000000000000000000000000000000000000000000000000000F50000000000000000000000000000000000000000000000000000000000000000000000000000000000DCDCDCDCDCDCDCDCDCDCDCDCDCDCDCDCDCDCDCDCDCDC00000000000000000000000000000000000000000000000000000000000000000000
310
00000000000000000000000000000000000000000000000000000000000000000000F50000F50000000000000000000000000000000000000000000000000000000000000000000000000000000000000000000000000000000000000000000000000000000000000000000000000000000000000000000000000000000000
310
00000000000000000000000000000000000000000000000000000000000000F50000000000000000000000000000000000000000000000000000000000000000000000000000000000DCDCDC00000000000000000000000000000000DCDCDC0000000000000000000000000000000000000000000000000000000000000000
310
000000000000000000000000000000000000000000000000000000000000000000000000F50000F5000000000000000000000000000000000000000000000000000000000000000000000000000000000000000000000000000000000000000000000000000000000000000000000000000000000000000000000000000000
310
000000000000000000000000000000000000000000000000000000000000000000F5000000000000000000000000000000000000000000000000000000000000000000000000000000000000DCDCDC00000000000000000000000000DCDCDC0000000000000000000000000000000000000000000000000000000000000000
310
0000000000000000000000000000000000000000000000000000000000000000000000000000F50000F500000000000000000000000000000000000000000000000000000000000000000000000000000000000000000000000000000000000000000000000000000000000000000000000000000000000000000000000000
310
0000000000000000000000000000000000000000000000000000000000000000000000F5000000000000000000000000000000000000000000000000000000000000000000000000000000000000DCDC000000000000000000000000000000DCDC000000000000000000000000000000000000000000000000000000000000
310
00000000000000000000000000000000000000000000000000000000000000000000000000000000F50000F50000000000000000000000000000000000000000000000000000000000000000000000000000000000000000000000000000000000000000000000000000000000000000000000000000000000000000000000
310
00000000000000000000000000000000000000000000000000000000000000000000000000F50000000000000000000000000000000000000000000000000000000000000000000000000000000000000F0F0F0F0FDC0F0F0F0F0F0F0F0F0F0F0F0F0F00DCDC00000000000000000000000000000000000000000000000000
310
000000000000000000000000000000000000000000000000000000000000000000000000000000000000F50000F5000000000000000000000000000000000000000000000000000000000000000000000000000000000000000000000000000000000000000000000000000000000000000000000000000000000000000000
310
000000000000000000000000000000000000000000000000000000000000000000000000000000F50000000000000000000000000000000000000000000000000000000000000000000000000000000000000F2D2D2D2DDCDCDC2D2D2D2D2D2D2D2D2D2D2DF5DCDC0000000000000000000000000000000000000000000000
310
0000000000000000000000000000000000000000000000000000000000000000000000000000000000000000F50000F500000000000000000000000000000000000000000000000000000000000000000000000000000000000000000000000000000000000000000000000000000000000000000000000000000000000000
310
0000000000000000000000000000000000000000000000000000000000000000000000000000000000F5000000000000000000000000000000000000000000000000000000000000000000000000000000000000F52D2D2D2DDCDCDC2D2D2D2D2D2D2D2D2D2D2DF5DCDC000000000000000000000000000000000000000000
310
00000000000000000000000000000000000000000000000000000000000000000000000000000000000000000000F50000F50000000000000000000000000000000000000000000000000000000000000000000000000000000000000000000000000000000000000000000000000000000000000000000000000000000000
310
00000000000000000000000000000000000000000000000000000000000000000000000000000000000000F50000000000000000000000000000000000000000000000000000000000000000000000000000000000000000000000DC0000000000000000000000000000DCDC00000000000000000000000000000000000000
310
000000000000000000000000000000000000000000000000000000000000000000000000000000000000000000000000F50000F5000000000000000000000000000000000000000000000000000000000000000000000000000000000000000000000000000000000000000000000000000000000000000000000000000000
310
000000000000000000000000000000000000000000000000000000000000000000000000000000000000000000F5000000000000000000000000000000000000000000000000000000000000000000000000000000000000000000000000000000000000000000000000000000000000000000000000000000000000000000
310
0000000000000000000000000000000000000000000000000000000000000000000000000000000000000000000000000000F50000F500000000000000000000000000000000000000000000000000000000000000000000000000000000000000000000000000000000000000000000000000000000000000000000000000
310
0000000000000000000000000000000000000000000000000000000000000000000000000000000000000000000000F500000000000000000000000000000000000000000000000000000000000000000000000000000000000000000000000000000000000000000000000000000000000000000000000000000000000000
310
00000000000000000000000000000000000000000000000000000000000000000000000000000000000000000000000000000000F50000F50000000000000000000000000000000000000000000000000000000000000000000000000000000000000000000000000000000000000000000000000000000000000000000000
310
00000000000000000000000000000000000000000000000000000000000000000000000000000000000000000000000000F50000000000000000000000000000000000000000000000000000000000000000000000000000000000000000000000000000000000000000000000000000000000000000000000000000000000
310
000000000000000000000000000000000000000000000000000000000000000000000000000000000000000000000000000000000000F50000F5000000000000000000000000000000000000000000000000000000000000000000000000000000000000000000000000000000000000000000000000000000000000000000
310
000000000000000000000000000000000000000000000000000000000000000000000000000000000000000000000000000000F5000000000000000000000000000000000000000000000000000000000000000000000000000000000000000000000000000000000000000000000000000000000000000000000000000000
310
0000000000000000000000000000000000000000000000000000000000000000000000000000000000000000000000000000000000000000F50000F500000000000000000000000000000000000000000000000000000000000000000000000000000000000000000000000000000000000000000000000000000000000000
310
0000000000000000000000000000000000000000000000000000000000000000000000000000000000000000000000000000000000F500000000000000000000000000000000000000000000000000000000000000000000000000000000000000000000000000000000000000000000000000000000000000000000000000
310
00000000000000000000000000000000000000000000000000000000000000000000000000000000000000000000000000000000000000000000F50000F50000000000000000000000000000000000000000000000000000000000000000000000000000000000000000000000000000000000000000000000000000000000
310
00000000000000000000000000000000000000000000000000000000000000000000000000000000000000000000000000000000000000F50000000000000000000000000000000000000000000000000000000000000000000000000000000000000000000000000000000000000000000000000000000000000000000000
310
000000000000000000000000000000000000000000000000000000000000000000000000000000000000000000000000000000000000000000000000F50000F5000000000000000000000000000000000000000000000000000000000000000000000000000000000000000000000000000000000000000000000000000000
310
000000000000000000000000000000000000000000000000000000000000000000000000000000000000000000000000000000000000000000F5000000000000000000000000000000000000000000000000000000000000000000000000000000000000000000000000000000000000000000000000000000000000000000
310
0000000000000000000000000000000000000000000000000000000000000000000000000000000000000000000000000000000000000000000000000000F50000F500000000000000000000000000000000000000000000000000000000000000000000000000000000000000000000000000000000000000000000000000
310
0000000000000000000000000000000000000000000000000000000000000000000000000000000000000000000000000000000000000000000000F500000000000000000000000000000000000000000000000000000000000000000000000000000000000000000000000000000000000000000000000000000000000000
310
00000000000000000000000000000000000000000000000000000000000000000000000000000000000000000000000000000000000000000000000000000000F50000F50000000000000000000000000000000000000000000000000000000000000000000000000000000000000000000000000000000000000000000000
310
00000000000000000000000000000000000000000000000000000000000000000000000000000000000000000000000000000000000000000000000000F50000000000000000000000000000000000000000000000000000000000000000000000000000000000000000000000000000000000000000000000000000000000
310
000000000000000000000000000000000000000000000000000000000000000000000000000000000000000000000000000000000000000000000000000000000000F50000F5000000000000000000000000000000000000000000000000000000000000000000000000000000000000000000000000000000000000000000
310
000000000000000000000000000000000000000000000000000000000000000000000000000000000000000000000000000000000000000000000000000000F5000000000000000000000000000000000000000000000000000000000000000000000000000000000000000000000000000000000000000000000000000000
310
0000000000000000000000000000000000000000000000000000000000000000000000000000000000000000000000000000000000000000000000000000000000000000F50000F500000000000000000000000000000000000000000000000000000000000000000000000000000000000000000000000000000000000000
310
0000000000000000000000000000000000000000000000000000000000000000000000000000000000000000000000000000000000000000000000000000000000F500000000000000000000000000000000000000000000000000000000000000000000000000000000000000000000000000000000000000000000000000
310
00000000000000000000000000000000000000000000000000000000000000000000000000000000000000000000000000000000000000000000000000000000000000000000F50000F50000000000000000000000000000000000000000000000000000000000000000000000000000000000000000000000000000000000
310
00000000000000000000000000000000000000000000000000000000000000000000000000000000000000000000000000000000000000000000000000000000000000F50000000000000000000000000000000000000000000000000000000000000000000000000000000000000000000000000000000000000000000000
310
000000000000000000000000000000000000000000000000000000000000000000000000000000000000000000000000000000000000000000000000000000000000000000000000F50000F5000000000000000000000000000000000000000000000000000000000000000000000000000000000000000000000000000000
310
000000000000000000000000000000000000000000000000000000000000000000000000000000000000000000000000000000000000000000000000000000000000000000F500000000000000000000000000000000000000000000000000000000000000000000000000000000000000DCDCDCDCDCDCDCDCDCDCDCDCDCDC
310
DCDCDCDC00000000000000000000000000000000000000000000000000000000000000000000000000000000000000000000000000000000000000000000000000000000000000000000F50000F500000000000000000000000000000000000000000000000000000000000000000000000000000000000000000000000000
310
0000000000000000000000000000000000000000000000000000000000000000000000000000000000000000000000000000000000000000000000000000000000000000000000F500000000000000000000000000000000000000000000000000000000000000000000000000000000000000DCDC000000DCDCDCDCDCDCDC
310
DC000000DCDC000000000000000000000000000000DCDCDCDCDC0000000000000000000000000000000000000000000000000000000000000000000000000000000000000000000000000000F50000F50000000000000000000000000000000000000000000000000000000000000000000000000000000000000000000000
310
00000000000000000000000000000000000000000000000000000000000000000000000000000000000000000000000000000000000000000000000000000000000000000000000000F5000000000000000000000000000000000000000000000000000000000000000000000000000000000000DCDCDCDCDCDCDCDCDCDCDC
310
DCDCDCDCDCDCDCDCDC0000000000000000000000000000DCDCDCDCDCDC00000000000000000000000000000000000000000000000000000000000000000000000000000000000000000000000000F50000F5000000000000000000000000000000000000000000000000000000000000000000000000000000000000000000
310
000000000000000000000000000000000000000000000000000000000000000000000000000000000000000000000000000000000000000000000000000000000000000000000000000000F5000000000000000000000000000000000000000000000000000000000000000000000000000000000000DCDCDC0000000000DC
310
DCDCDC0000000000DCDCDCDC000000000000000000000000000000DCDCDC000000DCDC000000000000000000000000000000000000000000000000000000000000000000000000000000000000000000F50000F500000000000000000000000000000000000000000000000000000000000000000000000000000000000000
310
0000000000000000000000000000000000000000000000000000000000000000000000000000000000000000000000000000000000000000000000000000000000000000000000000000000000F5000000000000000000000000000000000000000000000000000000000000000000000000000000000000002D2D2D2D2D2D
310
2D2D2D2D2D2D2D2D2D2D2D2DDCDC0000000000000000000000000000002DF5F5000000DCDC000000000000000000000000000000000000000000000000000000000000000000000000000000000000000000F50000F50000000000000000000000000000000000000000000000000000000000000000000000000000000000
310
00000000000000000000000000000000000000000000000000000000000000000000000000000000000000000000000000000000000000000000000000000000000000000000000000000000000000F5000000000000000000000000000000000000000000000000000000000000000000000000000000000000002D2D2D2D
310
2D2D2D2D2D2D2D2D2D2D2D2D2D2DDCDCDCDC000000000000000000000000002D2D2DDCDCDCDCDCDCDCDCDC0000000000000000000000000000000000000000000000000000000000000000000000000000000000F50000F5000000000000000000000000000000000000000000000000000000000000000000000000000000
310
000000000000000000000000000000000000000000000000000000000000000000000000000000000000000000000000000000000000000000000000000000000000000000000000000000000000000000F5000000000000000000000000000000000000000000000000000000000000000000000000000000000000002D2D
310
2D2D2D2D2D2D2D2D2D2D2D2D2D2D2DDCDCDCDCDCDC0000000000000000000000002D2D2D0000DCDCDCDCDCDCDC0000000000000000000000000000000000000000000000000000000000000000000000000000000000F50000F500000000000000000000000000000000000000000000000000000000000000000000000000
310
0000000000000000000000000000000000000000000000000000000000000000000000000000000000000000000000000000000000000000000000000000000000000000000000000000000000000000000000F500000000000000000000000000000000000000000000000000000000000000000000000000000000000000
310
2D2D0000000000002D2D0000000000002DDCDCDC00DC000000000000000000000000002D2D2D0000DCDCDC00DC00DC0000000000000000000000000000000000000000000000000000000000000000000000000000000000F50000F50000000000000000000000000000000000000000000000000000000000000000000000
310
00000000000000000000000000000000000000000000000000000000000000000000000000000000000000000000000000000000000000000000000000000000000000000000000000000000000000000000000000F50000000000000000000000000000000000000000000000000000000000000000000000000000000000
310
00002D2D0000000000002D2D0000000000002D2D00DC00DC000000000000000000000000002D2D2D00000000DC00DC00DC0000000000000000000000000000000000000000000000000000000000000000000000000000000000F50000F5000000000000000000000000000000000000000000000000000000000000000000
310
000000000000000000000000000000000000000000000000000000000000000000000000000000000000000000000000000000000000000000000000000000000000000000000000000000000000000000000000000000F5000000000000000000000000000000000000000000000000000000000000000000000000000000
310
000000002D2D0000000000002D2D0000000000002D2D00DC00DC000000000000000000000000002D2D2D00000000DC00DC00DC0000000000000000000000000000000000000000000000000000000000000000000000000000000000F50000F500000000000000000000000000000000000000000000000000000000000000
310
0000000000000000000000000000000000000000000000000000000000000000000000000000000000000000000000000000000000000000000000000000000000000000000000000000000000000000000000000000000000F500000000000000000000000000000000000000000000000000000000000000000000000000
310
0000000000002D2D0000000000002D2D0000000000002D2D00DCDCDC000000000000000000000000002D2D2D00000000DCDCDCDCDC0000000000000000000000000000000000000000000000000000000000000000000000000000000000F50000F50000000000000000000000000000000000000000000000000000000000
310
00000000000000000000000000000000000000000000000000000000000000000000000000000000000000000000000000000000000000000000000000000000000000000000000000000000000000000000000000000000000000F50000000000000000000000000000000000000000000000000000000000000000000000
310
00000000000000002D2D0000000000002D2D0000000000002D2D00DCDCDC000000000000000000000000002D2D2D00000000DCDCDCDCDC0000000000000000000000000000000000000000000000000000000000000000000000000000000000F50000F5000000000000000000000000000000000000000000000000000000
310
000000000000000000000000000000000000000000000000000000000000000000000000000000000000000000000000000000000000000000000000000000000000000000000000000000000000000000000000000000000000000000F5000000000000000000000000000000000000000000000000000000000000000000
310
000000000000000000002D2D0000000000002D2D0000000000002D2DDCDC00DC000000000000000000000000002D2D2D000000DCDCDCDCDCDC0000000000000000000000000000000000000000000000000000000000000000000000000000000000F50000F500000000000000000000000000000000000000000000000000
310
0000000000000000000000000000000000000000000000000000000000000000000000000000000000000000000000000000000000000000000000000000000000000000000000000000000000000000000000000000000000000000000000F500000000000000000000000000000000000000000000000000000000000000
310
0000000000000000000000002D2D0000000000002D2D0000000000002D2DDCDCDCDC00000000000000000000000000DCDCDC000000DCDCDCDCDCDC0000000000000000000000000000000000000000000000000000000000000000000000000000000000F50000F50000000000000000000000000000000000000000000000
310
00000000000000000000000000000000000000000000000000000000000000000000000000000000000000000000000000000000000000000000000000000000000000000000000000000000000000000000000000000000000000000000000000F50000000000000000000000000000000000000000000000000000000000
310
00000000000000000000000000002D2D0000000000002D2D0000000000002D2DDCDCDCDC000000000000000000000000DCDCDCDC000000DCDCDCDCDCDC0000000000000000000000000000000000000000000000000000000000000000000000000000000000F50000F5000000000000000000000000000000000000000000
310
000000000000000000000000000000000000000000000000000000000000000000000000000000000000000000000000000000000000000000000000000000000000000000000000000000000000000000000000000000000000000000000000000000F5000000000000000000000000000000000000000000000000000000
310
000000000000000000000000000000002D2D0000000000002D2D0000000000002D2DDCDCDCDC000000000000000000000000002D2D2D000000DCDCDCDCDCDC0000000000000000000000000000000000000000000000000000000000000000000000000000000000F50000F500000000000000000000000000000000000000
310
0000000000000000000000000000000000000000000000000000000000000000000000000000000000000000000000000000000000000000000000000000000000000000000000000000000000000000000000000000000000000000000000000000000000F500000000000000000000000000000000000000000000000000
310
0000000000000000000000000000000000002D2D0000000000002D2D002D2D2D00002D2DDCDCDCDC000000000000000000000000002D2D2D000000DCDCDCDCDCDC0000000000000000000000000000000000000000000000000000000000000000000000000000000000F50000F50000000000000000000000000000000000
310
00000000000000000000000000000000000000000000000000000000000000000000000000000000000000000000000000000000000000000000000000000000000000000000000000000000000000000000000000000000000000000000000000000000000000F50000000000000000000000000000000000000000000000
310
00000000000000000000000000000000000000002D2D00002D2D2D002D2D0000000000002D2DDCDCDCDC000000000000000000000000002D2D2D000000DCDCDCDCDCDC0000000000000000000000000000000000000000000000000000000000000000000000000000000000F50000F5000000000000000000000000000000
310
000000000000000000000000000000000000000000000000000000000000000000000000000000000000000000000000000000000000000000000000000000000000000000000000000000000000000000000000000000000000000000000000000000000000000000F5000000000000000000000000000000000000000000
310
000000000000000000000000000000000000000000002D2D0000000000002D2D0000000000002D2DDCDCDCDC000000000000000000000000002D2D2D000000DCDCDCDCDCDC0000000000000000000000000000000000000000000000000000000000000000000000000000000000F50000F500000000000000000000000000
310
0000000000000000000000000000000000000000000000000000000000000000000000000000000000000000000000000000000000000000000000000000000000000000000000000000000000000000000000000000000000000000000000000000000000000000000000F500000000000000000000000000000000000000
310
0000000000000000000000000000000000000000000000002D2D0000000000002D2D0000000000002D2D00DCDCDC000000000000000000000000002D2D2D00000000DCDCDCDCDC0000000000000000000000000000000000000000000000000000000000000000000000000000000000F50000F50000000000000000000000
310
00000000000000000000000000000000000000000000000000000000000000000000000000000000000000000000000000000000000000000000000000000000000000000000000000000000000000000000000000000000000000000000000000000000000000000000000000F50000000000000000000000000000000000
310
00000000000000000000000000000000000000000000000000002D2D0000000000002D2D0000000000002D2D00DCDCDC000000000000000000000000002D2D2D00000000DCDCDC00DC0000000000000000000000000000000000000000000000000000000000000000000000000000000000F50000F5000000000000000000
310
000000000000000000000000000000000000000000000000000000000000000000000000000000000000000000000000000000000000000000000000000000000000000000000000000000000000000000000000000000000000000000000000000000000000000000000000000000F5000000000000000000000000000000
310
000000000000000000000000000000000000000000000000000000002D2D0000000000002D2D0000000000002D2D00DC00DC000000000000000000000000002D2D2D00000000DC00DC00DC0000000000000000000000000000000000000000000000000000000000000000000000000000000000F50000F500000000000000
310
0000000000000000000000000000000000000000000000000000000000000000000000000000000000000000000000000000000000000000000000000000000000000000000000000000000000000000000000000000000000000000000000000000000000000000000000000000000000F500000000000000000000000000
310
0000000000000000000000000000000000000000000000000000000000002D2D0000000000002D2D0000000000002D2D00DC00DC000000000000000000000000002D2D2D00000000DC00DC00DC0000000000000000000000000000000000000000000000000000000000000000000000000000000000F50000F50000000000
310
00000000000000000000000000000000000000000000000000000000000000000000000000000000000000000000000000000000000000000000000000000000000000000000000000000000000000000000000000000000000000000000000000000000000000000000000000000000000000F50000000000000000000000
310
00000000000000000000000000000000000000000000000000000000000000002D2D0000000000002D2D0000000000002D2D00DC00DC000000000000000000000000002D2D2D00000000DC00DC00DC0000000000000000000000000000000000000000000000000000000000000000000000000000000000F50000F5000000
310
000000000000000000000000000000000000000000000000000000000000000000000000000000000000000000000000000000000000000000000000000000000000000000000000000000000000000000000000000000000000000000000000000000000000000000000000000000000000000000F5000000000000000000
310
000000000000000000000000000000000000000000000000000000000000000000002D2D2D2D2D2D2D2D2D2D2D2D2D2D2D2D2D2D00DCDCDCDC0000000000000000000000002D2D2D00DCDCDCDCDCDCDCDC0000000000000000000000000000000000000000000000000000000000000000000000000000000000F50000F500
310
0000000000000000000000000000000000000000000000000000000000000000000000000000000000000000000000000000000000000000000000000000000000000000000000000000000000000000000000000000000000000000000000000000000000000000000000000000000000000000000000F500000000000000
310
0000000000000000000000000000000000000000000000000000000000000000000000002D2D2D2D2D2D2D2D2D2D2D2D2D2D2D2D2D2DDCDCDCDC000000000000000000000000002D2D2DDCDCDCDCDCDCDCDCDC0000000000000000000000000000000000000000000000000000000000000000000000000000000000F50000
310
F5000000000000000000000000000000000000000000000000000000000000000000000000000000000000000000000000000000000000000000000000000000000000000000000000000000000000000000000000000000000000000000000000000000000000000000000000000000000000000000000000F50000000000
310
00000000000000000000000000000000000000000000000000000000000000000000000000002D2D2D2D2D2D2D2D2D2D2D2D2D2D2D2D2D2DDCDC0000000000000000000000000000002DF50FDCDCDCDCDCDCDCDCDC0000000000000000000000000000000000000000000000000000000000000000000000000000000000F5
310
0000F5000000000000000000000000000000000000000000000000000000000000000000000000000000000000000000000000000000000000000000000000000000000000000000000000000000000000000000000000000000000000000000000000000000000000000000000000000000000000000000000000F5000000
310
00000000000000000000000000000000000000000000000000000000000000000000000000000000000000000000000000000000000000000000DC00000000000000000000000000000000F5F5F5000000DC000000000000000000000000000000000000000000000000000000000000000000000000000000000000000000
310
00F50000F5000000000000000000000000000000000000000000000000000000000000000000000000000000000000000000000000000000000000000000000000000000000000000000000000000000000000000000000000000000000000000000000000000000000000000000000000000000000000000000000000F500
310
00000000000000000000000000000000000000000000000000000000000000000000000000000000000000000000000000000000000000000000000000000000000000000000000000000000000000000000000000000000000000000000000000000000000000000000000000000000000000000000000000000000000000
310
000000F50000F5000000000000000000000000000000000000000000000000000000000000000000000000000000000000000000000000000000000000000000000000000000000000000000000000000000000000000000000000000000000000000000000000000000000000000000000000000000000000000000000000
310
F5000000000000000000000000000000000000000000000000000000000000000000000000000000000000000000000000000000000000000000000000000000000000000000000000000000000000000000000000000000000000000000000000000000000000000000000000000000000000000000000000000000000000
310
0000000000F50000F500000000000000000000000000000000000000000000000000000000000000000000000000000000000000000000000000000000000000000000000000000000000000000000000000000000000000000000000000000000000000000000000000000000000000000000000000000000000000000000
310
0000F500000000000000000000000000000000000000000000000000000000000000000000000000000000000000000000000000000000000000000000000000000000000000000000000000000000000000000000000000000000000000000000000000000000000000000000000000000000000000000000000000000000
310
00000000000000F50000F50000000000000000000000000000000000000000000000000000000000000000000000000000000000000000000000000000000000000000000000000000000000000000000000000000000000000000000000000000000000000000000000000000000000000000000000000000000000000000
310
00000000F50000000000000000000000000000000000000000000000000000000000000000000000000000000000000000000000000000000000000000000000000000000000000000000000000000000000000000000000000000000000000000000000000000000000000000000000000000000000000000000000000000
310
000000000000000000F50000F5000000000000000000000000000000000000000000000000000000000000000000000000000000000000000000000000000000000000000000000000000000000000000000000000000000000000000000000000000000000000000000000000000000000000000000000000000000000000
310
000000000000F5000000000000000000000000000000000000000000000000000000000000000000000000000000000000000000000000000000000000000000000000000000000000000000000000000000000000000000000000000000000000000000000000000000000000000000000000000000000000000000000000
310
0000000000000000000000F50000F500000000000000000000000000000000000000000000000000000000000000000000000000000000000000000000000000000000000000000000000000000000000000000000000000000000000000000000000000000000000000000000000000000000000000000000000000000000
310
0000000000000000F500000000000000000000000000000000000000000000000000000000000000000000000000000000000000000000000000000000000000000000000000000000000000000000000000000000000000000000000000000000000000000000000000000000000000000000000000000000000000000000
310
00000000000000000000000000F50000F50000000000000000000000000000000000000000000000000000000000000000000000000000000000000000000000000000000000000000000000000000000000000000000000000000000000000000000000000000000000000000000000000000000000000000000000000000
310
00000000000000000000F50000000000000000000000000000000000000000000000000000000000000000000000000000000000000000000000000000000000000000000000000000000000000000000000000000000000000000000000000000000000000000000000000000000000000000000000000000000000000000
310
000000000000000000000000000000F50000F5000000000000000000000000000000000000000000000000000000000000000000000000000000000000000000000000000000000000000000000000000000000000000000000000000000000000000000000000000000000000000000000000000000000000000000000000
310
000000000000000000000000F5000000000000000000000000000000000000000000000000000000000000000000000000000000000000000000000000000000000000000000000000000000000000000000000000000000000000000000000000000000000000000000000000000000000000000000000000000000000000
310
0000000000000000000000000000000000F50000F500000000000000000000000000000000000000000000000000000000000000000000000000000000000000000000000000000000000000000000000000000000000000000000000000000000000000000000000000000000000000000000000000000000000000000000
310
0000000000000000000000000000F500000000000000000000000000000000000000000000000000000000000000000000000000000000000000000000000000000000000000000000000000000000000000000000000000000000000000000000000000000000000000000000000000000000000000000000000000000000
310
00000000000000000000000000000000000000F50000F50000000000000000000000000000000000000000000000000000000000000000000000000000000000000000000000000000000000000000000000000000000000000000000000000000000000000000000000000000000000000000000000000000000000000000
310
00000000000000000000000000000000F50000000000000000000000000000000000000000000000000000000000000000000000000000000000000000000000000000000000000000000000000000000000000000000000000000000000000000000000000000000000000000000000000000000000000000000000000000
310
000000000000000000000000000000000000000000F50000F5000000000000000000000000000000000000000000000000000000000000000000000000000000000000000000000000000000000000000000000000000000000000000000000000000000000000000000000000000000000000000000000000000000000000
310
000000000000000000000000000000000000F5000000000000000000000000000000000000000000000000000000000000000000000000000000000000000000000000000000000000000000000000000000000000000000000000000000000000000000000000000000000000000000000000000000000000000000000000
310
0000000000000000000000000000000000000000000000F50000F500000000000000000000000000000000000000000000000000000000000000000000000000000000000000000000000000000000000000000000000000000000000000000000000000000000000000000000000000000000000000000000000000000000
310
0000000000000000000000000000000000000000F500000000000000000000000000000000000000000000000000000000000000000000000000000000000000000000000000000000000000000000000000000000000000000000000000000000000000000000000000000000000000000000000000000000000000000000
310
00000000000000000000000000000000000000000000000000F50000F50000000000000000000000000000000000000000000000000000000000000000000000000000000000000000000000000000000000000000000000000000000000000000000000000000000000000000000000000000000000000000000000000000
310
00000000000000000000000000000000000000000000F50000000000000000000000000000000000000000000000000000000000000000000000000000000000000000000000000000000000000000000000000000000000000000000000000000000000000000000000000000000000000000000000000000000000000000
310
000000000000000000000000000000000000000000000000000000F50000F5000000000000000000000000000000000000000000000000000000000000000000000000000000000000000000000000000000000000000000000000000000000000000000000000000000000000000000000000000000000000000000000000
310
000000000000000000000000000000000000000000000000F5000000000000000000000000000000000000000000000000000000000000000000000000000000000000000000000000000000000000000000000000000000000000000000000000000000000000000000000000000000000000000000000000000000000000
310
0000000000000000000000000000000000000000000000000000000000F50000F500000000000000000000000000000000000000000000000000000000000000000000000000000000000000000000000000000000000000000000000000000000000000000000000000000000000000000000000000000000000000000000
310
0000000000000000000000000000000000000000000000000000F500000000000000000000000000000000000000000000000000000000000000000000000000000000000000000000000000000000000000000000000000000000000000000000000000000000000000000000000000000000000000000000000000000000
310
00000000000000000000000000000000000000000000000000000000000000F50000F50000000000000000000000000000000000000000000000000000000000000000000000000000000000000000000000000000000000000000000000000000000000000000000000000000000000000000000000000000000000000000
310
00000000000000000000000000000000000000000000000000000000F50000000000000000000000000000000000000000000000000000000000000000000000000000000000000000000000000000000000000000000000000000000000000000000000000000000000000000000000000000000000000000000000000000
310
000000000000000000000000000000000000000000000000000000000000000000F50000F5000000000000000000000000000000000000000000000000000000000000000000000000000000000000000000000000000000000000000000000000000000000000000000000000000000000000000000000000000000000000
310
000000000000000000000000000000000000000000000000000000000000F5000000000000000000000000000000000000000000000000000000000000000000000000000000000000000000000000000000000000000000000000000000000000000000000000000000000000000000000000000000000000000000000000
310
0000000000000000000000000000000000000000000000000000000000000000000000F50000F500000000000000000000000000000000000000000000000000000000000000000000000000000000000000000000000000000000000000000000000000000000000000000000000000000000000000000000000000000000
310
0000000000000000000000000000000000000000000000000000000000000000F500000000000000000000000000000000000000000000000000000000000000000000000000000000000000000000000000000000000000000000000000000000000000000000000000000000000000000000000000000000000000000000
310
00000000000000000000000000000000000000000000000000000000000000000000000000F50000F50000000000000000000000000000000000000000000000000000000000000000000000000000000000000000000000000000000000000000000000000000000000000000000000000000000000000000000000000000
310
00000000000000000000000000000000000000000000000000000000000000000000F50000000000000000000000000000000000000000000000000000000000000000000000000000000000000000000000000000000000000000000000000000000000000000000000000000000000000000000000000000000000000000
310
000000000000000000000000000000000000000000000000000000000000000000000000000000F50000F5000000000000000000000000000000000000000000000000000000000000000000000000000000000000000000000000000000000000000000000000000000000000000000000000000000000000000000000000
310
000000000000000000000000000000000000000000000000000000000000000000000000F5F5F5F5F5F5F5F5F5F5F5F5F5F5F5F5F5F5F5F5F5F5F5F5F5F5F5F5F5F5F5F5F5F5F5F5F5F5F5F5F5F5F5F5F5F5F5F5F5F5F5F5F5F5F5F5F5F5F5F5F5F5F5F5F5F5F5F5F5F5F5F5F5F5F5F5F5F5F5F5F5F5F5F5F5F5F5F5F5F5F5
310
F5F5F5F5F5F5F5F5F5F5F5F5F5F5F5F5F5F5F5F5F5F5F5F5F5F5F5F5F5F5F5F5F5F5F5F5F5F5F5F5F5F50000F500000000000000000000000000000000000000000000000000000000000000000000000000000000000000000000000000000000000000000000000000000000000000000000000000000000000000000000
310
0000000000000000000000000000000000000000000000000000000000000000000000000000F5F5F5F5F5F5F5F5F5F5F5F5F5F5F5F500000000000000000000000000000000000000000000000000000000000000000000000000000000000000000000000000000000000000000000000000000000000000000000000000
310
00000000000000000000000000000000000000000000000000000000000000000000000000000000000000F50000F50000000000000000000000000000000000000000000000000000000000000000000000000000000000000000000000000000000000000000000000000000000000000000000000000000000000000000
310
00000000000000000000000000000000000000000000000000000000000000000000000000000000F5F5F5F5F5F5F5F5F5F5F5F5F5F5F5F5F5F5F5F5F5F5F5F5F5F5F5F5F5F5F5F5F5F5F5F5F5F5F5F5F5F5F5F5F5F5F5F5F5F5F5F5F5F5F5F5F5F5F5F5F5F5F5F5F5F5F5F5F5F5F5F5F5F5F5F5F5F5F5F5F5F5F5F5F5F5F5
310
F5F5F5F5F5F5F5F5F5F5F5F5F5F5F5F5F5F5F5F5F5F5F5F5F5F5F5F5F5F5F5F5F5F5F5F5F5F5F5F5F5F5F5F5F5F50000F5000000000000000000000000000000000000000000000000000000000000000000000000000000000000000000000000000000000000000000000000000000000000000000000000000000000000
310
000000000000000000000000000000000000000000000000000000000000000000000000000000000000F5F5F5F5F5F5F5F5F5F5F5F5F5F5F5F5F5F5F5F5F5F5F5F5F5F5F5F5F5F5F5F500F5F5F5F5F5F5F5F5F5F5F5F5F5F5F5F5F5F5F5F5F5F5F5F5F5000000000000000000000000000000000000000000000000000000
310
0000000000000000000000000000000000000000000000000000000000000000000000000000000000000000000000F50000F500000000000000000000000000000000000000000000000000000000000000000000000000000000000000000000000000000000000000000000000000000000000000000000000000000000
310
0000000000000000000000000000000000000000000000000000000000000000000000000000000000000000F5F5F5F5F5F5F5F5F5F5F5F5F5F5F5F5F5F5F5F5F5F5F5F5F5F5F5F5F5F5F5F5F5F5F5F5F5F5F5F5F5F5F5F5F5F5F5F5F5F5F5F5F5F5F5F5F5F5F5F5F5F5F5F5F5F5F5F5F5F5F5F5F5F5F5F5F5F5F5F5F5F5F5
310
F5F5F5F5F5F5F5F5F5F5F5F5F5F5F5F5F5F5F5F5F5F5F5F5F5F5F5F5F5F5F5F5F5F5F5F5F5F5F5F5F5F5F5F5F5F5F5F5F5F50000F50000000000000000000000000000000000000000000000000000000000000000000000000000000000000000000000000000000000000000000000000000000000000000000000000000
310
00000000000000000000000000000000000000000000000000000000000000000000000000000000000000000000F50000F5F5F5F5F5F5F5F5F5F500F5F5F5F5F5F5F5F5F5F5F5F5F500F5F5F5F5F500F5F5F5F5F5000000000000000000000000000000000000000000000000000000000000000000000000000000000000
310
000000F5F5F5F5F5F5F5F5F5F5F5F5F5F5F5F5F5F5F5F5F5F5F5F5F5F5F5F5F5F5F5F5F5F5F5F5F5F5F5F5F5F5F5F5F5F5F5F5F50000F5000000000000000000000000000000000000000000000000000000000000000000000000000000000000000000000000000000000000000000000000000000000000000000000000
310
000000000000000000000000000000000000000000000000000000000000000000000000000000000000000000000000F5F5F5F5F5F5F5F5F5F5F5F5F5F5F5F5F5F5F5F5F5F5F5F5F5F5F5F5F5F5F5F5F5F5F5F5F5F5F5F5F5F5F5F5F5F5F5F5F5F5F5F5F5F5F5F5F5F5F5F5F5F5F5F5F5F5F5F5F5F5F5F5F5F5F5F5F5F5F5
310
F5F5F5F5F5F5F5F5F5F5F5F5F5F5F5F5F5F5F5F5F5F5F5F5F5F5F5F5F5F5F5F5F5F5F5F5F5F5F5F5F5F5F5F5F5F5F5F5F5F5F5F5F5F5F5F5F500000000000000000000000000000000000000000000000000000000000000000000000000000000000000000000000000000000000000000000000000000000000000000000
310
00000000000000000000000000000000000000000000000000000000000000000000000000000000000000000000000000000000000000000000000000000000000000000000000000000000000000000000000000000000000000000000000000000000000000000000000000000000000000000000000000000000000000
310
0000000000000000000000000000000000000000000000000000000000000000000000000000000000000000000000000000000000000000000000000000000000000000000000000000000000000000000000000000000000000000000000000000000000000000000000000000000000000000000000
  0
XRECORD
  5
14C0
102
{ACAD_REACTORS
330
53
102
}
330
53
100
AcDbXrecord
280
     1
102
MATERIAL
148
0.0
149
0.0
149
0.0
 93
        0
 94
      127
282
     0
 72
     0
 77
     0
171
     0
175
     0
179
     0
273
     0
  0
XRECORD
  5
55
102
{ACAD_REACTORS
330
53
102
}
330
53
100
AcDbXrecord
280
     1
270
     1
271
     1
  0
XRECORD
  5
54
102
{ACAD_REACTORS
330
53
102
}
330
53
100
AcDbXrecord
280
     1
270
     1
271
     1
  0
XRECORD
  5
58
102
{ACAD_REACTORS
330
53
102
}
330
53
100
AcDbXrecord
280
     1
270
     1
271
     1
  0
XRECORD
  5
57
102
{ACAD_REACTORS
330
53
102
}
330
53
100
AcDbXrecord
280
     1
270
     1
271
     1
  0
XRECORD
  5
59
102
{ACAD_REACTORS
330
53
102
}
330
53
100
AcDbXrecord
280
     1
270
     1
271
     1
  0
XRECORD
  5
56
102
{ACAD_REACTORS
330
53
102
}
330
53
100
AcDbXrecord
280
     1
270
     1
271
     1
  0
XRECORD
  5
14BF
102
{ACAD_REACTORS
330
4B
102
}
330
4B
100
AcDbXrecord
280
     1
102
MATERIAL
148
0.0
149
0.0
149
0.0
 93
        0
 94
      127
282
     0
 72
     0
 77
     0
171
     0
175
     0
179
     0
273
     0
  0
XRECORD
  5
4D
102
{ACAD_REACTORS
330
4B
102
}
330
4B
100
AcDbXrecord
280
     1
270
     1
271
     1
  0
XRECORD
  5
4C
102
{ACAD_REACTORS
330
4B
102
}
330
4B
100
AcDbXrecord
280
     1
270
     1
271
     1
  0
XRECORD
  5
50
102
{ACAD_REACTORS
330
4B
102
}
330
4B
100
AcDbXrecord
280
     1
270
     1
271
     1
  0
XRECORD
  5
4F
102
{ACAD_REACTORS
330
4B
102
}
330
4B
100
AcDbXrecord
280
     1
270
     1
271
     1
  0
XRECORD
  5
51
102
{ACAD_REACTORS
330
4B
102
}
330
4B
100
AcDbXrecord
280
     1
270
     1
271
     1
  0
XRECORD
  5
4E
102
{ACAD_REACTORS
330
4B
102
}
330
4B
100
AcDbXrecord
280
     1
270
     1
271
     1
  0
XRECORD
  5
14C1
102
{ACAD_REACTORS
330
5B
102
}
330
5B
100
AcDbXrecord
280
     1
102
MATERIAL
148
0.0
149
0.0
149
0.0
 93
        0
 94
      127
282
     0
 72
     0
 77
     0
171
     0
175
     0
179
     0
273
     0
  0
XRECORD
  5
5D
102
{ACAD_REACTORS
330
5B
102
}
330
5B
100
AcDbXrecord
280
     1
270
     1
271
     1
  0
XRECORD
  5
5C
102
{ACAD_REACTORS
330
5B
102
}
330
5B
100
AcDbXrecord
280
     1
270
     1
271
     1
  0
XRECORD
  5
60
102
{ACAD_REACTORS
330
5B
102
}
330
5B
100
AcDbXrecord
280
     1
270
     1
271
     1
  0
XRECORD
  5
5F
102
{ACAD_REACTORS
330
5B
102
}
330
5B
100
AcDbXrecord
280
     1
270
     1
271
     1
  0
XRECORD
  5
61
102
{ACAD_REACTORS
330
5B
102
}
330
5B
100
AcDbXrecord
280
     1
270
     1
271
     1
  0
XRECORD
  5
5E
102
{ACAD_REACTORS
330
5B
102
}
330
5B
100
AcDbXrecord
280
     1
270
     1
271
     1
  0
XRECORD
  5
14F4
102
{ACAD_REACTORS
330
14F3
102
}
330
14F3
100
AcDbXrecord
280
     1
102
ACAD_ROUNDTRIP_2012_MLEADER_STYLE
298
     1
  0
XRECORD
  5
14F6
102
{ACAD_REACTORS
330
14F5
102
}
330
14F5
100
AcDbXrecord
280
     1
102
DISPLAYNAME
  1
Imperial24
102
FLAGS
 90
        0
  0
XRECORD
  5
14FA
102
{ACAD_REACTORS
330
14F9
102
}
330
14F9
100
AcDbXrecord
280
     1
102
DISPLAYNAME
  1
Metric50
102
FLAGS
 90
        0
  0
CELLSTYLEMAP
  5
14BD
102
{ACAD_REACTORS
330
6FA
102
}
330
6FA
100
AcDbCellStyleMap
 90
        3
300
CELLSTYLE
  1
TABLEFORMAT_BEGIN
 90
        5
170
     1
 91
        0
 92
    32768
 62
   257
 93
        1
300
CONTENTFORMAT
  1
CONTENTFORMAT_BEGIN
 90
        0
 91
        0
 92
      512
 93
        0
300

 40
0.0
140
1.0
 94
        5
 62
     0
340
10
144
0.25
309
CONTENTFORMAT_END
171
     0
 94
        0
309
TABLEFORMAT_END
  1
CELLSTYLE_BEGIN
 90
        1
 91
        1
300
_TITLE
309
CELLSTYLE_END
300
CELLSTYLE
  1
TABLEFORMAT_BEGIN
 90
        5
170
     1
 91
        0
 92
        0
 62
   257
 93
        1
300
CONTENTFORMAT
  1
CONTENTFORMAT_BEGIN
 90
        0
 91
        0
 92
      512
 93
        0
300

 40
0.0
140
1.0
 94
        5
 62
     0
340
10
144
0.18
309
CONTENTFORMAT_END
171
     0
 94
        0
309
TABLEFORMAT_END
  1
CELLSTYLE_BEGIN
 90
        2
 91
        1
300
_HEADER
309
CELLSTYLE_END
300
CELLSTYLE
  1
TABLEFORMAT_BEGIN
 90
        5
170
     1
 91
        0
 92
        0
 62
   257
 93
        1
300
CONTENTFORMAT
  1
CONTENTFORMAT_BEGIN
 90
        0
 91
        0
 92
      512
 93
        0
300

 40
0.0
140
1.0
 94
        2
 62
     0
340
10
144
0.18
309
CONTENTFORMAT_END
171
     0
 94
        0
309
TABLEFORMAT_END
  1
CELLSTYLE_BEGIN
 90
        3
 91
        2
300
_DATA
309
CELLSTYLE_END
  0
XRECORD
  5
14F2
102
{ACAD_REACTORS
330
6FA
102
}
330
6FA
100
AcDbXrecord
280
     1
102
ACAD_ROUNDTRIP_PRE2007_TABLESTYLE
 90
      512
 91
        0
  1

 92
      512
 93
        0
  2

 94
      512
 95
        0
  3

  0
XRECORD
  5
14CD
102
{ACAD_REACTORS
330
14CC
102
}
330
14CC
100
AcDbXrecord
280
     1
102
RTVSPost2010Prop28
280
     1
102
RTVSPost2010PropOp28
 70
     1
102
RTVSPost2010Prop29
280
     1
102
RTVSPost2010PropOp29
 70
     1
102
RTVSPost2010Prop30
280
     0
102
RTVSPost2010PropOp30
 70
     1
102
RTVSPost2010Prop31
280
     0
102
RTVSPost2010PropOp31
 70
     1
102
RTVSPost2010Prop32
280
     0
102
RTVSPost2010PropOp32
 70
     1
102
RTVSPost2010Prop33
280
     0
102
RTVSPost2010PropOp33
 70
     1
102
RTVSPost2010Prop34
280
     0
102
RTVSPost2010PropOp34
 70
     1
102
RTVSPost2010Prop35
280
     0
102
RTVSPost2010PropOp35
 70
     1
102
RTVSPost2010Prop36
280
     0
102
RTVSPost2010PropOp36
 70
     1
102
RTVSPost2010Prop37
 90
       50
102
RTVSPost2010PropOp37
 70
     1
102
RTVSPost2010Prop38
140
0.0
102
RTVSPost2010PropOp38
 70
     1
102
RTVSPost2010Prop39
140
1.0
102
RTVSPost2010PropOp39
 70
     1
102
RTVSPost2010Prop40
 90
        0
102
RTVSPost2010PropOp40
 70
     1
102
RTVSPost2010Prop41ColorIndex
 90
       18
102
RTVSPost2010Prop41ColorRGB
 90
        0
102
RTVSPost2010PropOp41
 70
     1
102
RTVSPost2010Prop42
 90
       50
102
RTVSPost2010PropOp42
 70
     1
102
RTVSPost2010Prop43
 90
        3
102
RTVSPost2010PropOp43
 70
     1
102
RTVSPost2010Prop44ColorIndex
 90
        5
102
RTVSPost2010Prop44ColorRGB
 90
      255
102
RTVSPost2010PropOp44
 70
     1
102
RTVSPost2010Prop45
280
     0
102
RTVSPost2010PropOp45
 70
     1
102
RTVSPost2010Prop46
 90
       50
102
RTVSPost2010PropOp46
 70
     1
102
RTVSPost2010Prop47
 90
       50
102
RTVSPost2010PropOp47
 70
     1
102
RTVSPost2010Prop48
 90
       50
102
RTVSPost2010PropOp48
 70
     1
102
RTVSPost2010Prop49
280
     0
102
RTVSPost2010PropOp49
 70
     1
102
RTVSPost2010Prop50
 90
       50
102
RTVSPost2010PropOp50
 70
     1
102
RTVSPost2010Prop51ColorIndex
 90
      256
102
RTVSPost2010Prop51ColorRGB
 90
-16777216
102
RTVSPost2010PropOp51
 70
     0
102
RTVSPost2010Prop52
140
1.0
102
RTVSPost2010PropOp52
 70
     0
102
RTVSPost2010Prop53
 90
        2
102
RTVSPost2010PropOp53
 70
     1
102
RTVSPost2010Prop54
  1
strokes_ogs.tif
102
RTVSPost2010PropOp54
 70
     1
102
RTVSPost2010Prop55
280
     0
102
RTVSPost2010PropOp55
 70
     1
102
RTVSPost2010Prop56
140
1.0
102
RTVSPost2010PropOp56
 70
     1
102
RTVSPost2010Prop57
140
1.0
102
RTVSPost2010PropOp57
 70
     1
102
RTVSPropertyOp0
 70
     1
102
RTVSPropertyOp1
 70
     1
102
RTVSPropertyOp2
 70
     1
102
RTVSPropertyOp3
 70
     1
102
RTVSPropertyOp4
 70
     1
102
RTVSPropertyOp5
 70
     1
102
RTVSPropertyOp6
 70
     1
102
RTVSPropertyOp7
 70
     1
102
RTVSPropertyOp8
 70
     1
102
RTVSPropertyOp9
 70
     1
102
RTVSPropertyOp10
 70
     1
102
RTVSPropertyOp11
 70
     1
102
RTVSPropertyOp12
 70
     1
102
RTVSPropertyOp13
 70
     1
102
RTVSPropertyOp14
 70
     1
102
RTVSPropertyOp15
 70
     1
102
RTVSPropertyOp16
 70
     1
102
RTVSPropertyOp17
 70
     1
102
RTVSPropertyOp18
 70
     1
102
RTVSPropertyOp19
 70
     1
102
RTVSPropertyOp20
 70
     1
102
RTVSPropertyOp21
 70
     1
102
RTVSPropertyOp22
 70
     1
102
RTVSPropertyOp23
 70
     1
102
RTVSPropertyOp24
 70
     1
102
RTVSPropertyOp25
 70
     1
102
RTVSPropertyOp26
 70
     1
102
RTVSPropertyOp27
 70
     1
102
RTVSPropertyOp28
 70
     1
102
RTVSPropertyOp29
 70
     1
102
RTVSPropertyOp30
 70
     1
102
RTVSPropertyOp31
 70
     1
102
RTVSPropertyOp32
 70
     1
102
RTVSPropertyOp33
 70
     1
102
RTVSPropertyOp34
 70
     1
102
RTVSPropertyOp35
 70
     1
102
RTVSPropertyOp36
 70
     1
102
RTVSPropertyOp37
 70
     1
102
RTVSPropertyOp38
 70
     1
102
RTVSPropertyOp39
 70
     1
102
RTVSPropertyOp40
 70
     1
102
RTVSPropertyOp41
 70
     1
102
RTVSPropertyOp42
 70
     1
102
RTVSPropertyOp43
 70
     1
102
RTVSPropertyOp44
 70
     1
102
RTVSPropertyOp45
 70
     1
102
RTVSPropertyOp46
 70
     1
102
RTVSPropertyOp47
 70
     1
102
RTVSPropertyOp48
 70
     1
102
RTVSPropertyOp49
 70
     1
102
RTVSPropertyOp50
 70
     1
102
RTVSPropertyOp51
 70
     0
102
RTVSPropertyOp52
 70
     0
102
RTVSPropertyOp53
 70
     1
102
RTVSPropertyOp54
 70
     1
102
RTVSPropertyOp55
 70
     1
102
RTVSPropertyOp56
 70
     1
102
RTVSPropertyOp57
 70
     1
102
RTVSPropertyOp58
 70
     1
102
RTVSPropertyOp59
 70
     1
102
RTVSPropertyOp60
 70
     1
102
RTVSPropertyOp61
 70
     1
102
RTVSPropertyOp62
 70
     1
  0
XRECORD
  5
14CB
102
{ACAD_REACTORS
330
14CA
102
}
330
14CA
100
AcDbXrecord
280
     1
102
RTVSPost2010Prop28
280
     0
102
RTVSPost2010PropOp28
 70
     1
102
RTVSPost2010Prop29
280
     1
102
RTVSPost2010PropOp29
 70
     1
102
RTVSPost2010Prop30
280
     1
102
RTVSPost2010PropOp30
 70
     1
102
RTVSPost2010Prop31
280
     0
102
RTVSPost2010PropOp31
 70
     1
102
RTVSPost2010Prop32
280
     0
102
RTVSPost2010PropOp32
 70
     1
102
RTVSPost2010Prop33
280
     0
102
RTVSPost2010PropOp33
 70
     1
102
RTVSPost2010Prop34
280
     0
102
RTVSPost2010PropOp34
 70
     1
102
RTVSPost2010Prop35
280
     0
102
RTVSPost2010PropOp35
 70
     1
102
RTVSPost2010Prop36
280
     0
102
RTVSPost2010PropOp36
 70
     1
102
RTVSPost2010Prop37
 90
       50
102
RTVSPost2010PropOp37
 70
     1
102
RTVSPost2010Prop38
140
0.0
102
RTVSPost2010PropOp38
 70
     1
102
RTVSPost2010Prop39
140
1.0
102
RTVSPost2010PropOp39
 70
     1
102
RTVSPost2010Prop40
 90
        0
102
RTVSPost2010PropOp40
 70
     1
102
RTVSPost2010Prop41ColorIndex
 90
       18
102
RTVSPost2010Prop41ColorRGB
 90
        0
102
RTVSPost2010PropOp41
 70
     1
102
RTVSPost2010Prop42
 90
       50
102
RTVSPost2010PropOp42
 70
     1
102
RTVSPost2010Prop43
 90
        3
102
RTVSPost2010PropOp43
 70
     1
102
RTVSPost2010Prop44ColorIndex
 90
        5
102
RTVSPost2010Prop44ColorRGB
 90
      255
102
RTVSPost2010PropOp44
 70
     1
102
RTVSPost2010Prop45
280
     0
102
RTVSPost2010PropOp45
 70
     1
102
RTVSPost2010Prop46
 90
       50
102
RTVSPost2010PropOp46
 70
     1
102
RTVSPost2010Prop47
 90
       50
102
RTVSPost2010PropOp47
 70
     1
102
RTVSPost2010Prop48
 90
       50
102
RTVSPost2010PropOp48
 70
     1
102
RTVSPost2010Prop49
280
     0
102
RTVSPost2010PropOp49
 70
     1
102
RTVSPost2010Prop50
 90
       50
102
RTVSPost2010PropOp50
 70
     1
102
RTVSPost2010Prop51ColorIndex
 90
      256
102
RTVSPost2010Prop51ColorRGB
 90
-16777216
102
RTVSPost2010PropOp51
 70
     0
102
RTVSPost2010Prop52
140
1.0
102
RTVSPost2010PropOp52
 70
     0
102
RTVSPost2010Prop53
 90
        2
102
RTVSPost2010PropOp53
 70
     1
102
RTVSPost2010Prop54
  1
strokes_ogs.tif
102
RTVSPost2010PropOp54
 70
     1
102
RTVSPost2010Prop55
280
     0
102
RTVSPost2010PropOp55
 70
     1
102
RTVSPost2010Prop56
140
1.0
102
RTVSPost2010PropOp56
 70
     1
102
RTVSPost2010Prop57
140
1.0
102
RTVSPost2010PropOp57
 70
     1
102
RTVSPropertyOp0
 70
     1
102
RTVSPropertyOp1
 70
     1
102
RTVSPropertyOp2
 70
     1
102
RTVSPropertyOp3
 70
     1
102
RTVSPropertyOp4
 70
     1
102
RTVSPropertyOp5
 70
     1
102
RTVSPropertyOp6
 70
     1
102
RTVSPropertyOp7
 70
     1
102
RTVSPropertyOp8
 70
     1
102
RTVSPropertyOp9
 70
     1
102
RTVSPropertyOp10
 70
     1
102
RTVSPropertyOp11
 70
     1
102
RTVSPropertyOp12
 70
     1
102
RTVSPropertyOp13
 70
     1
102
RTVSPropertyOp14
 70
     1
102
RTVSPropertyOp15
 70
     1
102
RTVSPropertyOp16
 70
     1
102
RTVSPropertyOp17
 70
     1
102
RTVSPropertyOp18
 70
     1
102
RTVSPropertyOp19
 70
     1
102
RTVSPropertyOp20
 70
     1
102
RTVSPropertyOp21
 70
     1
102
RTVSPropertyOp22
 70
     1
102
RTVSPropertyOp23
 70
     1
102
RTVSPropertyOp24
 70
     1
102
RTVSPropertyOp25
 70
     1
102
RTVSPropertyOp26
 70
     1
102
RTVSPropertyOp27
 70
     1
102
RTVSPropertyOp28
 70
     1
102
RTVSPropertyOp29
 70
     1
102
RTVSPropertyOp30
 70
     1
102
RTVSPropertyOp31
 70
     1
102
RTVSPropertyOp32
 70
     1
102
RTVSPropertyOp33
 70
     1
102
RTVSPropertyOp34
 70
     1
102
RTVSPropertyOp35
 70
     1
102
RTVSPropertyOp36
 70
     1
102
RTVSPropertyOp37
 70
     1
102
RTVSPropertyOp38
 70
     1
102
RTVSPropertyOp39
 70
     1
102
RTVSPropertyOp40
 70
     1
102
RTVSPropertyOp41
 70
     1
102
RTVSPropertyOp42
 70
     1
102
RTVSPropertyOp43
 70
     1
102
RTVSPropertyOp44
 70
     1
102
RTVSPropertyOp45
 70
     1
102
RTVSPropertyOp46
 70
     1
102
RTVSPropertyOp47
 70
     1
102
RTVSPropertyOp48
 70
     1
102
RTVSPropertyOp49
 70
     1
102
RTVSPropertyOp50
 70
     1
102
RTVSPropertyOp51
 70
     0
102
RTVSPropertyOp52
 70
     0
102
RTVSPropertyOp53
 70
     1
102
RTVSPropertyOp54
 70
     1
102
RTVSPropertyOp55
 70
     1
102
RTVSPropertyOp56
 70
     1
102
RTVSPropertyOp57
 70
     1
102
RTVSPropertyOp58
 70
     1
102
RTVSPropertyOp59
 70
     1
102
RTVSPropertyOp60
 70
     1
102
RTVSPropertyOp61
 70
     1
102
RTVSPropertyOp62
 70
     1
  0
XRECORD
  5
14D9
102
{ACAD_REACTORS
330
14D8
102
}
330
14D8
100
AcDbXrecord
280
     1
102
RTVSPost2010Prop28
280
     0
102
RTVSPost2010PropOp28
 70
     1
102
RTVSPost2010Prop29
280
     1
102
RTVSPost2010PropOp29
 70
     1
102
RTVSPost2010Prop30
280
     1
102
RTVSPost2010PropOp30
 70
     1
102
RTVSPost2010Prop31
280
     0
102
RTVSPost2010PropOp31
 70
     1
102
RTVSPost2010Prop32
280
     0
102
RTVSPost2010PropOp32
 70
     1
102
RTVSPost2010Prop33
280
     0
102
RTVSPost2010PropOp33
 70
     1
102
RTVSPost2010Prop34
280
     0
102
RTVSPost2010PropOp34
 70
     1
102
RTVSPost2010Prop35
280
     0
102
RTVSPost2010PropOp35
 70
     1
102
RTVSPost2010Prop36
280
     0
102
RTVSPost2010PropOp36
 70
     1
102
RTVSPost2010Prop37
 90
       50
102
RTVSPost2010PropOp37
 70
     1
102
RTVSPost2010Prop38
140
0.0
102
RTVSPost2010PropOp38
 70
     1
102
RTVSPost2010Prop39
140
1.0
102
RTVSPost2010PropOp39
 70
     1
102
RTVSPost2010Prop40
 90
        0
102
RTVSPost2010PropOp40
 70
     1
102
RTVSPost2010Prop41ColorIndex
 90
       18
102
RTVSPost2010Prop41ColorRGB
 90
        0
102
RTVSPost2010PropOp41
 70
     1
102
RTVSPost2010Prop42
 90
       50
102
RTVSPost2010PropOp42
 70
     1
102
RTVSPost2010Prop43
 90
        3
102
RTVSPost2010PropOp43
 70
     1
102
RTVSPost2010Prop44ColorIndex
 90
        5
102
RTVSPost2010Prop44ColorRGB
 90
      255
102
RTVSPost2010PropOp44
 70
     1
102
RTVSPost2010Prop45
280
     0
102
RTVSPost2010PropOp45
 70
     1
102
RTVSPost2010Prop46
 90
       50
102
RTVSPost2010PropOp46
 70
     1
102
RTVSPost2010Prop47
 90
       50
102
RTVSPost2010PropOp47
 70
     1
102
RTVSPost2010Prop48
 90
       50
102
RTVSPost2010PropOp48
 70
     1
102
RTVSPost2010Prop49
280
     0
102
RTVSPost2010PropOp49
 70
     1
102
RTVSPost2010Prop50
 90
       50
102
RTVSPost2010PropOp50
 70
     1
102
RTVSPost2010Prop51ColorIndex
 90
      256
102
RTVSPost2010Prop51ColorRGB
 90
-16777216
102
RTVSPost2010PropOp51
 70
     0
102
RTVSPost2010Prop52
140
1.0
102
RTVSPost2010PropOp52
 70
     0
102
RTVSPost2010Prop53
 90
        2
102
RTVSPost2010PropOp53
 70
     1
102
RTVSPost2010Prop54
  1
strokes_ogs.tif
102
RTVSPost2010PropOp54
 70
     1
102
RTVSPost2010Prop55
280
     0
102
RTVSPost2010PropOp55
 70
     1
102
RTVSPost2010Prop56
140
1.0
102
RTVSPost2010PropOp56
 70
     1
102
RTVSPost2010Prop57
140
1.0
102
RTVSPost2010PropOp57
 70
     1
102
RTVSPropertyOp0
 70
     1
102
RTVSPropertyOp1
 70
     1
102
RTVSPropertyOp2
 70
     1
102
RTVSPropertyOp3
 70
     1
102
RTVSPropertyOp4
 70
     1
102
RTVSPropertyOp5
 70
     1
102
RTVSPropertyOp6
 70
     1
102
RTVSPropertyOp7
 70
     1
102
RTVSPropertyOp8
 70
     1
102
RTVSPropertyOp9
 70
     1
102
RTVSPropertyOp10
 70
     1
102
RTVSPropertyOp11
 70
     1
102
RTVSPropertyOp12
 70
     1
102
RTVSPropertyOp13
 70
     1
102
RTVSPropertyOp14
 70
     1
102
RTVSPropertyOp15
 70
     1
102
RTVSPropertyOp16
 70
     1
102
RTVSPropertyOp17
 70
     1
102
RTVSPropertyOp18
 70
     1
102
RTVSPropertyOp19
 70
     1
102
RTVSPropertyOp20
 70
     1
102
RTVSPropertyOp21
 70
     1
102
RTVSPropertyOp22
 70
     1
102
RTVSPropertyOp23
 70
     1
102
RTVSPropertyOp24
 70
     1
102
RTVSPropertyOp25
 70
     1
102
RTVSPropertyOp26
 70
     1
102
RTVSPropertyOp27
 70
     1
102
RTVSPropertyOp28
 70
     1
102
RTVSPropertyOp29
 70
     1
102
RTVSPropertyOp30
 70
     1
102
RTVSPropertyOp31
 70
     1
102
RTVSPropertyOp32
 70
     1
102
RTVSPropertyOp33
 70
     1
102
RTVSPropertyOp34
 70
     1
102
RTVSPropertyOp35
 70
     1
102
RTVSPropertyOp36
 70
     1
102
RTVSPropertyOp37
 70
     1
102
RTVSPropertyOp38
 70
     1
102
RTVSPropertyOp39
 70
     1
102
RTVSPropertyOp40
 70
     1
102
RTVSPropertyOp41
 70
     1
102
RTVSPropertyOp42
 70
     1
102
RTVSPropertyOp43
 70
     1
102
RTVSPropertyOp44
 70
     1
102
RTVSPropertyOp45
 70
     1
102
RTVSPropertyOp46
 70
     1
102
RTVSPropertyOp47
 70
     1
102
RTVSPropertyOp48
 70
     1
102
RTVSPropertyOp49
 70
     1
102
RTVSPropertyOp50
 70
     1
102
RTVSPropertyOp51
 70
     0
102
RTVSPropertyOp52
 70
     0
102
RTVSPropertyOp53
 70
     1
102
RTVSPropertyOp54
 70
     1
102
RTVSPropertyOp55
 70
     1
102
RTVSPropertyOp56
 70
     1
102
RTVSPropertyOp57
 70
     1
102
RTVSPropertyOp58
 70
     1
102
RTVSPropertyOp59
 70
     1
102
RTVSPropertyOp60
 70
     1
102
RTVSPropertyOp61
 70
     1
102
RTVSPropertyOp62
 70
     1
  0
XRECORD
  5
14E1
102
{ACAD_REACTORS
330
14E0
102
}
330
14E0
100
AcDbXrecord
280
     1
102
RTVSPost2010Prop28
280
     0
102
RTVSPost2010PropOp28
 70
     1
102
RTVSPost2010Prop29
280
     1
102
RTVSPost2010PropOp29
 70
     1
102
RTVSPost2010Prop30
280
     1
102
RTVSPost2010PropOp30
 70
     1
102
RTVSPost2010Prop31
280
     0
102
RTVSPost2010PropOp31
 70
     1
102
RTVSPost2010Prop32
280
     0
102
RTVSPost2010PropOp32
 70
     1
102
RTVSPost2010Prop33
280
     0
102
RTVSPost2010PropOp33
 70
     1
102
RTVSPost2010Prop34
280
     0
102
RTVSPost2010PropOp34
 70
     1
102
RTVSPost2010Prop35
280
     0
102
RTVSPost2010PropOp35
 70
     1
102
RTVSPost2010Prop36
280
     0
102
RTVSPost2010PropOp36
 70
     1
102
RTVSPost2010Prop37
 90
       50
102
RTVSPost2010PropOp37
 70
     1
102
RTVSPost2010Prop38
140
0.0
102
RTVSPost2010PropOp38
 70
     1
102
RTVSPost2010Prop39
140
1.0
102
RTVSPost2010PropOp39
 70
     1
102
RTVSPost2010Prop40
 90
        0
102
RTVSPost2010PropOp40
 70
     1
102
RTVSPost2010Prop41ColorIndex
 90
       18
102
RTVSPost2010Prop41ColorRGB
 90
        0
102
RTVSPost2010PropOp41
 70
     1
102
RTVSPost2010Prop42
 90
       50
102
RTVSPost2010PropOp42
 70
     1
102
RTVSPost2010Prop43
 90
        3
102
RTVSPost2010PropOp43
 70
     1
102
RTVSPost2010Prop44ColorIndex
 90
        5
102
RTVSPost2010Prop44ColorRGB
 90
      255
102
RTVSPost2010PropOp44
 70
     1
102
RTVSPost2010Prop45
280
     0
102
RTVSPost2010PropOp45
 70
     1
102
RTVSPost2010Prop46
 90
       50
102
RTVSPost2010PropOp46
 70
     1
102
RTVSPost2010Prop47
 90
       50
102
RTVSPost2010PropOp47
 70
     1
102
RTVSPost2010Prop48
 90
       50
102
RTVSPost2010PropOp48
 70
     1
102
RTVSPost2010Prop49
280
     0
102
RTVSPost2010PropOp49
 70
     1
102
RTVSPost2010Prop50
 90
       50
102
RTVSPost2010PropOp50
 70
     1
102
RTVSPost2010Prop51ColorIndex
 90
      256
102
RTVSPost2010Prop51ColorRGB
 90
-16777216
102
RTVSPost2010PropOp51
 70
     0
102
RTVSPost2010Prop52
140
1.0
102
RTVSPost2010PropOp52
 70
     0
102
RTVSPost2010Prop53
 90
        2
102
RTVSPost2010PropOp53
 70
     1
102
RTVSPost2010Prop54
  1
strokes_ogs.tif
102
RTVSPost2010PropOp54
 70
     1
102
RTVSPost2010Prop55
280
     0
102
RTVSPost2010PropOp55
 70
     1
102
RTVSPost2010Prop56
140
1.0
102
RTVSPost2010PropOp56
 70
     1
102
RTVSPost2010Prop57
140
1.0
102
RTVSPost2010PropOp57
 70
     1
102
RTVSPropertyOp0
 70
     1
102
RTVSPropertyOp1
 70
     1
102
RTVSPropertyOp2
 70
     1
102
RTVSPropertyOp3
 70
     1
102
RTVSPropertyOp4
 70
     1
102
RTVSPropertyOp5
 70
     1
102
RTVSPropertyOp6
 70
     1
102
RTVSPropertyOp7
 70
     1
102
RTVSPropertyOp8
 70
     1
102
RTVSPropertyOp9
 70
     1
102
RTVSPropertyOp10
 70
     1
102
RTVSPropertyOp11
 70
     1
102
RTVSPropertyOp12
 70
     1
102
RTVSPropertyOp13
 70
     1
102
RTVSPropertyOp14
 70
     1
102
RTVSPropertyOp15
 70
     1
102
RTVSPropertyOp16
 70
     1
102
RTVSPropertyOp17
 70
     1
102
RTVSPropertyOp18
 70
     1
102
RTVSPropertyOp19
 70
     1
102
RTVSPropertyOp20
 70
     1
102
RTVSPropertyOp21
 70
     1
102
RTVSPropertyOp22
 70
     1
102
RTVSPropertyOp23
 70
     1
102
RTVSPropertyOp24
 70
     1
102
RTVSPropertyOp25
 70
     1
102
RTVSPropertyOp26
 70
     1
102
RTVSPropertyOp27
 70
     1
102
RTVSPropertyOp28
 70
     1
102
RTVSPropertyOp29
 70
     1
102
RTVSPropertyOp30
 70
     1
102
RTVSPropertyOp31
 70
     1
102
RTVSPropertyOp32
 70
     1
102
RTVSPropertyOp33
 70
     1
102
RTVSPropertyOp34
 70
     1
102
RTVSPropertyOp35
 70
     1
102
RTVSPropertyOp36
 70
     1
102
RTVSPropertyOp37
 70
     1
102
RTVSPropertyOp38
 70
     1
102
RTVSPropertyOp39
 70
     1
102
RTVSPropertyOp40
 70
     1
102
RTVSPropertyOp41
 70
     1
102
RTVSPropertyOp42
 70
     1
102
RTVSPropertyOp43
 70
     1
102
RTVSPropertyOp44
 70
     1
102
RTVSPropertyOp45
 70
     1
102
RTVSPropertyOp46
 70
     1
102
RTVSPropertyOp47
 70
     1
102
RTVSPropertyOp48
 70
     1
102
RTVSPropertyOp49
 70
     1
102
RTVSPropertyOp50
 70
     1
102
RTVSPropertyOp51
 70
     0
102
RTVSPropertyOp52
 70
     0
102
RTVSPropertyOp53
 70
     1
102
RTVSPropertyOp54
 70
     1
102
RTVSPropertyOp55
 70
     1
102
RTVSPropertyOp56
 70
     1
102
RTVSPropertyOp57
 70
     1
102
RTVSPropertyOp58
 70
     1
102
RTVSPropertyOp59
 70
     1
102
RTVSPropertyOp60
 70
     1
102
RTVSPropertyOp61
 70
     1
102
RTVSPropertyOp62
 70
     1
  0
XRECORD
  5
14D3
102
{ACAD_REACTORS
330
14D2
102
}
330
14D2
100
AcDbXrecord
280
     1
102
RTVSPost2010Prop28
280
     0
102
RTVSPost2010PropOp28
 70
     1
102
RTVSPost2010Prop29
280
     1
102
RTVSPost2010PropOp29
 70
     1
102
RTVSPost2010Prop30
280
     1
102
RTVSPost2010PropOp30
 70
     1
102
RTVSPost2010Prop31
280
     0
102
RTVSPost2010PropOp31
 70
     1
102
RTVSPost2010Prop32
280
     0
102
RTVSPost2010PropOp32
 70
     1
102
RTVSPost2010Prop33
280
     0
102
RTVSPost2010PropOp33
 70
     1
102
RTVSPost2010Prop34
280
     0
102
RTVSPost2010PropOp34
 70
     1
102
RTVSPost2010Prop35
280
     0
102
RTVSPost2010PropOp35
 70
     1
102
RTVSPost2010Prop36
280
     0
102
RTVSPost2010PropOp36
 70
     1
102
RTVSPost2010Prop37
 90
       50
102
RTVSPost2010PropOp37
 70
     1
102
RTVSPost2010Prop38
140
0.0
102
RTVSPost2010PropOp38
 70
     1
102
RTVSPost2010Prop39
140
1.0
102
RTVSPost2010PropOp39
 70
     1
102
RTVSPost2010Prop40
 90
        0
102
RTVSPost2010PropOp40
 70
     1
102
RTVSPost2010Prop41ColorIndex
 90
       18
102
RTVSPost2010Prop41ColorRGB
 90
        0
102
RTVSPost2010PropOp41
 70
     1
102
RTVSPost2010Prop42
 90
       50
102
RTVSPost2010PropOp42
 70
     1
102
RTVSPost2010Prop43
 90
        3
102
RTVSPost2010PropOp43
 70
     1
102
RTVSPost2010Prop44ColorIndex
 90
        5
102
RTVSPost2010Prop44ColorRGB
 90
      255
102
RTVSPost2010PropOp44
 70
     1
102
RTVSPost2010Prop45
280
     0
102
RTVSPost2010PropOp45
 70
     1
102
RTVSPost2010Prop46
 90
       50
102
RTVSPost2010PropOp46
 70
     1
102
RTVSPost2010Prop47
 90
       50
102
RTVSPost2010PropOp47
 70
     1
102
RTVSPost2010Prop48
 90
       50
102
RTVSPost2010PropOp48
 70
     1
102
RTVSPost2010Prop49
280
     0
102
RTVSPost2010PropOp49
 70
     1
102
RTVSPost2010Prop50
 90
       50
102
RTVSPost2010PropOp50
 70
     1
102
RTVSPost2010Prop51ColorIndex
 90
      256
102
RTVSPost2010Prop51ColorRGB
 90
-16777216
102
RTVSPost2010PropOp51
 70
     0
102
RTVSPost2010Prop52
140
1.0
102
RTVSPost2010PropOp52
 70
     0
102
RTVSPost2010Prop53
 90
        2
102
RTVSPost2010PropOp53
 70
     1
102
RTVSPost2010Prop54
  1
strokes_ogs.tif
102
RTVSPost2010PropOp54
 70
     1
102
RTVSPost2010Prop55
280
     0
102
RTVSPost2010PropOp55
 70
     1
102
RTVSPost2010Prop56
140
1.0
102
RTVSPost2010PropOp56
 70
     1
102
RTVSPost2010Prop57
140
1.0
102
RTVSPost2010PropOp57
 70
     1
102
RTVSPropertyOp0
 70
     1
102
RTVSPropertyOp1
 70
     1
102
RTVSPropertyOp2
 70
     1
102
RTVSPropertyOp3
 70
     1
102
RTVSPropertyOp4
 70
     1
102
RTVSPropertyOp5
 70
     1
102
RTVSPropertyOp6
 70
     1
102
RTVSPropertyOp7
 70
     1
102
RTVSPropertyOp8
 70
     1
102
RTVSPropertyOp9
 70
     1
102
RTVSPropertyOp10
 70
     1
102
RTVSPropertyOp11
 70
     1
102
RTVSPropertyOp12
 70
     1
102
RTVSPropertyOp13
 70
     1
102
RTVSPropertyOp14
 70
     1
102
RTVSPropertyOp15
 70
     1
102
RTVSPropertyOp16
 70
     1
102
RTVSPropertyOp17
 70
     1
102
RTVSPropertyOp18
 70
     1
102
RTVSPropertyOp19
 70
     1
102
RTVSPropertyOp20
 70
     1
102
RTVSPropertyOp21
 70
     1
102
RTVSPropertyOp22
 70
     1
102
RTVSPropertyOp23
 70
     1
102
RTVSPropertyOp24
 70
     1
102
RTVSPropertyOp25
 70
     1
102
RTVSPropertyOp26
 70
     1
102
RTVSPropertyOp27
 70
     1
102
RTVSPropertyOp28
 70
     1
102
RTVSPropertyOp29
 70
     1
102
RTVSPropertyOp30
 70
     1
102
RTVSPropertyOp31
 70
     1
102
RTVSPropertyOp32
 70
     1
102
RTVSPropertyOp33
 70
     1
102
RTVSPropertyOp34
 70
     1
102
RTVSPropertyOp35
 70
     1
102
RTVSPropertyOp36
 70
     1
102
RTVSPropertyOp37
 70
     1
102
RTVSPropertyOp38
 70
     1
102
RTVSPropertyOp39
 70
     1
102
RTVSPropertyOp40
 70
     1
102
RTVSPropertyOp41
 70
     1
102
RTVSPropertyOp42
 70
     1
102
RTVSPropertyOp43
 70
     1
102
RTVSPropertyOp44
 70
     1
102
RTVSPropertyOp45
 70
     1
102
RTVSPropertyOp46
 70
     1
102
RTVSPropertyOp47
 70
     1
102
RTVSPropertyOp48
 70
     1
102
RTVSPropertyOp49
 70
     1
102
RTVSPropertyOp50
 70
     1
102
RTVSPropertyOp51
 70
     0
102
RTVSPropertyOp52
 70
     0
102
RTVSPropertyOp53
 70
     1
102
RTVSPropertyOp54
 70
     1
102
RTVSPropertyOp55
 70
     1
102
RTVSPropertyOp56
 70
     1
102
RTVSPropertyOp57
 70
     1
102
RTVSPropertyOp58
 70
     1
102
RTVSPropertyOp59
 70
     1
102
RTVSPropertyOp60
 70
     1
102
RTVSPropertyOp61
 70
     1
102
RTVSPropertyOp62
 70
     1
  0
XRECORD
  5
14D7
102
{ACAD_REACTORS
330
14D6
102
}
330
14D6
100
AcDbXrecord
280
     1
102
RTVSPost2010Prop28
280
     0
102
RTVSPost2010PropOp28
 70
     1
102
RTVSPost2010Prop29
280
     1
102
RTVSPost2010PropOp29
 70
     1
102
RTVSPost2010Prop30
280
     1
102
RTVSPost2010PropOp30
 70
     1
102
RTVSPost2010Prop31
280
     0
102
RTVSPost2010PropOp31
 70
     1
102
RTVSPost2010Prop32
280
     0
102
RTVSPost2010PropOp32
 70
     1
102
RTVSPost2010Prop33
280
     0
102
RTVSPost2010PropOp33
 70
     1
102
RTVSPost2010Prop34
280
     0
102
RTVSPost2010PropOp34
 70
     1
102
RTVSPost2010Prop35
280
     0
102
RTVSPost2010PropOp35
 70
     1
102
RTVSPost2010Prop36
280
     0
102
RTVSPost2010PropOp36
 70
     1
102
RTVSPost2010Prop37
 90
       50
102
RTVSPost2010PropOp37
 70
     1
102
RTVSPost2010Prop38
140
0.0
102
RTVSPost2010PropOp38
 70
     1
102
RTVSPost2010Prop39
140
1.0
102
RTVSPost2010PropOp39
 70
     1
102
RTVSPost2010Prop40
 90
        0
102
RTVSPost2010PropOp40
 70
     1
102
RTVSPost2010Prop41ColorIndex
 90
       18
102
RTVSPost2010Prop41ColorRGB
 90
        0
102
RTVSPost2010PropOp41
 70
     1
102
RTVSPost2010Prop42
 90
       50
102
RTVSPost2010PropOp42
 70
     1
102
RTVSPost2010Prop43
 90
        3
102
RTVSPost2010PropOp43
 70
     1
102
RTVSPost2010Prop44ColorIndex
 90
        5
102
RTVSPost2010Prop44ColorRGB
 90
      255
102
RTVSPost2010PropOp44
 70
     1
102
RTVSPost2010Prop45
280
     0
102
RTVSPost2010PropOp45
 70
     1
102
RTVSPost2010Prop46
 90
       50
102
RTVSPost2010PropOp46
 70
     1
102
RTVSPost2010Prop47
 90
       50
102
RTVSPost2010PropOp47
 70
     1
102
RTVSPost2010Prop48
 90
       50
102
RTVSPost2010PropOp48
 70
     1
102
RTVSPost2010Prop49
280
     0
102
RTVSPost2010PropOp49
 70
     1
102
RTVSPost2010Prop50
 90
       50
102
RTVSPost2010PropOp50
 70
     1
102
RTVSPost2010Prop51ColorIndex
 90
      256
102
RTVSPost2010Prop51ColorRGB
 90
-16777216
102
RTVSPost2010PropOp51
 70
     0
102
RTVSPost2010Prop52
140
1.0
102
RTVSPost2010PropOp52
 70
     0
102
RTVSPost2010Prop53
 90
        2
102
RTVSPost2010PropOp53
 70
     1
102
RTVSPost2010Prop54
  1
strokes_ogs.tif
102
RTVSPost2010PropOp54
 70
     1
102
RTVSPost2010Prop55
280
     0
102
RTVSPost2010PropOp55
 70
     1
102
RTVSPost2010Prop56
140
1.0
102
RTVSPost2010PropOp56
 70
     1
102
RTVSPost2010Prop57
140
1.0
102
RTVSPost2010PropOp57
 70
     1
102
RTVSPropertyOp0
 70
     1
102
RTVSPropertyOp1
 70
     1
102
RTVSPropertyOp2
 70
     1
102
RTVSPropertyOp3
 70
     1
102
RTVSPropertyOp4
 70
     1
102
RTVSPropertyOp5
 70
     1
102
RTVSPropertyOp6
 70
     1
102
RTVSPropertyOp7
 70
     1
102
RTVSPropertyOp8
 70
     1
102
RTVSPropertyOp9
 70
     1
102
RTVSPropertyOp10
 70
     1
102
RTVSPropertyOp11
 70
     1
102
RTVSPropertyOp12
 70
     1
102
RTVSPropertyOp13
 70
     1
102
RTVSPropertyOp14
 70
     1
102
RTVSPropertyOp15
 70
     1
102
RTVSPropertyOp16
 70
     1
102
RTVSPropertyOp17
 70
     1
102
RTVSPropertyOp18
 70
     1
102
RTVSPropertyOp19
 70
     1
102
RTVSPropertyOp20
 70
     1
102
RTVSPropertyOp21
 70
     1
102
RTVSPropertyOp22
 70
     1
102
RTVSPropertyOp23
 70
     1
102
RTVSPropertyOp24
 70
     1
102
RTVSPropertyOp25
 70
     1
102
RTVSPropertyOp26
 70
     1
102
RTVSPropertyOp27
 70
     1
102
RTVSPropertyOp28
 70
     1
102
RTVSPropertyOp29
 70
     1
102
RTVSPropertyOp30
 70
     1
102
RTVSPropertyOp31
 70
     1
102
RTVSPropertyOp32
 70
     1
102
RTVSPropertyOp33
 70
     1
102
RTVSPropertyOp34
 70
     1
102
RTVSPropertyOp35
 70
     1
102
RTVSPropertyOp36
 70
     1
102
RTVSPropertyOp37
 70
     1
102
RTVSPropertyOp38
 70
     1
102
RTVSPropertyOp39
 70
     1
102
RTVSPropertyOp40
 70
     1
102
RTVSPropertyOp41
 70
     1
102
RTVSPropertyOp42
 70
     1
102
RTVSPropertyOp43
 70
     1
102
RTVSPropertyOp44
 70
     1
102
RTVSPropertyOp45
 70
     1
102
RTVSPropertyOp46
 70
     1
102
RTVSPropertyOp47
 70
     1
102
RTVSPropertyOp48
 70
     1
102
RTVSPropertyOp49
 70
     1
102
RTVSPropertyOp50
 70
     1
102
RTVSPropertyOp51
 70
     0
102
RTVSPropertyOp52
 70
     0
102
RTVSPropertyOp53
 70
     1
102
RTVSPropertyOp54
 70
     1
102
RTVSPropertyOp55
 70
     1
102
RTVSPropertyOp56
 70
     1
102
RTVSPropertyOp57
 70
     1
102
RTVSPropertyOp58
 70
     1
102
RTVSPropertyOp59
 70
     1
102
RTVSPropertyOp60
 70
     1
102
RTVSPropertyOp61
 70
     1
102
RTVSPropertyOp62
 70
     1
  0
XRECORD
  5
14F1
102
{ACAD_REACTORS
330
14F0
102
}
330
14F0
100
AcDbXrecord
280
     1
102
RTVSPost2010Prop28
280
     0
102
RTVSPost2010PropOp28
 70
     0
102
RTVSPost2010Prop29
280
     1
102
RTVSPost2010PropOp29
 70
     0
102
RTVSPost2010Prop30
280
     1
102
RTVSPost2010PropOp30
 70
     0
102
RTVSPost2010Prop31
280
     0
102
RTVSPost2010PropOp31
 70
     0
102
RTVSPost2010Prop32
280
     0
102
RTVSPost2010PropOp32
 70
     0
102
RTVSPost2010Prop33
280
     0
102
RTVSPost2010PropOp33
 70
     0
102
RTVSPost2010Prop34
280
     0
102
RTVSPost2010PropOp34
 70
     0
102
RTVSPost2010Prop35
280
     0
102
RTVSPost2010PropOp35
 70
     0
102
RTVSPost2010Prop36
280
     0
102
RTVSPost2010PropOp36
 70
     0
102
RTVSPost2010Prop37
 90
       50
102
RTVSPost2010PropOp37
 70
     0
102
RTVSPost2010Prop38
140
0.0
102
RTVSPost2010PropOp38
 70
     0
102
RTVSPost2010Prop39
140
1.0
102
RTVSPost2010PropOp39
 70
     0
102
RTVSPost2010Prop40
 90
        0
102
RTVSPost2010PropOp40
 70
     0
102
RTVSPost2010Prop41ColorIndex
 90
       18
102
RTVSPost2010Prop41ColorRGB
 90
        0
102
RTVSPost2010PropOp41
 70
     0
102
RTVSPost2010Prop42
 90
       50
102
RTVSPost2010PropOp42
 70
     0
102
RTVSPost2010Prop43
 90
        3
102
RTVSPost2010PropOp43
 70
     0
102
RTVSPost2010Prop44ColorIndex
 90
        5
102
RTVSPost2010Prop44ColorRGB
 90
      255
102
RTVSPost2010PropOp44
 70
     0
102
RTVSPost2010Prop45
280
     0
102
RTVSPost2010PropOp45
 70
     0
102
RTVSPost2010Prop46
 90
       50
102
RTVSPost2010PropOp46
 70
     0
102
RTVSPost2010Prop47
 90
       50
102
RTVSPost2010PropOp47
 70
     0
102
RTVSPost2010Prop48
 90
       50
102
RTVSPost2010PropOp48
 70
     0
102
RTVSPost2010Prop49
280
     0
102
RTVSPost2010PropOp49
 70
     0
102
RTVSPost2010Prop50
 90
       50
102
RTVSPost2010PropOp50
 70
     0
102
RTVSPost2010Prop51ColorIndex
 90
      256
102
RTVSPost2010Prop51ColorRGB
 90
-16777216
102
RTVSPost2010PropOp51
 70
     0
102
RTVSPost2010Prop52
140
1.0
102
RTVSPost2010PropOp52
 70
     0
102
RTVSPost2010Prop53
 90
        2
102
RTVSPost2010PropOp53
 70
     0
102
RTVSPost2010Prop54
  1
strokes_ogs.tif
102
RTVSPost2010PropOp54
 70
     0
102
RTVSPost2010Prop55
280
     0
102
RTVSPost2010PropOp55
 70
     0
102
RTVSPost2010Prop56
140
1.0
102
RTVSPost2010PropOp56
 70
     0
102
RTVSPost2010Prop57
140
1.0
102
RTVSPost2010PropOp57
 70
     0
102
RTVSPropertyOp0
 70
     0
102
RTVSPropertyOp1
 70
     0
102
RTVSPropertyOp2
 70
     0
102
RTVSPropertyOp3
 70
     0
102
RTVSPropertyOp4
 70
     0
102
RTVSPropertyOp5
 70
     0
102
RTVSPropertyOp6
 70
     0
102
RTVSPropertyOp7
 70
     0
102
RTVSPropertyOp8
 70
     0
102
RTVSPropertyOp9
 70
     0
102
RTVSPropertyOp10
 70
     0
102
RTVSPropertyOp11
 70
     0
102
RTVSPropertyOp12
 70
     0
102
RTVSPropertyOp13
 70
     0
102
RTVSPropertyOp14
 70
     2
102
RTVSPropertyOp15
 70
     0
102
RTVSPropertyOp16
 70
     0
102
RTVSPropertyOp17
 70
     0
102
RTVSPropertyOp18
 70
     0
102
RTVSPropertyOp19
 70
     0
102
RTVSPropertyOp20
 70
     0
102
RTVSPropertyOp21
 70
     0
102
RTVSPropertyOp22
 70
     0
102
RTVSPropertyOp23
 70
     0
102
RTVSPropertyOp24
 70
     0
102
RTVSPropertyOp25
 70
     0
102
RTVSPropertyOp26
 70
     0
102
RTVSPropertyOp27
 70
     0
102
RTVSPropertyOp28
 70
     0
102
RTVSPropertyOp29
 70
     0
102
RTVSPropertyOp30
 70
     0
102
RTVSPropertyOp31
 70
     0
102
RTVSPropertyOp32
 70
     0
102
RTVSPropertyOp33
 70
     0
102
RTVSPropertyOp34
 70
     0
102
RTVSPropertyOp35
 70
     0
102
RTVSPropertyOp36
 70
     0
102
RTVSPropertyOp37
 70
     0
102
RTVSPropertyOp38
 70
     0
102
RTVSPropertyOp39
 70
     0
102
RTVSPropertyOp40
 70
     0
102
RTVSPropertyOp41
 70
     0
102
RTVSPropertyOp42
 70
     0
102
RTVSPropertyOp43
 70
     0
102
RTVSPropertyOp44
 70
     0
102
RTVSPropertyOp45
 70
     0
102
RTVSPropertyOp46
 70
     0
102
RTVSPropertyOp47
 70
     0
102
RTVSPropertyOp48
 70
     0
102
RTVSPropertyOp49
 70
     0
102
RTVSPropertyOp50
 70
     0
102
RTVSPropertyOp51
 70
     0
102
RTVSPropertyOp52
 70
     0
102
RTVSPropertyOp53
 70
     0
102
RTVSPropertyOp54
 70
     0
102
RTVSPropertyOp55
 70
     0
102
RTVSPropertyOp56
 70
     0
102
RTVSPropertyOp57
 70
     0
102
RTVSPropertyOp58
 70
     0
102
RTVSPropertyOp59
 70
     0
102
RTVSPropertyOp60
 70
     0
102
RTVSPropertyOp61
 70
     0
102
RTVSPropertyOp62
 70
     0
  0
XRECORD
  5
14DF
102
{ACAD_REACTORS
330
14DE
102
}
330
14DE
100
AcDbXrecord
280
     1
102
RTVSPost2010Prop28
280
     0
102
RTVSPost2010PropOp28
 70
     1
102
RTVSPost2010Prop29
280
     1
102
RTVSPost2010PropOp29
 70
     1
102
RTVSPost2010Prop30
280
     1
102
RTVSPost2010PropOp30
 70
     1
102
RTVSPost2010Prop31
280
     0
102
RTVSPost2010PropOp31
 70
     1
102
RTVSPost2010Prop32
280
     0
102
RTVSPost2010PropOp32
 70
     1
102
RTVSPost2010Prop33
280
     0
102
RTVSPost2010PropOp33
 70
     1
102
RTVSPost2010Prop34
280
     0
102
RTVSPost2010PropOp34
 70
     1
102
RTVSPost2010Prop35
280
     0
102
RTVSPost2010PropOp35
 70
     1
102
RTVSPost2010Prop36
280
     0
102
RTVSPost2010PropOp36
 70
     1
102
RTVSPost2010Prop37
 90
       50
102
RTVSPost2010PropOp37
 70
     1
102
RTVSPost2010Prop38
140
0.0
102
RTVSPost2010PropOp38
 70
     1
102
RTVSPost2010Prop39
140
1.0
102
RTVSPost2010PropOp39
 70
     1
102
RTVSPost2010Prop40
 90
        0
102
RTVSPost2010PropOp40
 70
     1
102
RTVSPost2010Prop41ColorIndex
 90
       18
102
RTVSPost2010Prop41ColorRGB
 90
        0
102
RTVSPost2010PropOp41
 70
     1
102
RTVSPost2010Prop42
 90
       50
102
RTVSPost2010PropOp42
 70
     1
102
RTVSPost2010Prop43
 90
        3
102
RTVSPost2010PropOp43
 70
     1
102
RTVSPost2010Prop44ColorIndex
 90
        5
102
RTVSPost2010Prop44ColorRGB
 90
      255
102
RTVSPost2010PropOp44
 70
     1
102
RTVSPost2010Prop45
280
     0
102
RTVSPost2010PropOp45
 70
     1
102
RTVSPost2010Prop46
 90
       50
102
RTVSPost2010PropOp46
 70
     1
102
RTVSPost2010Prop47
 90
       50
102
RTVSPost2010PropOp47
 70
     1
102
RTVSPost2010Prop48
 90
       50
102
RTVSPost2010PropOp48
 70
     1
102
RTVSPost2010Prop49
280
     0
102
RTVSPost2010PropOp49
 70
     1
102
RTVSPost2010Prop50
 90
       50
102
RTVSPost2010PropOp50
 70
     1
102
RTVSPost2010Prop51ColorIndex
 90
      256
102
RTVSPost2010Prop51ColorRGB
 90
-16777216
102
RTVSPost2010PropOp51
 70
     0
102
RTVSPost2010Prop52
140
1.0
102
RTVSPost2010PropOp52
 70
     0
102
RTVSPost2010Prop53
 90
        2
102
RTVSPost2010PropOp53
 70
     1
102
RTVSPost2010Prop54
  1
strokes_ogs.tif
102
RTVSPost2010PropOp54
 70
     1
102
RTVSPost2010Prop55
280
     0
102
RTVSPost2010PropOp55
 70
     1
102
RTVSPost2010Prop56
140
1.0
102
RTVSPost2010PropOp56
 70
     1
102
RTVSPost2010Prop57
140
1.0
102
RTVSPost2010PropOp57
 70
     1
102
RTVSPropertyOp0
 70
     1
102
RTVSPropertyOp1
 70
     1
102
RTVSPropertyOp2
 70
     1
102
RTVSPropertyOp3
 70
     1
102
RTVSPropertyOp4
 70
     1
102
RTVSPropertyOp5
 70
     1
102
RTVSPropertyOp6
 70
     1
102
RTVSPropertyOp7
 70
     1
102
RTVSPropertyOp8
 70
     1
102
RTVSPropertyOp9
 70
     1
102
RTVSPropertyOp10
 70
     1
102
RTVSPropertyOp11
 70
     1
102
RTVSPropertyOp12
 70
     1
102
RTVSPropertyOp13
 70
     1
102
RTVSPropertyOp14
 70
     1
102
RTVSPropertyOp15
 70
     1
102
RTVSPropertyOp16
 70
     1
102
RTVSPropertyOp17
 70
     1
102
RTVSPropertyOp18
 70
     1
102
RTVSPropertyOp19
 70
     1
102
RTVSPropertyOp20
 70
     1
102
RTVSPropertyOp21
 70
     1
102
RTVSPropertyOp22
 70
     1
102
RTVSPropertyOp23
 70
     1
102
RTVSPropertyOp24
 70
     1
102
RTVSPropertyOp25
 70
     1
102
RTVSPropertyOp26
 70
     1
102
RTVSPropertyOp27
 70
     1
102
RTVSPropertyOp28
 70
     1
102
RTVSPropertyOp29
 70
     1
102
RTVSPropertyOp30
 70
     1
102
RTVSPropertyOp31
 70
     1
102
RTVSPropertyOp32
 70
     1
102
RTVSPropertyOp33
 70
     1
102
RTVSPropertyOp34
 70
     1
102
RTVSPropertyOp35
 70
     1
102
RTVSPropertyOp36
 70
     1
102
RTVSPropertyOp37
 70
     1
102
RTVSPropertyOp38
 70
     1
102
RTVSPropertyOp39
 70
     1
102
RTVSPropertyOp40
 70
     1
102
RTVSPropertyOp41
 70
     1
102
RTVSPropertyOp42
 70
     1
102
RTVSPropertyOp43
 70
     1
102
RTVSPropertyOp44
 70
     1
102
RTVSPropertyOp45
 70
     1
102
RTVSPropertyOp46
 70
     1
102
RTVSPropertyOp47
 70
     1
102
RTVSPropertyOp48
 70
     1
102
RTVSPropertyOp49
 70
     1
102
RTVSPropertyOp50
 70
     1
102
RTVSPropertyOp51
 70
     0
102
RTVSPropertyOp52
 70
     0
102
RTVSPropertyOp53
 70
     1
102
RTVSPropertyOp54
 70
     1
102
RTVSPropertyOp55
 70
     1
102
RTVSPropertyOp56
 70
     1
102
RTVSPropertyOp57
 70
     1
102
RTVSPropertyOp58
 70
     1
102
RTVSPropertyOp59
 70
     1
102
RTVSPropertyOp60
 70
     1
102
RTVSPropertyOp61
 70
     1
102
RTVSPropertyOp62
 70
     1
  0
XRECORD
  5
14C3
102
{ACAD_REACTORS
330
14C2
102
}
330
14C2
100
AcDbXrecord
280
     1
102
RTVSPost2010Prop28
280
     0
102
RTVSPost2010PropOp28
 70
     1
102
RTVSPost2010Prop29
280
     1
102
RTVSPost2010PropOp29
 70
     1
102
RTVSPost2010Prop30
280
     1
102
RTVSPost2010PropOp30
 70
     1
102
RTVSPost2010Prop31
280
     0
102
RTVSPost2010PropOp31
 70
     1
102
RTVSPost2010Prop32
280
     0
102
RTVSPost2010PropOp32
 70
     1
102
RTVSPost2010Prop33
280
     0
102
RTVSPost2010PropOp33
 70
     1
102
RTVSPost2010Prop34
280
     0
102
RTVSPost2010PropOp34
 70
     1
102
RTVSPost2010Prop35
280
     0
102
RTVSPost2010PropOp35
 70
     1
102
RTVSPost2010Prop36
280
     0
102
RTVSPost2010PropOp36
 70
     1
102
RTVSPost2010Prop37
 90
       50
102
RTVSPost2010PropOp37
 70
     1
102
RTVSPost2010Prop38
140
0.0
102
RTVSPost2010PropOp38
 70
     1
102
RTVSPost2010Prop39
140
1.0
102
RTVSPost2010PropOp39
 70
     1
102
RTVSPost2010Prop40
 90
        0
102
RTVSPost2010PropOp40
 70
     1
102
RTVSPost2010Prop41ColorIndex
 90
       18
102
RTVSPost2010Prop41ColorRGB
 90
        0
102
RTVSPost2010PropOp41
 70
     1
102
RTVSPost2010Prop42
 90
       50
102
RTVSPost2010PropOp42
 70
     1
102
RTVSPost2010Prop43
 90
        3
102
RTVSPost2010PropOp43
 70
     1
102
RTVSPost2010Prop44ColorIndex
 90
        5
102
RTVSPost2010Prop44ColorRGB
 90
      255
102
RTVSPost2010PropOp44
 70
     1
102
RTVSPost2010Prop45
280
     0
102
RTVSPost2010PropOp45
 70
     1
102
RTVSPost2010Prop46
 90
       50
102
RTVSPost2010PropOp46
 70
     1
102
RTVSPost2010Prop47
 90
       50
102
RTVSPost2010PropOp47
 70
     1
102
RTVSPost2010Prop48
 90
       50
102
RTVSPost2010PropOp48
 70
     1
102
RTVSPost2010Prop49
280
     0
102
RTVSPost2010PropOp49
 70
     1
102
RTVSPost2010Prop50
 90
       50
102
RTVSPost2010PropOp50
 70
     1
102
RTVSPost2010Prop51ColorIndex
 90
      256
102
RTVSPost2010Prop51ColorRGB
 90
-16777216
102
RTVSPost2010PropOp51
 70
     0
102
RTVSPost2010Prop52
140
1.0
102
RTVSPost2010PropOp52
 70
     0
102
RTVSPost2010Prop53
 90
        2
102
RTVSPost2010PropOp53
 70
     1
102
RTVSPost2010Prop54
  1
strokes_ogs.tif
102
RTVSPost2010PropOp54
 70
     1
102
RTVSPost2010Prop55
280
     0
102
RTVSPost2010PropOp55
 70
     1
102
RTVSPost2010Prop56
140
1.0
102
RTVSPost2010PropOp56
 70
     1
102
RTVSPost2010Prop57
140
1.0
102
RTVSPost2010PropOp57
 70
     1
102
RTVSPropertyOp0
 70
     1
102
RTVSPropertyOp1
 70
     1
102
RTVSPropertyOp2
 70
     1
102
RTVSPropertyOp3
 70
     1
102
RTVSPropertyOp4
 70
     1
102
RTVSPropertyOp5
 70
     1
102
RTVSPropertyOp6
 70
     1
102
RTVSPropertyOp7
 70
     1
102
RTVSPropertyOp8
 70
     1
102
RTVSPropertyOp9
 70
     1
102
RTVSPropertyOp10
 70
     1
102
RTVSPropertyOp11
 70
     1
102
RTVSPropertyOp12
 70
     1
102
RTVSPropertyOp13
 70
     1
102
RTVSPropertyOp14
 70
     1
102
RTVSPropertyOp15
 70
     1
102
RTVSPropertyOp16
 70
     1
102
RTVSPropertyOp17
 70
     1
102
RTVSPropertyOp18
 70
     1
102
RTVSPropertyOp19
 70
     1
102
RTVSPropertyOp20
 70
     1
102
RTVSPropertyOp21
 70
     1
102
RTVSPropertyOp22
 70
     1
102
RTVSPropertyOp23
 70
     1
102
RTVSPropertyOp24
 70
     1
102
RTVSPropertyOp25
 70
     1
102
RTVSPropertyOp26
 70
     1
102
RTVSPropertyOp27
 70
     1
102
RTVSPropertyOp28
 70
     1
102
RTVSPropertyOp29
 70
     1
102
RTVSPropertyOp30
 70
     1
102
RTVSPropertyOp31
 70
     1
102
RTVSPropertyOp32
 70
     1
102
RTVSPropertyOp33
 70
     1
102
RTVSPropertyOp34
 70
     1
102
RTVSPropertyOp35
 70
     1
102
RTVSPropertyOp36
 70
     1
102
RTVSPropertyOp37
 70
     1
102
RTVSPropertyOp38
 70
     1
102
RTVSPropertyOp39
 70
     1
102
RTVSPropertyOp40
 70
     1
102
RTVSPropertyOp41
 70
     1
102
RTVSPropertyOp42
 70
     1
102
RTVSPropertyOp43
 70
     1
102
RTVSPropertyOp44
 70
     1
102
RTVSPropertyOp45
 70
     1
102
RTVSPropertyOp46
 70
     1
102
RTVSPropertyOp47
 70
     1
102
RTVSPropertyOp48
 70
     1
102
RTVSPropertyOp49
 70
     1
102
RTVSPropertyOp50
 70
     1
102
RTVSPropertyOp51
 70
     0
102
RTVSPropertyOp52
 70
     0
102
RTVSPropertyOp53
 70
     1
102
RTVSPropertyOp54
 70
     1
102
RTVSPropertyOp55
 70
     1
102
RTVSPropertyOp56
 70
     1
102
RTVSPropertyOp57
 70
     1
102
RTVSPropertyOp58
 70
     1
102
RTVSPropertyOp59
 70
     1
102
RTVSPropertyOp60
 70
     1
102
RTVSPropertyOp61
 70
     1
102
RTVSPropertyOp62
 70
     1
  0
XRECORD
  5
14C5
102
{ACAD_REACTORS
330
14C4
102
}
330
14C4
100
AcDbXrecord
280
     1
102
RTVSPost2010Prop28
280
     0
102
RTVSPost2010PropOp28
 70
     1
102
RTVSPost2010Prop29
280
     1
102
RTVSPost2010PropOp29
 70
     1
102
RTVSPost2010Prop30
280
     1
102
RTVSPost2010PropOp30
 70
     1
102
RTVSPost2010Prop31
280
     0
102
RTVSPost2010PropOp31
 70
     1
102
RTVSPost2010Prop32
280
     0
102
RTVSPost2010PropOp32
 70
     1
102
RTVSPost2010Prop33
280
     0
102
RTVSPost2010PropOp33
 70
     1
102
RTVSPost2010Prop34
280
     0
102
RTVSPost2010PropOp34
 70
     1
102
RTVSPost2010Prop35
280
     0
102
RTVSPost2010PropOp35
 70
     1
102
RTVSPost2010Prop36
280
     0
102
RTVSPost2010PropOp36
 70
     1
102
RTVSPost2010Prop37
 90
       50
102
RTVSPost2010PropOp37
 70
     1
102
RTVSPost2010Prop38
140
0.0
102
RTVSPost2010PropOp38
 70
     1
102
RTVSPost2010Prop39
140
1.0
102
RTVSPost2010PropOp39
 70
     1
102
RTVSPost2010Prop40
 90
        0
102
RTVSPost2010PropOp40
 70
     1
102
RTVSPost2010Prop41ColorIndex
 90
       18
102
RTVSPost2010Prop41ColorRGB
 90
        0
102
RTVSPost2010PropOp41
 70
     1
102
RTVSPost2010Prop42
 90
       50
102
RTVSPost2010PropOp42
 70
     1
102
RTVSPost2010Prop43
 90
        3
102
RTVSPost2010PropOp43
 70
     1
102
RTVSPost2010Prop44ColorIndex
 90
        5
102
RTVSPost2010Prop44ColorRGB
 90
      255
102
RTVSPost2010PropOp44
 70
     1
102
RTVSPost2010Prop45
280
     0
102
RTVSPost2010PropOp45
 70
     1
102
RTVSPost2010Prop46
 90
       50
102
RTVSPost2010PropOp46
 70
     1
102
RTVSPost2010Prop47
 90
       50
102
RTVSPost2010PropOp47
 70
     1
102
RTVSPost2010Prop48
 90
       50
102
RTVSPost2010PropOp48
 70
     1
102
RTVSPost2010Prop49
280
     0
102
RTVSPost2010PropOp49
 70
     1
102
RTVSPost2010Prop50
 90
       50
102
RTVSPost2010PropOp50
 70
     1
102
RTVSPost2010Prop51ColorIndex
 90
      256
102
RTVSPost2010Prop51ColorRGB
 90
-16777216
102
RTVSPost2010PropOp51
 70
     0
102
RTVSPost2010Prop52
140
1.0
102
RTVSPost2010PropOp52
 70
     0
102
RTVSPost2010Prop53
 90
        2
102
RTVSPost2010PropOp53
 70
     1
102
RTVSPost2010Prop54
  1
strokes_ogs.tif
102
RTVSPost2010PropOp54
 70
     1
102
RTVSPost2010Prop55
280
     0
102
RTVSPost2010PropOp55
 70
     1
102
RTVSPost2010Prop56
140
1.0
102
RTVSPost2010PropOp56
 70
     1
102
RTVSPost2010Prop57
140
1.0
102
RTVSPost2010PropOp57
 70
     1
102
RTVSPropertyOp0
 70
     1
102
RTVSPropertyOp1
 70
     1
102
RTVSPropertyOp2
 70
     1
102
RTVSPropertyOp3
 70
     1
102
RTVSPropertyOp4
 70
     1
102
RTVSPropertyOp5
 70
     1
102
RTVSPropertyOp6
 70
     1
102
RTVSPropertyOp7
 70
     1
102
RTVSPropertyOp8
 70
     1
102
RTVSPropertyOp9
 70
     1
102
RTVSPropertyOp10
 70
     1
102
RTVSPropertyOp11
 70
     1
102
RTVSPropertyOp12
 70
     1
102
RTVSPropertyOp13
 70
     1
102
RTVSPropertyOp14
 70
     1
102
RTVSPropertyOp15
 70
     1
102
RTVSPropertyOp16
 70
     1
102
RTVSPropertyOp17
 70
     1
102
RTVSPropertyOp18
 70
     1
102
RTVSPropertyOp19
 70
     1
102
RTVSPropertyOp20
 70
     1
102
RTVSPropertyOp21
 70
     1
102
RTVSPropertyOp22
 70
     1
102
RTVSPropertyOp23
 70
     1
102
RTVSPropertyOp24
 70
     1
102
RTVSPropertyOp25
 70
     1
102
RTVSPropertyOp26
 70
     1
102
RTVSPropertyOp27
 70
     1
102
RTVSPropertyOp28
 70
     1
102
RTVSPropertyOp29
 70
     1
102
RTVSPropertyOp30
 70
     1
102
RTVSPropertyOp31
 70
     1
102
RTVSPropertyOp32
 70
     1
102
RTVSPropertyOp33
 70
     1
102
RTVSPropertyOp34
 70
     1
102
RTVSPropertyOp35
 70
     1
102
RTVSPropertyOp36
 70
     1
102
RTVSPropertyOp37
 70
     1
102
RTVSPropertyOp38
 70
     1
102
RTVSPropertyOp39
 70
     1
102
RTVSPropertyOp40
 70
     1
102
RTVSPropertyOp41
 70
     1
102
RTVSPropertyOp42
 70
     1
102
RTVSPropertyOp43
 70
     1
102
RTVSPropertyOp44
 70
     1
102
RTVSPropertyOp45
 70
     1
102
RTVSPropertyOp46
 70
     1
102
RTVSPropertyOp47
 70
     1
102
RTVSPropertyOp48
 70
     1
102
RTVSPropertyOp49
 70
     1
102
RTVSPropertyOp50
 70
     1
102
RTVSPropertyOp51
 70
     0
102
RTVSPropertyOp52
 70
     0
102
RTVSPropertyOp53
 70
     1
102
RTVSPropertyOp54
 70
     1
102
RTVSPropertyOp55
 70
     1
102
RTVSPropertyOp56
 70
     1
102
RTVSPropertyOp57
 70
     1
102
RTVSPropertyOp58
 70
     1
102
RTVSPropertyOp59
 70
     1
102
RTVSPropertyOp60
 70
     1
102
RTVSPropertyOp61
 70
     1
102
RTVSPropertyOp62
 70
     1
  0
XRECORD
  5
14C7
102
{ACAD_REACTORS
330
14C6
102
}
330
14C6
100
AcDbXrecord
280
     1
102
RTVSPost2010Prop28
280
     0
102
RTVSPost2010PropOp28
 70
     1
102
RTVSPost2010Prop29
280
     1
102
RTVSPost2010PropOp29
 70
     1
102
RTVSPost2010Prop30
280
     1
102
RTVSPost2010PropOp30
 70
     1
102
RTVSPost2010Prop31
280
     0
102
RTVSPost2010PropOp31
 70
     1
102
RTVSPost2010Prop32
280
     0
102
RTVSPost2010PropOp32
 70
     1
102
RTVSPost2010Prop33
280
     0
102
RTVSPost2010PropOp33
 70
     1
102
RTVSPost2010Prop34
280
     0
102
RTVSPost2010PropOp34
 70
     1
102
RTVSPost2010Prop35
280
     0
102
RTVSPost2010PropOp35
 70
     1
102
RTVSPost2010Prop36
280
     0
102
RTVSPost2010PropOp36
 70
     1
102
RTVSPost2010Prop37
 90
       50
102
RTVSPost2010PropOp37
 70
     1
102
RTVSPost2010Prop38
140
0.0
102
RTVSPost2010PropOp38
 70
     1
102
RTVSPost2010Prop39
140
1.0
102
RTVSPost2010PropOp39
 70
     1
102
RTVSPost2010Prop40
 90
        0
102
RTVSPost2010PropOp40
 70
     1
102
RTVSPost2010Prop41ColorIndex
 90
       18
102
RTVSPost2010Prop41ColorRGB
 90
        0
102
RTVSPost2010PropOp41
 70
     1
102
RTVSPost2010Prop42
 90
       50
102
RTVSPost2010PropOp42
 70
     1
102
RTVSPost2010Prop43
 90
        3
102
RTVSPost2010PropOp43
 70
     1
102
RTVSPost2010Prop44ColorIndex
 90
        5
102
RTVSPost2010Prop44ColorRGB
 90
      255
102
RTVSPost2010PropOp44
 70
     1
102
RTVSPost2010Prop45
280
     0
102
RTVSPost2010PropOp45
 70
     1
102
RTVSPost2010Prop46
 90
       50
102
RTVSPost2010PropOp46
 70
     1
102
RTVSPost2010Prop47
 90
       50
102
RTVSPost2010PropOp47
 70
     1
102
RTVSPost2010Prop48
 90
       50
102
RTVSPost2010PropOp48
 70
     1
102
RTVSPost2010Prop49
280
     0
102
RTVSPost2010PropOp49
 70
     1
102
RTVSPost2010Prop50
 90
       50
102
RTVSPost2010PropOp50
 70
     1
102
RTVSPost2010Prop51ColorIndex
 90
      256
102
RTVSPost2010Prop51ColorRGB
 90
-16777216
102
RTVSPost2010PropOp51
 70
     0
102
RTVSPost2010Prop52
140
1.0
102
RTVSPost2010PropOp52
 70
     0
102
RTVSPost2010Prop53
 90
        2
102
RTVSPost2010PropOp53
 70
     1
102
RTVSPost2010Prop54
  1
strokes_ogs.tif
102
RTVSPost2010PropOp54
 70
     1
102
RTVSPost2010Prop55
280
     0
102
RTVSPost2010PropOp55
 70
     1
102
RTVSPost2010Prop56
140
1.0
102
RTVSPost2010PropOp56
 70
     1
102
RTVSPost2010Prop57
140
1.0
102
RTVSPost2010PropOp57
 70
     1
102
RTVSPropertyOp0
 70
     1
102
RTVSPropertyOp1
 70
     1
102
RTVSPropertyOp2
 70
     1
102
RTVSPropertyOp3
 70
     1
102
RTVSPropertyOp4
 70
     1
102
RTVSPropertyOp5
 70
     1
102
RTVSPropertyOp6
 70
     1
102
RTVSPropertyOp7
 70
     1
102
RTVSPropertyOp8
 70
     1
102
RTVSPropertyOp9
 70
     1
102
RTVSPropertyOp10
 70
     1
102
RTVSPropertyOp11
 70
     1
102
RTVSPropertyOp12
 70
     1
102
RTVSPropertyOp13
 70
     1
102
RTVSPropertyOp14
 70
     1
102
RTVSPropertyOp15
 70
     1
102
RTVSPropertyOp16
 70
     1
102
RTVSPropertyOp17
 70
     1
102
RTVSPropertyOp18
 70
     1
102
RTVSPropertyOp19
 70
     1
102
RTVSPropertyOp20
 70
     1
102
RTVSPropertyOp21
 70
     1
102
RTVSPropertyOp22
 70
     1
102
RTVSPropertyOp23
 70
     1
102
RTVSPropertyOp24
 70
     1
102
RTVSPropertyOp25
 70
     1
102
RTVSPropertyOp26
 70
     1
102
RTVSPropertyOp27
 70
     1
102
RTVSPropertyOp28
 70
     1
102
RTVSPropertyOp29
 70
     1
102
RTVSPropertyOp30
 70
     1
102
RTVSPropertyOp31
 70
     1
102
RTVSPropertyOp32
 70
     1
102
RTVSPropertyOp33
 70
     1
102
RTVSPropertyOp34
 70
     1
102
RTVSPropertyOp35
 70
     1
102
RTVSPropertyOp36
 70
     1
102
RTVSPropertyOp37
 70
     1
102
RTVSPropertyOp38
 70
     1
102
RTVSPropertyOp39
 70
     1
102
RTVSPropertyOp40
 70
     1
102
RTVSPropertyOp41
 70
     1
102
RTVSPropertyOp42
 70
     1
102
RTVSPropertyOp43
 70
     1
102
RTVSPropertyOp44
 70
     1
102
RTVSPropertyOp45
 70
     1
102
RTVSPropertyOp46
 70
     1
102
RTVSPropertyOp47
 70
     1
102
RTVSPropertyOp48
 70
     1
102
RTVSPropertyOp49
 70
     1
102
RTVSPropertyOp50
 70
     1
102
RTVSPropertyOp51
 70
     0
102
RTVSPropertyOp52
 70
     0
102
RTVSPropertyOp53
 70
     1
102
RTVSPropertyOp54
 70
     1
102
RTVSPropertyOp55
 70
     1
102
RTVSPropertyOp56
 70
     1
102
RTVSPropertyOp57
 70
     1
102
RTVSPropertyOp58
 70
     1
102
RTVSPropertyOp59
 70
     1
102
RTVSPropertyOp60
 70
     1
102
RTVSPropertyOp61
 70
     1
102
RTVSPropertyOp62
 70
     1
  0
XRECORD
  5
14C9
102
{ACAD_REACTORS
330
14C8
102
}
330
14C8
100
AcDbXrecord
280
     1
102
RTVSPost2010Prop28
280
     0
102
RTVSPost2010PropOp28
 70
     1
102
RTVSPost2010Prop29
280
     1
102
RTVSPost2010PropOp29
 70
     1
102
RTVSPost2010Prop30
280
     1
102
RTVSPost2010PropOp30
 70
     1
102
RTVSPost2010Prop31
280
     0
102
RTVSPost2010PropOp31
 70
     1
102
RTVSPost2010Prop32
280
     0
102
RTVSPost2010PropOp32
 70
     1
102
RTVSPost2010Prop33
280
     0
102
RTVSPost2010PropOp33
 70
     1
102
RTVSPost2010Prop34
280
     0
102
RTVSPost2010PropOp34
 70
     1
102
RTVSPost2010Prop35
280
     0
102
RTVSPost2010PropOp35
 70
     1
102
RTVSPost2010Prop36
280
     0
102
RTVSPost2010PropOp36
 70
     1
102
RTVSPost2010Prop37
 90
       50
102
RTVSPost2010PropOp37
 70
     1
102
RTVSPost2010Prop38
140
0.0
102
RTVSPost2010PropOp38
 70
     1
102
RTVSPost2010Prop39
140
1.0
102
RTVSPost2010PropOp39
 70
     1
102
RTVSPost2010Prop40
 90
        0
102
RTVSPost2010PropOp40
 70
     1
102
RTVSPost2010Prop41ColorIndex
 90
       18
102
RTVSPost2010Prop41ColorRGB
 90
        0
102
RTVSPost2010PropOp41
 70
     1
102
RTVSPost2010Prop42
 90
       50
102
RTVSPost2010PropOp42
 70
     1
102
RTVSPost2010Prop43
 90
        3
102
RTVSPost2010PropOp43
 70
     1
102
RTVSPost2010Prop44ColorIndex
 90
        5
102
RTVSPost2010Prop44ColorRGB
 90
      255
102
RTVSPost2010PropOp44
 70
     1
102
RTVSPost2010Prop45
280
     0
102
RTVSPost2010PropOp45
 70
     1
102
RTVSPost2010Prop46
 90
       50
102
RTVSPost2010PropOp46
 70
     1
102
RTVSPost2010Prop47
 90
       50
102
RTVSPost2010PropOp47
 70
     1
102
RTVSPost2010Prop48
 90
       50
102
RTVSPost2010PropOp48
 70
     1
102
RTVSPost2010Prop49
280
     0
102
RTVSPost2010PropOp49
 70
     1
102
RTVSPost2010Prop50
 90
       50
102
RTVSPost2010PropOp50
 70
     1
102
RTVSPost2010Prop51ColorIndex
 90
      256
102
RTVSPost2010Prop51ColorRGB
 90
-16777216
102
RTVSPost2010PropOp51
 70
     0
102
RTVSPost2010Prop52
140
1.0
102
RTVSPost2010PropOp52
 70
     0
102
RTVSPost2010Prop53
 90
        2
102
RTVSPost2010PropOp53
 70
     1
102
RTVSPost2010Prop54
  1
strokes_ogs.tif
102
RTVSPost2010PropOp54
 70
     1
102
RTVSPost2010Prop55
280
     0
102
RTVSPost2010PropOp55
 70
     1
102
RTVSPost2010Prop56
140
1.0
102
RTVSPost2010PropOp56
 70
     1
102
RTVSPost2010Prop57
140
1.0
102
RTVSPost2010PropOp57
 70
     1
102
RTVSPropertyOp0
 70
     1
102
RTVSPropertyOp1
 70
     1
102
RTVSPropertyOp2
 70
     1
102
RTVSPropertyOp3
 70
     1
102
RTVSPropertyOp4
 70
     1
102
RTVSPropertyOp5
 70
     1
102
RTVSPropertyOp6
 70
     1
102
RTVSPropertyOp7
 70
     1
102
RTVSPropertyOp8
 70
     1
102
RTVSPropertyOp9
 70
     1
102
RTVSPropertyOp10
 70
     1
102
RTVSPropertyOp11
 70
     1
102
RTVSPropertyOp12
 70
     1
102
RTVSPropertyOp13
 70
     1
102
RTVSPropertyOp14
 70
     1
102
RTVSPropertyOp15
 70
     1
102
RTVSPropertyOp16
 70
     1
102
RTVSPropertyOp17
 70
     1
102
RTVSPropertyOp18
 70
     1
102
RTVSPropertyOp19
 70
     1
102
RTVSPropertyOp20
 70
     1
102
RTVSPropertyOp21
 70
     1
102
RTVSPropertyOp22
 70
     1
102
RTVSPropertyOp23
 70
     1
102
RTVSPropertyOp24
 70
     1
102
RTVSPropertyOp25
 70
     1
102
RTVSPropertyOp26
 70
     1
102
RTVSPropertyOp27
 70
     1
102
RTVSPropertyOp28
 70
     1
102
RTVSPropertyOp29
 70
     1
102
RTVSPropertyOp30
 70
     1
102
RTVSPropertyOp31
 70
     1
102
RTVSPropertyOp32
 70
     1
102
RTVSPropertyOp33
 70
     1
102
RTVSPropertyOp34
 70
     1
102
RTVSPropertyOp35
 70
     1
102
RTVSPropertyOp36
 70
     1
102
RTVSPropertyOp37
 70
     1
102
RTVSPropertyOp38
 70
     1
102
RTVSPropertyOp39
 70
     1
102
RTVSPropertyOp40
 70
     1
102
RTVSPropertyOp41
 70
     1
102
RTVSPropertyOp42
 70
     1
102
RTVSPropertyOp43
 70
     1
102
RTVSPropertyOp44
 70
     1
102
RTVSPropertyOp45
 70
     1
102
RTVSPropertyOp46
 70
     1
102
RTVSPropertyOp47
 70
     1
102
RTVSPropertyOp48
 70
     1
102
RTVSPropertyOp49
 70
     1
102
RTVSPropertyOp50
 70
     1
102
RTVSPropertyOp51
 70
     0
102
RTVSPropertyOp52
 70
     0
102
RTVSPropertyOp53
 70
     1
102
RTVSPropertyOp54
 70
     1
102
RTVSPropertyOp55
 70
     1
102
RTVSPropertyOp56
 70
     1
102
RTVSPropertyOp57
 70
     1
102
RTVSPropertyOp58
 70
     1
102
RTVSPropertyOp59
 70
     1
102
RTVSPropertyOp60
 70
     1
102
RTVSPropertyOp61
 70
     1
102
RTVSPropertyOp62
 70
     1
  0
XRECORD
  5
14D1
102
{ACAD_REACTORS
330
14D0
102
}
330
14D0
100
AcDbXrecord
280
     1
102
RTVSPost2010Prop28
280
     0
102
RTVSPost2010PropOp28
 70
     1
102
RTVSPost2010Prop29
280
     1
102
RTVSPost2010PropOp29
 70
     1
102
RTVSPost2010Prop30
280
     1
102
RTVSPost2010PropOp30
 70
     1
102
RTVSPost2010Prop31
280
     0
102
RTVSPost2010PropOp31
 70
     1
102
RTVSPost2010Prop32
280
     0
102
RTVSPost2010PropOp32
 70
     1
102
RTVSPost2010Prop33
280
     0
102
RTVSPost2010PropOp33
 70
     1
102
RTVSPost2010Prop34
280
     0
102
RTVSPost2010PropOp34
 70
     1
102
RTVSPost2010Prop35
280
     0
102
RTVSPost2010PropOp35
 70
     1
102
RTVSPost2010Prop36
280
     0
102
RTVSPost2010PropOp36
 70
     1
102
RTVSPost2010Prop37
 90
       50
102
RTVSPost2010PropOp37
 70
     1
102
RTVSPost2010Prop38
140
0.0
102
RTVSPost2010PropOp38
 70
     1
102
RTVSPost2010Prop39
140
1.0
102
RTVSPost2010PropOp39
 70
     1
102
RTVSPost2010Prop40
 90
        0
102
RTVSPost2010PropOp40
 70
     1
102
RTVSPost2010Prop41ColorIndex
 90
       18
102
RTVSPost2010Prop41ColorRGB
 90
        0
102
RTVSPost2010PropOp41
 70
     1
102
RTVSPost2010Prop42
 90
       50
102
RTVSPost2010PropOp42
 70
     1
102
RTVSPost2010Prop43
 90
        3
102
RTVSPost2010PropOp43
 70
     1
102
RTVSPost2010Prop44ColorIndex
 90
        5
102
RTVSPost2010Prop44ColorRGB
 90
      255
102
RTVSPost2010PropOp44
 70
     1
102
RTVSPost2010Prop45
280
     0
102
RTVSPost2010PropOp45
 70
     1
102
RTVSPost2010Prop46
 90
       50
102
RTVSPost2010PropOp46
 70
     1
102
RTVSPost2010Prop47
 90
       50
102
RTVSPost2010PropOp47
 70
     1
102
RTVSPost2010Prop48
 90
       50
102
RTVSPost2010PropOp48
 70
     1
102
RTVSPost2010Prop49
280
     0
102
RTVSPost2010PropOp49
 70
     1
102
RTVSPost2010Prop50
 90
       50
102
RTVSPost2010PropOp50
 70
     1
102
RTVSPost2010Prop51ColorIndex
 90
      256
102
RTVSPost2010Prop51ColorRGB
 90
-16777216
102
RTVSPost2010PropOp51
 70
     0
102
RTVSPost2010Prop52
140
1.0
102
RTVSPost2010PropOp52
 70
     0
102
RTVSPost2010Prop53
 90
        2
102
RTVSPost2010PropOp53
 70
     1
102
RTVSPost2010Prop54
  1
strokes_ogs.tif
102
RTVSPost2010PropOp54
 70
     1
102
RTVSPost2010Prop55
280
     0
102
RTVSPost2010PropOp55
 70
     1
102
RTVSPost2010Prop56
140
1.0
102
RTVSPost2010PropOp56
 70
     1
102
RTVSPost2010Prop57
140
1.0
102
RTVSPost2010PropOp57
 70
     1
102
RTVSPropertyOp0
 70
     1
102
RTVSPropertyOp1
 70
     1
102
RTVSPropertyOp2
 70
     1
102
RTVSPropertyOp3
 70
     1
102
RTVSPropertyOp4
 70
     1
102
RTVSPropertyOp5
 70
     1
102
RTVSPropertyOp6
 70
     1
102
RTVSPropertyOp7
 70
     1
102
RTVSPropertyOp8
 70
     1
102
RTVSPropertyOp9
 70
     1
102
RTVSPropertyOp10
 70
     1
102
RTVSPropertyOp11
 70
     1
102
RTVSPropertyOp12
 70
     1
102
RTVSPropertyOp13
 70
     1
102
RTVSPropertyOp14
 70
     1
102
RTVSPropertyOp15
 70
     1
102
RTVSPropertyOp16
 70
     1
102
RTVSPropertyOp17
 70
     1
102
RTVSPropertyOp18
 70
     1
102
RTVSPropertyOp19
 70
     1
102
RTVSPropertyOp20
 70
     1
102
RTVSPropertyOp21
 70
     1
102
RTVSPropertyOp22
 70
     1
102
RTVSPropertyOp23
 70
     1
102
RTVSPropertyOp24
 70
     1
102
RTVSPropertyOp25
 70
     1
102
RTVSPropertyOp26
 70
     1
102
RTVSPropertyOp27
 70
     1
102
RTVSPropertyOp28
 70
     1
102
RTVSPropertyOp29
 70
     1
102
RTVSPropertyOp30
 70
     1
102
RTVSPropertyOp31
 70
     1
102
RTVSPropertyOp32
 70
     1
102
RTVSPropertyOp33
 70
     1
102
RTVSPropertyOp34
 70
     1
102
RTVSPropertyOp35
 70
     1
102
RTVSPropertyOp36
 70
     1
102
RTVSPropertyOp37
 70
     1
102
RTVSPropertyOp38
 70
     1
102
RTVSPropertyOp39
 70
     1
102
RTVSPropertyOp40
 70
     1
102
RTVSPropertyOp41
 70
     1
102
RTVSPropertyOp42
 70
     1
102
RTVSPropertyOp43
 70
     1
102
RTVSPropertyOp44
 70
     1
102
RTVSPropertyOp45
 70
     1
102
RTVSPropertyOp46
 70
     1
102
RTVSPropertyOp47
 70
     1
102
RTVSPropertyOp48
 70
     1
102
RTVSPropertyOp49
 70
     1
102
RTVSPropertyOp50
 70
     1
102
RTVSPropertyOp51
 70
     0
102
RTVSPropertyOp52
 70
     0
102
RTVSPropertyOp53
 70
     1
102
RTVSPropertyOp54
 70
     1
102
RTVSPropertyOp55
 70
     1
102
RTVSPropertyOp56
 70
     1
102
RTVSPropertyOp57
 70
     1
102
RTVSPropertyOp58
 70
     1
102
RTVSPropertyOp59
 70
     1
102
RTVSPropertyOp60
 70
     1
102
RTVSPropertyOp61
 70
     1
102
RTVSPropertyOp62
 70
     1
  0
XRECORD
  5
14ED
102
{ACAD_REACTORS
330
14EC
102
}
330
14EC
100
AcDbXrecord
280
     1
102
RTVSPost2010Prop28
280
     0
102
RTVSPost2010PropOp28
 70
     0
102
RTVSPost2010Prop29
280
     1
102
RTVSPost2010PropOp29
 70
     0
102
RTVSPost2010Prop30
280
     1
102
RTVSPost2010PropOp30
 70
     0
102
RTVSPost2010Prop31
280
     0
102
RTVSPost2010PropOp31
 70
     0
102
RTVSPost2010Prop32
280
     0
102
RTVSPost2010PropOp32
 70
     0
102
RTVSPost2010Prop33
280
     0
102
RTVSPost2010PropOp33
 70
     0
102
RTVSPost2010Prop34
280
     0
102
RTVSPost2010PropOp34
 70
     0
102
RTVSPost2010Prop35
280
     0
102
RTVSPost2010PropOp35
 70
     0
102
RTVSPost2010Prop36
280
     0
102
RTVSPost2010PropOp36
 70
     0
102
RTVSPost2010Prop37
 90
       50
102
RTVSPost2010PropOp37
 70
     0
102
RTVSPost2010Prop38
140
0.0
102
RTVSPost2010PropOp38
 70
     0
102
RTVSPost2010Prop39
140
1.0
102
RTVSPost2010PropOp39
 70
     0
102
RTVSPost2010Prop40
 90
        0
102
RTVSPost2010PropOp40
 70
     0
102
RTVSPost2010Prop41ColorIndex
 90
       18
102
RTVSPost2010Prop41ColorRGB
 90
        0
102
RTVSPost2010PropOp41
 70
     0
102
RTVSPost2010Prop42
 90
       50
102
RTVSPost2010PropOp42
 70
     0
102
RTVSPost2010Prop43
 90
        3
102
RTVSPost2010PropOp43
 70
     0
102
RTVSPost2010Prop44ColorIndex
 90
        5
102
RTVSPost2010Prop44ColorRGB
 90
      255
102
RTVSPost2010PropOp44
 70
     0
102
RTVSPost2010Prop45
280
     0
102
RTVSPost2010PropOp45
 70
     0
102
RTVSPost2010Prop46
 90
       50
102
RTVSPost2010PropOp46
 70
     0
102
RTVSPost2010Prop47
 90
       50
102
RTVSPost2010PropOp47
 70
     0
102
RTVSPost2010Prop48
 90
       50
102
RTVSPost2010PropOp48
 70
     0
102
RTVSPost2010Prop49
280
     0
102
RTVSPost2010PropOp49
 70
     0
102
RTVSPost2010Prop50
 90
       50
102
RTVSPost2010PropOp50
 70
     0
102
RTVSPost2010Prop51ColorIndex
 90
      256
102
RTVSPost2010Prop51ColorRGB
 90
-16777216
102
RTVSPost2010PropOp51
 70
     0
102
RTVSPost2010Prop52
140
1.0
102
RTVSPost2010PropOp52
 70
     0
102
RTVSPost2010Prop53
 90
        2
102
RTVSPost2010PropOp53
 70
     0
102
RTVSPost2010Prop54
  1
strokes_ogs.tif
102
RTVSPost2010PropOp54
 70
     0
102
RTVSPost2010Prop55
280
     0
102
RTVSPost2010PropOp55
 70
     0
102
RTVSPost2010Prop56
140
1.0
102
RTVSPost2010PropOp56
 70
     0
102
RTVSPost2010Prop57
140
1.0
102
RTVSPost2010PropOp57
 70
     0
102
RTVSPropertyOp0
 70
     0
102
RTVSPropertyOp1
 70
     0
102
RTVSPropertyOp2
 70
     0
102
RTVSPropertyOp3
 70
     0
102
RTVSPropertyOp4
 70
     0
102
RTVSPropertyOp5
 70
     0
102
RTVSPropertyOp6
 70
     0
102
RTVSPropertyOp7
 70
     0
102
RTVSPropertyOp8
 70
     0
102
RTVSPropertyOp9
 70
     0
102
RTVSPropertyOp10
 70
     0
102
RTVSPropertyOp11
 70
     0
102
RTVSPropertyOp12
 70
     0
102
RTVSPropertyOp13
 70
     0
102
RTVSPropertyOp14
 70
     2
102
RTVSPropertyOp15
 70
     0
102
RTVSPropertyOp16
 70
     0
102
RTVSPropertyOp17
 70
     0
102
RTVSPropertyOp18
 70
     0
102
RTVSPropertyOp19
 70
     0
102
RTVSPropertyOp20
 70
     0
102
RTVSPropertyOp21
 70
     0
102
RTVSPropertyOp22
 70
     0
102
RTVSPropertyOp23
 70
     0
102
RTVSPropertyOp24
 70
     0
102
RTVSPropertyOp25
 70
     0
102
RTVSPropertyOp26
 70
     0
102
RTVSPropertyOp27
 70
     0
102
RTVSPropertyOp28
 70
     0
102
RTVSPropertyOp29
 70
     0
102
RTVSPropertyOp30
 70
     0
102
RTVSPropertyOp31
 70
     0
102
RTVSPropertyOp32
 70
     0
102
RTVSPropertyOp33
 70
     0
102
RTVSPropertyOp34
 70
     0
102
RTVSPropertyOp35
 70
     0
102
RTVSPropertyOp36
 70
     0
102
RTVSPropertyOp37
 70
     0
102
RTVSPropertyOp38
 70
     0
102
RTVSPropertyOp39
 70
     0
102
RTVSPropertyOp40
 70
     0
102
RTVSPropertyOp41
 70
     0
102
RTVSPropertyOp42
 70
     0
102
RTVSPropertyOp43
 70
     0
102
RTVSPropertyOp44
 70
     0
102
RTVSPropertyOp45
 70
     0
102
RTVSPropertyOp46
 70
     0
102
RTVSPropertyOp47
 70
     0
102
RTVSPropertyOp48
 70
     0
102
RTVSPropertyOp49
 70
     0
102
RTVSPropertyOp50
 70
     0
102
RTVSPropertyOp51
 70
     0
102
RTVSPropertyOp52
 70
     0
102
RTVSPropertyOp53
 70
     0
102
RTVSPropertyOp54
 70
     0
102
RTVSPropertyOp55
 70
     0
102
RTVSPropertyOp56
 70
     0
102
RTVSPropertyOp57
 70
     0
102
RTVSPropertyOp58
 70
     0
102
RTVSPropertyOp59
 70
     0
102
RTVSPropertyOp60
 70
     0
102
RTVSPropertyOp61
 70
     0
102
RTVSPropertyOp62
 70
     0
  0
XRECORD
  5
14DD
102
{ACAD_REACTORS
330
14DC
102
}
330
14DC
100
AcDbXrecord
280
     1
102
RTVSPost2010Prop28
280
     0
102
RTVSPost2010PropOp28
 70
     1
102
RTVSPost2010Prop29
280
     1
102
RTVSPost2010PropOp29
 70
     1
102
RTVSPost2010Prop30
280
     1
102
RTVSPost2010PropOp30
 70
     1
102
RTVSPost2010Prop31
280
     0
102
RTVSPost2010PropOp31
 70
     1
102
RTVSPost2010Prop32
280
     0
102
RTVSPost2010PropOp32
 70
     1
102
RTVSPost2010Prop33
280
     0
102
RTVSPost2010PropOp33
 70
     1
102
RTVSPost2010Prop34
280
     0
102
RTVSPost2010PropOp34
 70
     1
102
RTVSPost2010Prop35
280
     0
102
RTVSPost2010PropOp35
 70
     1
102
RTVSPost2010Prop36
280
     0
102
RTVSPost2010PropOp36
 70
     1
102
RTVSPost2010Prop37
 90
       50
102
RTVSPost2010PropOp37
 70
     1
102
RTVSPost2010Prop38
140
0.0
102
RTVSPost2010PropOp38
 70
     1
102
RTVSPost2010Prop39
140
1.0
102
RTVSPost2010PropOp39
 70
     1
102
RTVSPost2010Prop40
 90
        0
102
RTVSPost2010PropOp40
 70
     1
102
RTVSPost2010Prop41ColorIndex
 90
       18
102
RTVSPost2010Prop41ColorRGB
 90
        0
102
RTVSPost2010PropOp41
 70
     1
102
RTVSPost2010Prop42
 90
       50
102
RTVSPost2010PropOp42
 70
     1
102
RTVSPost2010Prop43
 90
        3
102
RTVSPost2010PropOp43
 70
     1
102
RTVSPost2010Prop44ColorIndex
 90
        5
102
RTVSPost2010Prop44ColorRGB
 90
      255
102
RTVSPost2010PropOp44
 70
     1
102
RTVSPost2010Prop45
280
     0
102
RTVSPost2010PropOp45
 70
     1
102
RTVSPost2010Prop46
 90
       50
102
RTVSPost2010PropOp46
 70
     1
102
RTVSPost2010Prop47
 90
       50
102
RTVSPost2010PropOp47
 70
     1
102
RTVSPost2010Prop48
 90
       50
102
RTVSPost2010PropOp48
 70
     1
102
RTVSPost2010Prop49
280
     0
102
RTVSPost2010PropOp49
 70
     1
102
RTVSPost2010Prop50
 90
       50
102
RTVSPost2010PropOp50
 70
     1
102
RTVSPost2010Prop51ColorIndex
 90
      256
102
RTVSPost2010Prop51ColorRGB
 90
-16777216
102
RTVSPost2010PropOp51
 70
     0
102
RTVSPost2010Prop52
140
1.0
102
RTVSPost2010PropOp52
 70
     0
102
RTVSPost2010Prop53
 90
        2
102
RTVSPost2010PropOp53
 70
     1
102
RTVSPost2010Prop54
  1
strokes_ogs.tif
102
RTVSPost2010PropOp54
 70
     1
102
RTVSPost2010Prop55
280
     0
102
RTVSPost2010PropOp55
 70
     1
102
RTVSPost2010Prop56
140
1.0
102
RTVSPost2010PropOp56
 70
     1
102
RTVSPost2010Prop57
140
1.0
102
RTVSPost2010PropOp57
 70
     1
102
RTVSPropertyOp0
 70
     1
102
RTVSPropertyOp1
 70
     1
102
RTVSPropertyOp2
 70
     1
102
RTVSPropertyOp3
 70
     1
102
RTVSPropertyOp4
 70
     1
102
RTVSPropertyOp5
 70
     1
102
RTVSPropertyOp6
 70
     1
102
RTVSPropertyOp7
 70
     1
102
RTVSPropertyOp8
 70
     1
102
RTVSPropertyOp9
 70
     1
102
RTVSPropertyOp10
 70
     1
102
RTVSPropertyOp11
 70
     1
102
RTVSPropertyOp12
 70
     1
102
RTVSPropertyOp13
 70
     1
102
RTVSPropertyOp14
 70
     1
102
RTVSPropertyOp15
 70
     1
102
RTVSPropertyOp16
 70
     1
102
RTVSPropertyOp17
 70
     1
102
RTVSPropertyOp18
 70
     1
102
RTVSPropertyOp19
 70
     1
102
RTVSPropertyOp20
 70
     1
102
RTVSPropertyOp21
 70
     1
102
RTVSPropertyOp22
 70
     1
102
RTVSPropertyOp23
 70
     1
102
RTVSPropertyOp24
 70
     1
102
RTVSPropertyOp25
 70
     1
102
RTVSPropertyOp26
 70
     1
102
RTVSPropertyOp27
 70
     1
102
RTVSPropertyOp28
 70
     1
102
RTVSPropertyOp29
 70
     1
102
RTVSPropertyOp30
 70
     1
102
RTVSPropertyOp31
 70
     1
102
RTVSPropertyOp32
 70
     1
102
RTVSPropertyOp33
 70
     1
102
RTVSPropertyOp34
 70
     1
102
RTVSPropertyOp35
 70
     1
102
RTVSPropertyOp36
 70
     1
102
RTVSPropertyOp37
 70
     1
102
RTVSPropertyOp38
 70
     1
102
RTVSPropertyOp39
 70
     1
102
RTVSPropertyOp40
 70
     1
102
RTVSPropertyOp41
 70
     1
102
RTVSPropertyOp42
 70
     1
102
RTVSPropertyOp43
 70
     1
102
RTVSPropertyOp44
 70
     1
102
RTVSPropertyOp45
 70
     1
102
RTVSPropertyOp46
 70
     1
102
RTVSPropertyOp47
 70
     1
102
RTVSPropertyOp48
 70
     1
102
RTVSPropertyOp49
 70
     1
102
RTVSPropertyOp50
 70
     1
102
RTVSPropertyOp51
 70
     0
102
RTVSPropertyOp52
 70
     0
102
RTVSPropertyOp53
 70
     1
102
RTVSPropertyOp54
 70
     1
102
RTVSPropertyOp55
 70
     1
102
RTVSPropertyOp56
 70
     1
102
RTVSPropertyOp57
 70
     1
102
RTVSPropertyOp58
 70
     1
102
RTVSPropertyOp59
 70
     1
102
RTVSPropertyOp60
 70
     1
102
RTVSPropertyOp61
 70
     1
102
RTVSPropertyOp62
 70
     1
  0
XRECORD
  5
14EF
102
{ACAD_REACTORS
330
14EE
102
}
330
14EE
100
AcDbXrecord
280
     1
102
RTVSPost2010Prop28
280
     0
102
RTVSPost2010PropOp28
 70
     0
102
RTVSPost2010Prop29
280
     1
102
RTVSPost2010PropOp29
 70
     0
102
RTVSPost2010Prop30
280
     1
102
RTVSPost2010PropOp30
 70
     0
102
RTVSPost2010Prop31
280
     0
102
RTVSPost2010PropOp31
 70
     0
102
RTVSPost2010Prop32
280
     0
102
RTVSPost2010PropOp32
 70
     0
102
RTVSPost2010Prop33
280
     0
102
RTVSPost2010PropOp33
 70
     0
102
RTVSPost2010Prop34
280
     0
102
RTVSPost2010PropOp34
 70
     0
102
RTVSPost2010Prop35
280
     0
102
RTVSPost2010PropOp35
 70
     0
102
RTVSPost2010Prop36
280
     0
102
RTVSPost2010PropOp36
 70
     0
102
RTVSPost2010Prop37
 90
       50
102
RTVSPost2010PropOp37
 70
     0
102
RTVSPost2010Prop38
140
0.0
102
RTVSPost2010PropOp38
 70
     0
102
RTVSPost2010Prop39
140
1.0
102
RTVSPost2010PropOp39
 70
     0
102
RTVSPost2010Prop40
 90
        0
102
RTVSPost2010PropOp40
 70
     0
102
RTVSPost2010Prop41ColorIndex
 90
       18
102
RTVSPost2010Prop41ColorRGB
 90
        0
102
RTVSPost2010PropOp41
 70
     0
102
RTVSPost2010Prop42
 90
       50
102
RTVSPost2010PropOp42
 70
     0
102
RTVSPost2010Prop43
 90
        3
102
RTVSPost2010PropOp43
 70
     0
102
RTVSPost2010Prop44ColorIndex
 90
        5
102
RTVSPost2010Prop44ColorRGB
 90
      255
102
RTVSPost2010PropOp44
 70
     0
102
RTVSPost2010Prop45
280
     0
102
RTVSPost2010PropOp45
 70
     0
102
RTVSPost2010Prop46
 90
       50
102
RTVSPost2010PropOp46
 70
     0
102
RTVSPost2010Prop47
 90
       50
102
RTVSPost2010PropOp47
 70
     0
102
RTVSPost2010Prop48
 90
       50
102
RTVSPost2010PropOp48
 70
     0
102
RTVSPost2010Prop49
280
     0
102
RTVSPost2010PropOp49
 70
     0
102
RTVSPost2010Prop50
 90
       50
102
RTVSPost2010PropOp50
 70
     0
102
RTVSPost2010Prop51ColorIndex
 90
      256
102
RTVSPost2010Prop51ColorRGB
 90
-16777216
102
RTVSPost2010PropOp51
 70
     0
102
RTVSPost2010Prop52
140
1.0
102
RTVSPost2010PropOp52
 70
     0
102
RTVSPost2010Prop53
 90
        2
102
RTVSPost2010PropOp53
 70
     0
102
RTVSPost2010Prop54
  1
strokes_ogs.tif
102
RTVSPost2010PropOp54
 70
     0
102
RTVSPost2010Prop55
280
     0
102
RTVSPost2010PropOp55
 70
     0
102
RTVSPost2010Prop56
140
1.0
102
RTVSPost2010PropOp56
 70
     0
102
RTVSPost2010Prop57
140
1.0
102
RTVSPost2010PropOp57
 70
     0
102
RTVSPropertyOp0
 70
     0
102
RTVSPropertyOp1
 70
     0
102
RTVSPropertyOp2
 70
     0
102
RTVSPropertyOp3
 70
     0
102
RTVSPropertyOp4
 70
     0
102
RTVSPropertyOp5
 70
     0
102
RTVSPropertyOp6
 70
     0
102
RTVSPropertyOp7
 70
     0
102
RTVSPropertyOp8
 70
     0
102
RTVSPropertyOp9
 70
     0
102
RTVSPropertyOp10
 70
     0
102
RTVSPropertyOp11
 70
     0
102
RTVSPropertyOp12
 70
     0
102
RTVSPropertyOp13
 70
     0
102
RTVSPropertyOp14
 70
     2
102
RTVSPropertyOp15
 70
     0
102
RTVSPropertyOp16
 70
     0
102
RTVSPropertyOp17
 70
     0
102
RTVSPropertyOp18
 70
     0
102
RTVSPropertyOp19
 70
     0
102
RTVSPropertyOp20
 70
     0
102
RTVSPropertyOp21
 70
     0
102
RTVSPropertyOp22
 70
     0
102
RTVSPropertyOp23
 70
     0
102
RTVSPropertyOp24
 70
     0
102
RTVSPropertyOp25
 70
     0
102
RTVSPropertyOp26
 70
     0
102
RTVSPropertyOp27
 70
     0
102
RTVSPropertyOp28
 70
     0
102
RTVSPropertyOp29
 70
     0
102
RTVSPropertyOp30
 70
     0
102
RTVSPropertyOp31
 70
     0
102
RTVSPropertyOp32
 70
     0
102
RTVSPropertyOp33
 70
     0
102
RTVSPropertyOp34
 70
     0
102
RTVSPropertyOp35
 70
     0
102
RTVSPropertyOp36
 70
     0
102
RTVSPropertyOp37
 70
     0
102
RTVSPropertyOp38
 70
     0
102
RTVSPropertyOp39
 70
     0
102
RTVSPropertyOp40
 70
     0
102
RTVSPropertyOp41
 70
     0
102
RTVSPropertyOp42
 70
     0
102
RTVSPropertyOp43
 70
     0
102
RTVSPropertyOp44
 70
     0
102
RTVSPropertyOp45
 70
     0
102
RTVSPropertyOp46
 70
     0
102
RTVSPropertyOp47
 70
     0
102
RTVSPropertyOp48
 70
     0
102
RTVSPropertyOp49
 70
     0
102
RTVSPropertyOp50
 70
     0
102
RTVSPropertyOp51
 70
     0
102
RTVSPropertyOp52
 70
     0
102
RTVSPropertyOp53
 70
     0
102
RTVSPropertyOp54
 70
     0
102
RTVSPropertyOp55
 70
     0
102
RTVSPropertyOp56
 70
     0
102
RTVSPropertyOp57
 70
     0
102
RTVSPropertyOp58
 70
     0
102
RTVSPropertyOp59
 70
     0
102
RTVSPropertyOp60
 70
     0
102
RTVSPropertyOp61
 70
     0
102
RTVSPropertyOp62
 70
     0
  0
XRECORD
  5
14D5
102
{ACAD_REACTORS
330
14D4
102
}
330
14D4
100
AcDbXrecord
280
     1
102
RTVSPost2010Prop28
280
     0
102
RTVSPost2010PropOp28
 70
     1
102
RTVSPost2010Prop29
280
     1
102
RTVSPost2010PropOp29
 70
     1
102
RTVSPost2010Prop30
280
     1
102
RTVSPost2010PropOp30
 70
     1
102
RTVSPost2010Prop31
280
     0
102
RTVSPost2010PropOp31
 70
     1
102
RTVSPost2010Prop32
280
     0
102
RTVSPost2010PropOp32
 70
     1
102
RTVSPost2010Prop33
280
     0
102
RTVSPost2010PropOp33
 70
     1
102
RTVSPost2010Prop34
280
     0
102
RTVSPost2010PropOp34
 70
     1
102
RTVSPost2010Prop35
280
     0
102
RTVSPost2010PropOp35
 70
     1
102
RTVSPost2010Prop36
280
     0
102
RTVSPost2010PropOp36
 70
     1
102
RTVSPost2010Prop37
 90
       50
102
RTVSPost2010PropOp37
 70
     1
102
RTVSPost2010Prop38
140
0.0
102
RTVSPost2010PropOp38
 70
     1
102
RTVSPost2010Prop39
140
1.0
102
RTVSPost2010PropOp39
 70
     1
102
RTVSPost2010Prop40
 90
        0
102
RTVSPost2010PropOp40
 70
     1
102
RTVSPost2010Prop41ColorIndex
 90
       18
102
RTVSPost2010Prop41ColorRGB
 90
        0
102
RTVSPost2010PropOp41
 70
     1
102
RTVSPost2010Prop42
 90
       50
102
RTVSPost2010PropOp42
 70
     1
102
RTVSPost2010Prop43
 90
        3
102
RTVSPost2010PropOp43
 70
     1
102
RTVSPost2010Prop44ColorIndex
 90
        5
102
RTVSPost2010Prop44ColorRGB
 90
      255
102
RTVSPost2010PropOp44
 70
     1
102
RTVSPost2010Prop45
280
     0
102
RTVSPost2010PropOp45
 70
     1
102
RTVSPost2010Prop46
 90
       50
102
RTVSPost2010PropOp46
 70
     1
102
RTVSPost2010Prop47
 90
       50
102
RTVSPost2010PropOp47
 70
     1
102
RTVSPost2010Prop48
 90
       50
102
RTVSPost2010PropOp48
 70
     1
102
RTVSPost2010Prop49
280
     0
102
RTVSPost2010PropOp49
 70
     1
102
RTVSPost2010Prop50
 90
       50
102
RTVSPost2010PropOp50
 70
     1
102
RTVSPost2010Prop51ColorIndex
 90
      256
102
RTVSPost2010Prop51ColorRGB
 90
-16777216
102
RTVSPost2010PropOp51
 70
     0
102
RTVSPost2010Prop52
140
1.0
102
RTVSPost2010PropOp52
 70
     0
102
RTVSPost2010Prop53
 90
        2
102
RTVSPost2010PropOp53
 70
     1
102
RTVSPost2010Prop54
  1
strokes_ogs.tif
102
RTVSPost2010PropOp54
 70
     1
102
RTVSPost2010Prop55
280
     0
102
RTVSPost2010PropOp55
 70
     1
102
RTVSPost2010Prop56
140
1.0
102
RTVSPost2010PropOp56
 70
     1
102
RTVSPost2010Prop57
140
1.0
102
RTVSPost2010PropOp57
 70
     1
102
RTVSPropertyOp0
 70
     1
102
RTVSPropertyOp1
 70
     1
102
RTVSPropertyOp2
 70
     1
102
RTVSPropertyOp3
 70
     1
102
RTVSPropertyOp4
 70
     1
102
RTVSPropertyOp5
 70
     1
102
RTVSPropertyOp6
 70
     1
102
RTVSPropertyOp7
 70
     1
102
RTVSPropertyOp8
 70
     1
102
RTVSPropertyOp9
 70
     1
102
RTVSPropertyOp10
 70
     1
102
RTVSPropertyOp11
 70
     1
102
RTVSPropertyOp12
 70
     1
102
RTVSPropertyOp13
 70
     1
102
RTVSPropertyOp14
 70
     1
102
RTVSPropertyOp15
 70
     1
102
RTVSPropertyOp16
 70
     1
102
RTVSPropertyOp17
 70
     1
102
RTVSPropertyOp18
 70
     1
102
RTVSPropertyOp19
 70
     1
102
RTVSPropertyOp20
 70
     1
102
RTVSPropertyOp21
 70
     1
102
RTVSPropertyOp22
 70
     1
102
RTVSPropertyOp23
 70
     1
102
RTVSPropertyOp24
 70
     1
102
RTVSPropertyOp25
 70
     1
102
RTVSPropertyOp26
 70
     1
102
RTVSPropertyOp27
 70
     1
102
RTVSPropertyOp28
 70
     1
102
RTVSPropertyOp29
 70
     1
102
RTVSPropertyOp30
 70
     1
102
RTVSPropertyOp31
 70
     1
102
RTVSPropertyOp32
 70
     1
102
RTVSPropertyOp33
 70
     1
102
RTVSPropertyOp34
 70
     1
102
RTVSPropertyOp35
 70
     1
102
RTVSPropertyOp36
 70
     1
102
RTVSPropertyOp37
 70
     1
102
RTVSPropertyOp38
 70
     1
102
RTVSPropertyOp39
 70
     1
102
RTVSPropertyOp40
 70
     1
102
RTVSPropertyOp41
 70
     1
102
RTVSPropertyOp42
 70
     1
102
RTVSPropertyOp43
 70
     1
102
RTVSPropertyOp44
 70
     1
102
RTVSPropertyOp45
 70
     1
102
RTVSPropertyOp46
 70
     1
102
RTVSPropertyOp47
 70
     1
102
RTVSPropertyOp48
 70
     1
102
RTVSPropertyOp49
 70
     1
102
RTVSPropertyOp50
 70
     1
102
RTVSPropertyOp51
 70
     0
102
RTVSPropertyOp52
 70
     0
102
RTVSPropertyOp53
 70
     1
102
RTVSPropertyOp54
 70
     1
102
RTVSPropertyOp55
 70
     1
102
RTVSPropertyOp56
 70
     1
102
RTVSPropertyOp57
 70
     1
102
RTVSPropertyOp58
 70
     1
102
RTVSPropertyOp59
 70
     1
102
RTVSPropertyOp60
 70
     1
102
RTVSPropertyOp61
 70
     1
102
RTVSPropertyOp62
 70
     1
  0
XRECORD
  5
14EB
102
{ACAD_REACTORS
330
14EA
102
}
330
14EA
100
AcDbXrecord
280
     1
102
RTVSPost2010Prop28
280
     0
102
RTVSPost2010PropOp28
 70
     1
102
RTVSPost2010Prop29
280
     1
102
RTVSPost2010PropOp29
 70
     1
102
RTVSPost2010Prop30
280
     1
102
RTVSPost2010PropOp30
 70
     1
102
RTVSPost2010Prop31
280
     0
102
RTVSPost2010PropOp31
 70
     1
102
RTVSPost2010Prop32
280
     0
102
RTVSPost2010PropOp32
 70
     1
102
RTVSPost2010Prop33
280
     0
102
RTVSPost2010PropOp33
 70
     1
102
RTVSPost2010Prop34
280
     0
102
RTVSPost2010PropOp34
 70
     1
102
RTVSPost2010Prop35
280
     0
102
RTVSPost2010PropOp35
 70
     1
102
RTVSPost2010Prop36
280
     0
102
RTVSPost2010PropOp36
 70
     1
102
RTVSPost2010Prop37
 90
       50
102
RTVSPost2010PropOp37
 70
     1
102
RTVSPost2010Prop38
140
0.0
102
RTVSPost2010PropOp38
 70
     1
102
RTVSPost2010Prop39
140
1.0
102
RTVSPost2010PropOp39
 70
     1
102
RTVSPost2010Prop40
 90
        0
102
RTVSPost2010PropOp40
 70
     1
102
RTVSPost2010Prop41ColorIndex
 90
       18
102
RTVSPost2010Prop41ColorRGB
 90
        0
102
RTVSPost2010PropOp41
 70
     1
102
RTVSPost2010Prop42
 90
       50
102
RTVSPost2010PropOp42
 70
     1
102
RTVSPost2010Prop43
 90
        3
102
RTVSPost2010PropOp43
 70
     1
102
RTVSPost2010Prop44ColorIndex
 90
        5
102
RTVSPost2010Prop44ColorRGB
 90
      255
102
RTVSPost2010PropOp44
 70
     1
102
RTVSPost2010Prop45
280
     0
102
RTVSPost2010PropOp45
 70
     1
102
RTVSPost2010Prop46
 90
       50
102
RTVSPost2010PropOp46
 70
     1
102
RTVSPost2010Prop47
 90
       50
102
RTVSPost2010PropOp47
 70
     1
102
RTVSPost2010Prop48
 90
       50
102
RTVSPost2010PropOp48
 70
     1
102
RTVSPost2010Prop49
280
     0
102
RTVSPost2010PropOp49
 70
     1
102
RTVSPost2010Prop50
 90
       50
102
RTVSPost2010PropOp50
 70
     1
102
RTVSPost2010Prop51ColorIndex
 90
      256
102
RTVSPost2010Prop51ColorRGB
 90
-16777216
102
RTVSPost2010PropOp51
 70
     0
102
RTVSPost2010Prop52
140
1.0
102
RTVSPost2010PropOp52
 70
     0
102
RTVSPost2010Prop53
 90
        2
102
RTVSPost2010PropOp53
 70
     1
102
RTVSPost2010Prop54
  1
strokes_ogs.tif
102
RTVSPost2010PropOp54
 70
     1
102
RTVSPost2010Prop55
280
     0
102
RTVSPost2010PropOp55
 70
     1
102
RTVSPost2010Prop56
140
1.0
102
RTVSPost2010PropOp56
 70
     1
102
RTVSPost2010Prop57
140
1.0
102
RTVSPost2010PropOp57
 70
     1
102
RTVSPropertyOp0
 70
     1
102
RTVSPropertyOp1
 70
     1
102
RTVSPropertyOp2
 70
     1
102
RTVSPropertyOp3
 70
     1
102
RTVSPropertyOp4
 70
     1
102
RTVSPropertyOp5
 70
     1
102
RTVSPropertyOp6
 70
     1
102
RTVSPropertyOp7
 70
     1
102
RTVSPropertyOp8
 70
     1
102
RTVSPropertyOp9
 70
     1
102
RTVSPropertyOp10
 70
     1
102
RTVSPropertyOp11
 70
     1
102
RTVSPropertyOp12
 70
     1
102
RTVSPropertyOp13
 70
     1
102
RTVSPropertyOp14
 70
     1
102
RTVSPropertyOp15
 70
     1
102
RTVSPropertyOp16
 70
     1
102
RTVSPropertyOp17
 70
     1
102
RTVSPropertyOp18
 70
     1
102
RTVSPropertyOp19
 70
     1
102
RTVSPropertyOp20
 70
     1
102
RTVSPropertyOp21
 70
     1
102
RTVSPropertyOp22
 70
     1
102
RTVSPropertyOp23
 70
     1
102
RTVSPropertyOp24
 70
     1
102
RTVSPropertyOp25
 70
     1
102
RTVSPropertyOp26
 70
     1
102
RTVSPropertyOp27
 70
     1
102
RTVSPropertyOp28
 70
     1
102
RTVSPropertyOp29
 70
     1
102
RTVSPropertyOp30
 70
     1
102
RTVSPropertyOp31
 70
     1
102
RTVSPropertyOp32
 70
     1
102
RTVSPropertyOp33
 70
     1
102
RTVSPropertyOp34
 70
     1
102
RTVSPropertyOp35
 70
     1
102
RTVSPropertyOp36
 70
     1
102
RTVSPropertyOp37
 70
     1
102
RTVSPropertyOp38
 70
     1
102
RTVSPropertyOp39
 70
     1
102
RTVSPropertyOp40
 70
     1
102
RTVSPropertyOp41
 70
     1
102
RTVSPropertyOp42
 70
     1
102
RTVSPropertyOp43
 70
     1
102
RTVSPropertyOp44
 70
     1
102
RTVSPropertyOp45
 70
     1
102
RTVSPropertyOp46
 70
     1
102
RTVSPropertyOp47
 70
     1
102
RTVSPropertyOp48
 70
     1
102
RTVSPropertyOp49
 70
     1
102
RTVSPropertyOp50
 70
     1
102
RTVSPropertyOp51
 70
     0
102
RTVSPropertyOp52
 70
     0
102
RTVSPropertyOp53
 70
     1
102
RTVSPropertyOp54
 70
     1
102
RTVSPropertyOp55
 70
     1
102
RTVSPropertyOp56
 70
     1
102
RTVSPropertyOp57
 70
     1
102
RTVSPropertyOp58
 70
     1
102
RTVSPropertyOp59
 70
     1
102
RTVSPropertyOp60
 70
     1
102
RTVSPropertyOp61
 70
     1
102
RTVSPropertyOp62
 70
     1
  0
XRECORD
  5
14E9
102
{ACAD_REACTORS
330
14E8
102
}
330
14E8
100
AcDbXrecord
280
     1
102
RTVSPost2010Prop28
280
     0
102
RTVSPost2010PropOp28
 70
     1
102
RTVSPost2010Prop29
280
     1
102
RTVSPost2010PropOp29
 70
     1
102
RTVSPost2010Prop30
280
     1
102
RTVSPost2010PropOp30
 70
     1
102
RTVSPost2010Prop31
280
     0
102
RTVSPost2010PropOp31
 70
     1
102
RTVSPost2010Prop32
280
     0
102
RTVSPost2010PropOp32
 70
     1
102
RTVSPost2010Prop33
280
     0
102
RTVSPost2010PropOp33
 70
     1
102
RTVSPost2010Prop34
280
     0
102
RTVSPost2010PropOp34
 70
     1
102
RTVSPost2010Prop35
280
     0
102
RTVSPost2010PropOp35
 70
     1
102
RTVSPost2010Prop36
280
     0
102
RTVSPost2010PropOp36
 70
     1
102
RTVSPost2010Prop37
 90
       50
102
RTVSPost2010PropOp37
 70
     1
102
RTVSPost2010Prop38
140
0.0
102
RTVSPost2010PropOp38
 70
     1
102
RTVSPost2010Prop39
140
1.0
102
RTVSPost2010PropOp39
 70
     1
102
RTVSPost2010Prop40
 90
        0
102
RTVSPost2010PropOp40
 70
     1
102
RTVSPost2010Prop41ColorIndex
 90
       18
102
RTVSPost2010Prop41ColorRGB
 90
        0
102
RTVSPost2010PropOp41
 70
     1
102
RTVSPost2010Prop42
 90
       50
102
RTVSPost2010PropOp42
 70
     1
102
RTVSPost2010Prop43
 90
        3
102
RTVSPost2010PropOp43
 70
     1
102
RTVSPost2010Prop44ColorIndex
 90
        5
102
RTVSPost2010Prop44ColorRGB
 90
      255
102
RTVSPost2010PropOp44
 70
     1
102
RTVSPost2010Prop45
280
     0
102
RTVSPost2010PropOp45
 70
     1
102
RTVSPost2010Prop46
 90
       50
102
RTVSPost2010PropOp46
 70
     1
102
RTVSPost2010Prop47
 90
       50
102
RTVSPost2010PropOp47
 70
     1
102
RTVSPost2010Prop48
 90
       50
102
RTVSPost2010PropOp48
 70
     1
102
RTVSPost2010Prop49
280
     0
102
RTVSPost2010PropOp49
 70
     1
102
RTVSPost2010Prop50
 90
       50
102
RTVSPost2010PropOp50
 70
     1
102
RTVSPost2010Prop51ColorIndex
 90
      256
102
RTVSPost2010Prop51ColorRGB
 90
-16777216
102
RTVSPost2010PropOp51
 70
     0
102
RTVSPost2010Prop52
140
1.0
102
RTVSPost2010PropOp52
 70
     0
102
RTVSPost2010Prop53
 90
        2
102
RTVSPost2010PropOp53
 70
     1
102
RTVSPost2010Prop54
  1
strokes_ogs.tif
102
RTVSPost2010PropOp54
 70
     1
102
RTVSPost2010Prop55
280
     0
102
RTVSPost2010PropOp55
 70
     1
102
RTVSPost2010Prop56
140
1.0
102
RTVSPost2010PropOp56
 70
     1
102
RTVSPost2010Prop57
140
1.0
102
RTVSPost2010PropOp57
 70
     1
102
RTVSPropertyOp0
 70
     1
102
RTVSPropertyOp1
 70
     1
102
RTVSPropertyOp2
 70
     1
102
RTVSPropertyOp3
 70
     1
102
RTVSPropertyOp4
 70
     1
102
RTVSPropertyOp5
 70
     1
102
RTVSPropertyOp6
 70
     1
102
RTVSPropertyOp7
 70
     1
102
RTVSPropertyOp8
 70
     1
102
RTVSPropertyOp9
 70
     1
102
RTVSPropertyOp10
 70
     1
102
RTVSPropertyOp11
 70
     1
102
RTVSPropertyOp12
 70
     1
102
RTVSPropertyOp13
 70
     1
102
RTVSPropertyOp14
 70
     1
102
RTVSPropertyOp15
 70
     1
102
RTVSPropertyOp16
 70
     1
102
RTVSPropertyOp17
 70
     1
102
RTVSPropertyOp18
 70
     1
102
RTVSPropertyOp19
 70
     1
102
RTVSPropertyOp20
 70
     1
102
RTVSPropertyOp21
 70
     1
102
RTVSPropertyOp22
 70
     1
102
RTVSPropertyOp23
 70
     1
102
RTVSPropertyOp24
 70
     1
102
RTVSPropertyOp25
 70
     1
102
RTVSPropertyOp26
 70
     1
102
RTVSPropertyOp27
 70
     1
102
RTVSPropertyOp28
 70
     1
102
RTVSPropertyOp29
 70
     1
102
RTVSPropertyOp30
 70
     1
102
RTVSPropertyOp31
 70
     1
102
RTVSPropertyOp32
 70
     1
102
RTVSPropertyOp33
 70
     1
102
RTVSPropertyOp34
 70
     1
102
RTVSPropertyOp35
 70
     1
102
RTVSPropertyOp36
 70
     1
102
RTVSPropertyOp37
 70
     1
102
RTVSPropertyOp38
 70
     1
102
RTVSPropertyOp39
 70
     1
102
RTVSPropertyOp40
 70
     1
102
RTVSPropertyOp41
 70
     1
102
RTVSPropertyOp42
 70
     1
102
RTVSPropertyOp43
 70
     1
102
RTVSPropertyOp44
 70
     1
102
RTVSPropertyOp45
 70
     1
102
RTVSPropertyOp46
 70
     1
102
RTVSPropertyOp47
 70
     1
102
RTVSPropertyOp48
 70
     1
102
RTVSPropertyOp49
 70
     1
102
RTVSPropertyOp50
 70
     1
102
RTVSPropertyOp51
 70
     0
102
RTVSPropertyOp52
 70
     0
102
RTVSPropertyOp53
 70
     1
102
RTVSPropertyOp54
 70
     1
102
RTVSPropertyOp55
 70
     1
102
RTVSPropertyOp56
 70
     1
102
RTVSPropertyOp57
 70
     1
102
RTVSPropertyOp58
 70
     1
102
RTVSPropertyOp59
 70
     1
102
RTVSPropertyOp60
 70
     1
102
RTVSPropertyOp61
 70
     1
102
RTVSPropertyOp62
 70
     1
  0
XRECORD
  5
14E3
102
{ACAD_REACTORS
330
14E2
102
}
330
14E2
100
AcDbXrecord
280
     1
102
RTVSPost2010Prop28
280
     0
102
RTVSPost2010PropOp28
 70
     1
102
RTVSPost2010Prop29
280
     1
102
RTVSPost2010PropOp29
 70
     1
102
RTVSPost2010Prop30
280
     1
102
RTVSPost2010PropOp30
 70
     1
102
RTVSPost2010Prop31
280
     0
102
RTVSPost2010PropOp31
 70
     1
102
RTVSPost2010Prop32
280
     0
102
RTVSPost2010PropOp32
 70
     1
102
RTVSPost2010Prop33
280
     0
102
RTVSPost2010PropOp33
 70
     1
102
RTVSPost2010Prop34
280
     0
102
RTVSPost2010PropOp34
 70
     1
102
RTVSPost2010Prop35
280
     0
102
RTVSPost2010PropOp35
 70
     1
102
RTVSPost2010Prop36
280
     0
102
RTVSPost2010PropOp36
 70
     1
102
RTVSPost2010Prop37
 90
       50
102
RTVSPost2010PropOp37
 70
     1
102
RTVSPost2010Prop38
140
0.0
102
RTVSPost2010PropOp38
 70
     1
102
RTVSPost2010Prop39
140
1.0
102
RTVSPost2010PropOp39
 70
     1
102
RTVSPost2010Prop40
 90
        0
102
RTVSPost2010PropOp40
 70
     1
102
RTVSPost2010Prop41ColorIndex
 90
       18
102
RTVSPost2010Prop41ColorRGB
 90
        0
102
RTVSPost2010PropOp41
 70
     1
102
RTVSPost2010Prop42
 90
       50
102
RTVSPost2010PropOp42
 70
     1
102
RTVSPost2010Prop43
 90
        3
102
RTVSPost2010PropOp43
 70
     1
102
RTVSPost2010Prop44ColorIndex
 90
        5
102
RTVSPost2010Prop44ColorRGB
 90
      255
102
RTVSPost2010PropOp44
 70
     1
102
RTVSPost2010Prop45
280
     0
102
RTVSPost2010PropOp45
 70
     1
102
RTVSPost2010Prop46
 90
       50
102
RTVSPost2010PropOp46
 70
     1
102
RTVSPost2010Prop47
 90
       50
102
RTVSPost2010PropOp47
 70
     1
102
RTVSPost2010Prop48
 90
       50
102
RTVSPost2010PropOp48
 70
     1
102
RTVSPost2010Prop49
280
     0
102
RTVSPost2010PropOp49
 70
     1
102
RTVSPost2010Prop50
 90
       50
102
RTVSPost2010PropOp50
 70
     1
102
RTVSPost2010Prop51ColorIndex
 90
      256
102
RTVSPost2010Prop51ColorRGB
 90
-16777216
102
RTVSPost2010PropOp51
 70
     0
102
RTVSPost2010Prop52
140
1.0
102
RTVSPost2010PropOp52
 70
     0
102
RTVSPost2010Prop53
 90
        2
102
RTVSPost2010PropOp53
 70
     1
102
RTVSPost2010Prop54
  1
strokes_ogs.tif
102
RTVSPost2010PropOp54
 70
     1
102
RTVSPost2010Prop55
280
     0
102
RTVSPost2010PropOp55
 70
     1
102
RTVSPost2010Prop56
140
1.0
102
RTVSPost2010PropOp56
 70
     1
102
RTVSPost2010Prop57
140
1.0
102
RTVSPost2010PropOp57
 70
     1
102
RTVSPropertyOp0
 70
     1
102
RTVSPropertyOp1
 70
     1
102
RTVSPropertyOp2
 70
     1
102
RTVSPropertyOp3
 70
     1
102
RTVSPropertyOp4
 70
     1
102
RTVSPropertyOp5
 70
     1
102
RTVSPropertyOp6
 70
     1
102
RTVSPropertyOp7
 70
     1
102
RTVSPropertyOp8
 70
     1
102
RTVSPropertyOp9
 70
     1
102
RTVSPropertyOp10
 70
     1
102
RTVSPropertyOp11
 70
     1
102
RTVSPropertyOp12
 70
     1
102
RTVSPropertyOp13
 70
     1
102
RTVSPropertyOp14
 70
     1
102
RTVSPropertyOp15
 70
     1
102
RTVSPropertyOp16
 70
     1
102
RTVSPropertyOp17
 70
     1
102
RTVSPropertyOp18
 70
     1
102
RTVSPropertyOp19
 70
     1
102
RTVSPropertyOp20
 70
     1
102
RTVSPropertyOp21
 70
     1
102
RTVSPropertyOp22
 70
     1
102
RTVSPropertyOp23
 70
     1
102
RTVSPropertyOp24
 70
     1
102
RTVSPropertyOp25
 70
     1
102
RTVSPropertyOp26
 70
     1
102
RTVSPropertyOp27
 70
     1
102
RTVSPropertyOp28
 70
     1
102
RTVSPropertyOp29
 70
     1
102
RTVSPropertyOp30
 70
     1
102
RTVSPropertyOp31
 70
     1
102
RTVSPropertyOp32
 70
     1
102
RTVSPropertyOp33
 70
     1
102
RTVSPropertyOp34
 70
     1
102
RTVSPropertyOp35
 70
     1
102
RTVSPropertyOp36
 70
     1
102
RTVSPropertyOp37
 70
     1
102
RTVSPropertyOp38
 70
     1
102
RTVSPropertyOp39
 70
     1
102
RTVSPropertyOp40
 70
     1
102
RTVSPropertyOp41
 70
     1
102
RTVSPropertyOp42
 70
     1
102
RTVSPropertyOp43
 70
     1
102
RTVSPropertyOp44
 70
     1
102
RTVSPropertyOp45
 70
     1
102
RTVSPropertyOp46
 70
     1
102
RTVSPropertyOp47
 70
     1
102
RTVSPropertyOp48
 70
     1
102
RTVSPropertyOp49
 70
     1
102
RTVSPropertyOp50
 70
     1
102
RTVSPropertyOp51
 70
     0
102
RTVSPropertyOp52
 70
     0
102
RTVSPropertyOp53
 70
     1
102
RTVSPropertyOp54
 70
     1
102
RTVSPropertyOp55
 70
     1
102
RTVSPropertyOp56
 70
     1
102
RTVSPropertyOp57
 70
     1
102
RTVSPropertyOp58
 70
     1
102
RTVSPropertyOp59
 70
     1
102
RTVSPropertyOp60
 70
     1
102
RTVSPropertyOp61
 70
     1
102
RTVSPropertyOp62
 70
     1
  0
XRECORD
  5
14E5
102
{ACAD_REACTORS
330
14E4
102
}
330
14E4
100
AcDbXrecord
280
     1
102
RTVSPost2010Prop28
280
     0
102
RTVSPost2010PropOp28
 70
     1
102
RTVSPost2010Prop29
280
     1
102
RTVSPost2010PropOp29
 70
     1
102
RTVSPost2010Prop30
280
     1
102
RTVSPost2010PropOp30
 70
     1
102
RTVSPost2010Prop31
280
     0
102
RTVSPost2010PropOp31
 70
     1
102
RTVSPost2010Prop32
280
     0
102
RTVSPost2010PropOp32
 70
     1
102
RTVSPost2010Prop33
280
     0
102
RTVSPost2010PropOp33
 70
     1
102
RTVSPost2010Prop34
280
     0
102
RTVSPost2010PropOp34
 70
     1
102
RTVSPost2010Prop35
280
     0
102
RTVSPost2010PropOp35
 70
     1
102
RTVSPost2010Prop36
280
     0
102
RTVSPost2010PropOp36
 70
     1
102
RTVSPost2010Prop37
 90
       50
102
RTVSPost2010PropOp37
 70
     1
102
RTVSPost2010Prop38
140
0.0
102
RTVSPost2010PropOp38
 70
     1
102
RTVSPost2010Prop39
140
1.0
102
RTVSPost2010PropOp39
 70
     1
102
RTVSPost2010Prop40
 90
        0
102
RTVSPost2010PropOp40
 70
     1
102
RTVSPost2010Prop41ColorIndex
 90
       18
102
RTVSPost2010Prop41ColorRGB
 90
        0
102
RTVSPost2010PropOp41
 70
     1
102
RTVSPost2010Prop42
 90
       50
102
RTVSPost2010PropOp42
 70
     1
102
RTVSPost2010Prop43
 90
        3
102
RTVSPost2010PropOp43
 70
     1
102
RTVSPost2010Prop44ColorIndex
 90
        5
102
RTVSPost2010Prop44ColorRGB
 90
      255
102
RTVSPost2010PropOp44
 70
     1
102
RTVSPost2010Prop45
280
     0
102
RTVSPost2010PropOp45
 70
     1
102
RTVSPost2010Prop46
 90
       50
102
RTVSPost2010PropOp46
 70
     1
102
RTVSPost2010Prop47
 90
       50
102
RTVSPost2010PropOp47
 70
     1
102
RTVSPost2010Prop48
 90
       50
102
RTVSPost2010PropOp48
 70
     1
102
RTVSPost2010Prop49
280
     0
102
RTVSPost2010PropOp49
 70
     1
102
RTVSPost2010Prop50
 90
       50
102
RTVSPost2010PropOp50
 70
     1
102
RTVSPost2010Prop51ColorIndex
 90
      256
102
RTVSPost2010Prop51ColorRGB
 90
-16777216
102
RTVSPost2010PropOp51
 70
     0
102
RTVSPost2010Prop52
140
1.0
102
RTVSPost2010PropOp52
 70
     0
102
RTVSPost2010Prop53
 90
        2
102
RTVSPost2010PropOp53
 70
     1
102
RTVSPost2010Prop54
  1
strokes_ogs.tif
102
RTVSPost2010PropOp54
 70
     1
102
RTVSPost2010Prop55
280
     0
102
RTVSPost2010PropOp55
 70
     1
102
RTVSPost2010Prop56
140
1.0
102
RTVSPost2010PropOp56
 70
     1
102
RTVSPost2010Prop57
140
1.0
102
RTVSPost2010PropOp57
 70
     1
102
RTVSPropertyOp0
 70
     1
102
RTVSPropertyOp1
 70
     1
102
RTVSPropertyOp2
 70
     1
102
RTVSPropertyOp3
 70
     1
102
RTVSPropertyOp4
 70
     1
102
RTVSPropertyOp5
 70
     1
102
RTVSPropertyOp6
 70
     1
102
RTVSPropertyOp7
 70
     1
102
RTVSPropertyOp8
 70
     1
102
RTVSPropertyOp9
 70
     1
102
RTVSPropertyOp10
 70
     1
102
RTVSPropertyOp11
 70
     1
102
RTVSPropertyOp12
 70
     1
102
RTVSPropertyOp13
 70
     1
102
RTVSPropertyOp14
 70
     1
102
RTVSPropertyOp15
 70
     1
102
RTVSPropertyOp16
 70
     1
102
RTVSPropertyOp17
 70
     1
102
RTVSPropertyOp18
 70
     1
102
RTVSPropertyOp19
 70
     1
102
RTVSPropertyOp20
 70
     1
102
RTVSPropertyOp21
 70
     1
102
RTVSPropertyOp22
 70
     1
102
RTVSPropertyOp23
 70
     1
102
RTVSPropertyOp24
 70
     1
102
RTVSPropertyOp25
 70
     1
102
RTVSPropertyOp26
 70
     1
102
RTVSPropertyOp27
 70
     1
102
RTVSPropertyOp28
 70
     1
102
RTVSPropertyOp29
 70
     1
102
RTVSPropertyOp30
 70
     1
102
RTVSPropertyOp31
 70
     1
102
RTVSPropertyOp32
 70
     1
102
RTVSPropertyOp33
 70
     1
102
RTVSPropertyOp34
 70
     1
102
RTVSPropertyOp35
 70
     1
102
RTVSPropertyOp36
 70
     1
102
RTVSPropertyOp37
 70
     1
102
RTVSPropertyOp38
 70
     1
102
RTVSPropertyOp39
 70
     1
102
RTVSPropertyOp40
 70
     1
102
RTVSPropertyOp41
 70
     1
102
RTVSPropertyOp42
 70
     1
102
RTVSPropertyOp43
 70
     1
102
RTVSPropertyOp44
 70
     1
102
RTVSPropertyOp45
 70
     1
102
RTVSPropertyOp46
 70
     1
102
RTVSPropertyOp47
 70
     1
102
RTVSPropertyOp48
 70
     1
102
RTVSPropertyOp49
 70
     1
102
RTVSPropertyOp50
 70
     1
102
RTVSPropertyOp51
 70
     0
102
RTVSPropertyOp52
 70
     0
102
RTVSPropertyOp53
 70
     1
102
RTVSPropertyOp54
 70
     1
102
RTVSPropertyOp55
 70
     1
102
RTVSPropertyOp56
 70
     1
102
RTVSPropertyOp57
 70
     1
102
RTVSPropertyOp58
 70
     1
102
RTVSPropertyOp59
 70
     1
102
RTVSPropertyOp60
 70
     1
102
RTVSPropertyOp61
 70
     1
102
RTVSPropertyOp62
 70
     1
  0
XRECORD
  5
14DB
102
{ACAD_REACTORS
330
14DA
102
}
330
14DA
100
AcDbXrecord
280
     1
102
RTVSPost2010Prop28
280
     0
102
RTVSPost2010PropOp28
 70
     1
102
RTVSPost2010Prop29
280
     1
102
RTVSPost2010PropOp29
 70
     1
102
RTVSPost2010Prop30
280
     1
102
RTVSPost2010PropOp30
 70
     1
102
RTVSPost2010Prop31
280
     0
102
RTVSPost2010PropOp31
 70
     1
102
RTVSPost2010Prop32
280
     0
102
RTVSPost2010PropOp32
 70
     1
102
RTVSPost2010Prop33
280
     0
102
RTVSPost2010PropOp33
 70
     1
102
RTVSPost2010Prop34
280
     0
102
RTVSPost2010PropOp34
 70
     1
102
RTVSPost2010Prop35
280
     0
102
RTVSPost2010PropOp35
 70
     1
102
RTVSPost2010Prop36
280
     0
102
RTVSPost2010PropOp36
 70
     1
102
RTVSPost2010Prop37
 90
       50
102
RTVSPost2010PropOp37
 70
     1
102
RTVSPost2010Prop38
140
0.0
102
RTVSPost2010PropOp38
 70
     1
102
RTVSPost2010Prop39
140
1.0
102
RTVSPost2010PropOp39
 70
     1
102
RTVSPost2010Prop40
 90
        0
102
RTVSPost2010PropOp40
 70
     1
102
RTVSPost2010Prop41ColorIndex
 90
       18
102
RTVSPost2010Prop41ColorRGB
 90
        0
102
RTVSPost2010PropOp41
 70
     1
102
RTVSPost2010Prop42
 90
       50
102
RTVSPost2010PropOp42
 70
     1
102
RTVSPost2010Prop43
 90
        3
102
RTVSPost2010PropOp43
 70
     1
102
RTVSPost2010Prop44ColorIndex
 90
        5
102
RTVSPost2010Prop44ColorRGB
 90
      255
102
RTVSPost2010PropOp44
 70
     1
102
RTVSPost2010Prop45
280
     0
102
RTVSPost2010PropOp45
 70
     1
102
RTVSPost2010Prop46
 90
       50
102
RTVSPost2010PropOp46
 70
     1
102
RTVSPost2010Prop47
 90
       50
102
RTVSPost2010PropOp47
 70
     1
102
RTVSPost2010Prop48
 90
       50
102
RTVSPost2010PropOp48
 70
     1
102
RTVSPost2010Prop49
280
     0
102
RTVSPost2010PropOp49
 70
     1
102
RTVSPost2010Prop50
 90
       50
102
RTVSPost2010PropOp50
 70
     1
102
RTVSPost2010Prop51ColorIndex
 90
      256
102
RTVSPost2010Prop51ColorRGB
 90
-16777216
102
RTVSPost2010PropOp51
 70
     0
102
RTVSPost2010Prop52
140
1.0
102
RTVSPost2010PropOp52
 70
     0
102
RTVSPost2010Prop53
 90
        2
102
RTVSPost2010PropOp53
 70
     1
102
RTVSPost2010Prop54
  1
strokes_ogs.tif
102
RTVSPost2010PropOp54
 70
     1
102
RTVSPost2010Prop55
280
     0
102
RTVSPost2010PropOp55
 70
     1
102
RTVSPost2010Prop56
140
1.0
102
RTVSPost2010PropOp56
 70
     1
102
RTVSPost2010Prop57
140
1.0
102
RTVSPost2010PropOp57
 70
     1
102
RTVSPropertyOp0
 70
     1
102
RTVSPropertyOp1
 70
     1
102
RTVSPropertyOp2
 70
     1
102
RTVSPropertyOp3
 70
     1
102
RTVSPropertyOp4
 70
     1
102
RTVSPropertyOp5
 70
     1
102
RTVSPropertyOp6
 70
     1
102
RTVSPropertyOp7
 70
     1
102
RTVSPropertyOp8
 70
     1
102
RTVSPropertyOp9
 70
     1
102
RTVSPropertyOp10
 70
     1
102
RTVSPropertyOp11
 70
     1
102
RTVSPropertyOp12
 70
     1
102
RTVSPropertyOp13
 70
     1
102
RTVSPropertyOp14
 70
     1
102
RTVSPropertyOp15
 70
     1
102
RTVSPropertyOp16
 70
     1
102
RTVSPropertyOp17
 70
     1
102
RTVSPropertyOp18
 70
     1
102
RTVSPropertyOp19
 70
     1
102
RTVSPropertyOp20
 70
     1
102
RTVSPropertyOp21
 70
     1
102
RTVSPropertyOp22
 70
     1
102
RTVSPropertyOp23
 70
     1
102
RTVSPropertyOp24
 70
     1
102
RTVSPropertyOp25
 70
     1
102
RTVSPropertyOp26
 70
     1
102
RTVSPropertyOp27
 70
     1
102
RTVSPropertyOp28
 70
     1
102
RTVSPropertyOp29
 70
     1
102
RTVSPropertyOp30
 70
     1
102
RTVSPropertyOp31
 70
     1
102
RTVSPropertyOp32
 70
     1
102
RTVSPropertyOp33
 70
     1
102
RTVSPropertyOp34
 70
     1
102
RTVSPropertyOp35
 70
     1
102
RTVSPropertyOp36
 70
     1
102
RTVSPropertyOp37
 70
     1
102
RTVSPropertyOp38
 70
     1
102
RTVSPropertyOp39
 70
     1
102
RTVSPropertyOp40
 70
     1
102
RTVSPropertyOp41
 70
     1
102
RTVSPropertyOp42
 70
     1
102
RTVSPropertyOp43
 70
     1
102
RTVSPropertyOp44
 70
     1
102
RTVSPropertyOp45
 70
     1
102
RTVSPropertyOp46
 70
     1
102
RTVSPropertyOp47
 70
     1
102
RTVSPropertyOp48
 70
     1
102
RTVSPropertyOp49
 70
     1
102
RTVSPropertyOp50
 70
     1
102
RTVSPropertyOp51
 70
     0
102
RTVSPropertyOp52
 70
     0
102
RTVSPropertyOp53
 70
     1
102
RTVSPropertyOp54
 70
     1
102
RTVSPropertyOp55
 70
     1
102
RTVSPropertyOp56
 70
     1
102
RTVSPropertyOp57
 70
     1
102
RTVSPropertyOp58
 70
     1
102
RTVSPropertyOp59
 70
     1
102
RTVSPropertyOp60
 70
     1
102
RTVSPropertyOp61
 70
     1
102
RTVSPropertyOp62
 70
     1
  0
XRECORD
  5
14CF
102
{ACAD_REACTORS
330
14CE
102
}
330
14CE
100
AcDbXrecord
280
     1
102
RTVSPost2010Prop28
280
     0
102
RTVSPost2010PropOp28
 70
     1
102
RTVSPost2010Prop29
280
     1
102
RTVSPost2010PropOp29
 70
     1
102
RTVSPost2010Prop30
280
     1
102
RTVSPost2010PropOp30
 70
     1
102
RTVSPost2010Prop31
280
     0
102
RTVSPost2010PropOp31
 70
     1
102
RTVSPost2010Prop32
280
     0
102
RTVSPost2010PropOp32
 70
     1
102
RTVSPost2010Prop33
280
     0
102
RTVSPost2010PropOp33
 70
     1
102
RTVSPost2010Prop34
280
     0
102
RTVSPost2010PropOp34
 70
     1
102
RTVSPost2010Prop35
280
     0
102
RTVSPost2010PropOp35
 70
     1
102
RTVSPost2010Prop36
280
     0
102
RTVSPost2010PropOp36
 70
     1
102
RTVSPost2010Prop37
 90
       50
102
RTVSPost2010PropOp37
 70
     1
102
RTVSPost2010Prop38
140
0.0
102
RTVSPost2010PropOp38
 70
     1
102
RTVSPost2010Prop39
140
1.0
102
RTVSPost2010PropOp39
 70
     1
102
RTVSPost2010Prop40
 90
        0
102
RTVSPost2010PropOp40
 70
     1
102
RTVSPost2010Prop41ColorIndex
 90
       18
102
RTVSPost2010Prop41ColorRGB
 90
        0
102
RTVSPost2010PropOp41
 70
     1
102
RTVSPost2010Prop42
 90
       50
102
RTVSPost2010PropOp42
 70
     1
102
RTVSPost2010Prop43
 90
        3
102
RTVSPost2010PropOp43
 70
     1
102
RTVSPost2010Prop44ColorIndex
 90
        5
102
RTVSPost2010Prop44ColorRGB
 90
      255
102
RTVSPost2010PropOp44
 70
     1
102
RTVSPost2010Prop45
280
     0
102
RTVSPost2010PropOp45
 70
     1
102
RTVSPost2010Prop46
 90
       50
102
RTVSPost2010PropOp46
 70
     1
102
RTVSPost2010Prop47
 90
       50
102
RTVSPost2010PropOp47
 70
     1
102
RTVSPost2010Prop48
 90
       50
102
RTVSPost2010PropOp48
 70
     1
102
RTVSPost2010Prop49
280
     0
102
RTVSPost2010PropOp49
 70
     1
102
RTVSPost2010Prop50
 90
       50
102
RTVSPost2010PropOp50
 70
     1
102
RTVSPost2010Prop51ColorIndex
 90
      256
102
RTVSPost2010Prop51ColorRGB
 90
-16777216
102
RTVSPost2010PropOp51
 70
     0
102
RTVSPost2010Prop52
140
1.0
102
RTVSPost2010PropOp52
 70
     0
102
RTVSPost2010Prop53
 90
        2
102
RTVSPost2010PropOp53
 70
     1
102
RTVSPost2010Prop54
  1
strokes_ogs.tif
102
RTVSPost2010PropOp54
 70
     1
102
RTVSPost2010Prop55
280
     0
102
RTVSPost2010PropOp55
 70
     1
102
RTVSPost2010Prop56
140
1.0
102
RTVSPost2010PropOp56
 70
     1
102
RTVSPost2010Prop57
140
1.0
102
RTVSPost2010PropOp57
 70
     1
102
RTVSPropertyOp0
 70
     1
102
RTVSPropertyOp1
 70
     1
102
RTVSPropertyOp2
 70
     1
102
RTVSPropertyOp3
 70
     1
102
RTVSPropertyOp4
 70
     1
102
RTVSPropertyOp5
 70
     1
102
RTVSPropertyOp6
 70
     1
102
RTVSPropertyOp7
 70
     1
102
RTVSPropertyOp8
 70
     1
102
RTVSPropertyOp9
 70
     1
102
RTVSPropertyOp10
 70
     1
102
RTVSPropertyOp11
 70
     1
102
RTVSPropertyOp12
 70
     1
102
RTVSPropertyOp13
 70
     1
102
RTVSPropertyOp14
 70
     1
102
RTVSPropertyOp15
 70
     1
102
RTVSPropertyOp16
 70
     1
102
RTVSPropertyOp17
 70
     1
102
RTVSPropertyOp18
 70
     1
102
RTVSPropertyOp19
 70
     1
102
RTVSPropertyOp20
 70
     1
102
RTVSPropertyOp21
 70
     1
102
RTVSPropertyOp22
 70
     1
102
RTVSPropertyOp23
 70
     1
102
RTVSPropertyOp24
 70
     1
102
RTVSPropertyOp25
 70
     1
102
RTVSPropertyOp26
 70
     1
102
RTVSPropertyOp27
 70
     1
102
RTVSPropertyOp28
 70
     1
102
RTVSPropertyOp29
 70
     1
102
RTVSPropertyOp30
 70
     1
102
RTVSPropertyOp31
 70
     1
102
RTVSPropertyOp32
 70
     1
102
RTVSPropertyOp33
 70
     1
102
RTVSPropertyOp34
 70
     1
102
RTVSPropertyOp35
 70
     1
102
RTVSPropertyOp36
 70
     1
102
RTVSPropertyOp37
 70
     1
102
RTVSPropertyOp38
 70
     1
102
RTVSPropertyOp39
 70
     1
102
RTVSPropertyOp40
 70
     1
102
RTVSPropertyOp41
 70
     1
102
RTVSPropertyOp42
 70
     1
102
RTVSPropertyOp43
 70
     1
102
RTVSPropertyOp44
 70
     1
102
RTVSPropertyOp45
 70
     1
102
RTVSPropertyOp46
 70
     1
102
RTVSPropertyOp47
 70
     1
102
RTVSPropertyOp48
 70
     1
102
RTVSPropertyOp49
 70
     1
102
RTVSPropertyOp50
 70
     1
102
RTVSPropertyOp51
 70
     0
102
RTVSPropertyOp52
 70
     0
102
RTVSPropertyOp53
 70
     1
102
RTVSPropertyOp54
 70
     1
102
RTVSPropertyOp55
 70
     1
102
RTVSPropertyOp56
 70
     1
102
RTVSPropertyOp57
 70
     1
102
RTVSPropertyOp58
 70
     1
102
RTVSPropertyOp59
 70
     1
102
RTVSPropertyOp60
 70
     1
102
RTVSPropertyOp61
 70
     1
102
RTVSPropertyOp62
 70
     1
  0
XRECORD
  5
14E7
102
{ACAD_REACTORS
330
14E6
102
}
330
14E6
100
AcDbXrecord
280
     1
102
RTVSPost2010Prop28
280
     0
102
RTVSPost2010PropOp28
 70
     1
102
RTVSPost2010Prop29
280
     1
102
RTVSPost2010PropOp29
 70
     1
102
RTVSPost2010Prop30
280
     1
102
RTVSPost2010PropOp30
 70
     1
102
RTVSPost2010Prop31
280
     0
102
RTVSPost2010PropOp31
 70
     1
102
RTVSPost2010Prop32
280
     0
102
RTVSPost2010PropOp32
 70
     1
102
RTVSPost2010Prop33
280
     0
102
RTVSPost2010PropOp33
 70
     1
102
RTVSPost2010Prop34
280
     0
102
RTVSPost2010PropOp34
 70
     1
102
RTVSPost2010Prop35
280
     0
102
RTVSPost2010PropOp35
 70
     1
102
RTVSPost2010Prop36
280
     0
102
RTVSPost2010PropOp36
 70
     1
102
RTVSPost2010Prop37
 90
       50
102
RTVSPost2010PropOp37
 70
     1
102
RTVSPost2010Prop38
140
0.0
102
RTVSPost2010PropOp38
 70
     1
102
RTVSPost2010Prop39
140
1.0
102
RTVSPost2010PropOp39
 70
     1
102
RTVSPost2010Prop40
 90
        0
102
RTVSPost2010PropOp40
 70
     1
102
RTVSPost2010Prop41ColorIndex
 90
       18
102
RTVSPost2010Prop41ColorRGB
 90
        0
102
RTVSPost2010PropOp41
 70
     1
102
RTVSPost2010Prop42
 90
       50
102
RTVSPost2010PropOp42
 70
     1
102
RTVSPost2010Prop43
 90
        3
102
RTVSPost2010PropOp43
 70
     1
102
RTVSPost2010Prop44ColorIndex
 90
        5
102
RTVSPost2010Prop44ColorRGB
 90
      255
102
RTVSPost2010PropOp44
 70
     1
102
RTVSPost2010Prop45
280
     0
102
RTVSPost2010PropOp45
 70
     1
102
RTVSPost2010Prop46
 90
       50
102
RTVSPost2010PropOp46
 70
     1
102
RTVSPost2010Prop47
 90
       50
102
RTVSPost2010PropOp47
 70
     1
102
RTVSPost2010Prop48
 90
       50
102
RTVSPost2010PropOp48
 70
     1
102
RTVSPost2010Prop49
280
     0
102
RTVSPost2010PropOp49
 70
     1
102
RTVSPost2010Prop50
 90
       50
102
RTVSPost2010PropOp50
 70
     1
102
RTVSPost2010Prop51ColorIndex
 90
      256
102
RTVSPost2010Prop51ColorRGB
 90
-16777216
102
RTVSPost2010PropOp51
 70
     0
102
RTVSPost2010Prop52
140
1.0
102
RTVSPost2010PropOp52
 70
     0
102
RTVSPost2010Prop53
 90
        2
102
RTVSPost2010PropOp53
 70
     1
102
RTVSPost2010Prop54
  1
strokes_ogs.tif
102
RTVSPost2010PropOp54
 70
     1
102
RTVSPost2010Prop55
280
     0
102
RTVSPost2010PropOp55
 70
     1
102
RTVSPost2010Prop56
140
1.0
102
RTVSPost2010PropOp56
 70
     1
102
RTVSPost2010Prop57
140
1.0
102
RTVSPost2010PropOp57
 70
     1
102
RTVSPropertyOp0
 70
     1
102
RTVSPropertyOp1
 70
     1
102
RTVSPropertyOp2
 70
     1
102
RTVSPropertyOp3
 70
     1
102
RTVSPropertyOp4
 70
     1
102
RTVSPropertyOp5
 70
     1
102
RTVSPropertyOp6
 70
     1
102
RTVSPropertyOp7
 70
     1
102
RTVSPropertyOp8
 70
     1
102
RTVSPropertyOp9
 70
     1
102
RTVSPropertyOp10
 70
     1
102
RTVSPropertyOp11
 70
     1
102
RTVSPropertyOp12
 70
     1
102
RTVSPropertyOp13
 70
     1
102
RTVSPropertyOp14
 70
     1
102
RTVSPropertyOp15
 70
     1
102
RTVSPropertyOp16
 70
     1
102
RTVSPropertyOp17
 70
     1
102
RTVSPropertyOp18
 70
     1
102
RTVSPropertyOp19
 70
     1
102
RTVSPropertyOp20
 70
     1
102
RTVSPropertyOp21
 70
     1
102
RTVSPropertyOp22
 70
     1
102
RTVSPropertyOp23
 70
     1
102
RTVSPropertyOp24
 70
     1
102
RTVSPropertyOp25
 70
     1
102
RTVSPropertyOp26
 70
     1
102
RTVSPropertyOp27
 70
     1
102
RTVSPropertyOp28
 70
     1
102
RTVSPropertyOp29
 70
     1
102
RTVSPropertyOp30
 70
     1
102
RTVSPropertyOp31
 70
     1
102
RTVSPropertyOp32
 70
     1
102
RTVSPropertyOp33
 70
     1
102
RTVSPropertyOp34
 70
     1
102
RTVSPropertyOp35
 70
     1
102
RTVSPropertyOp36
 70
     1
102
RTVSPropertyOp37
 70
     1
102
RTVSPropertyOp38
 70
     1
102
RTVSPropertyOp39
 70
     1
102
RTVSPropertyOp40
 70
     1
102
RTVSPropertyOp41
 70
     1
102
RTVSPropertyOp42
 70
     1
102
RTVSPropertyOp43
 70
     1
102
RTVSPropertyOp44
 70
     1
102
RTVSPropertyOp45
 70
     1
102
RTVSPropertyOp46
 70
     1
102
RTVSPropertyOp47
 70
     1
102
RTVSPropertyOp48
 70
     1
102
RTVSPropertyOp49
 70
     1
102
RTVSPropertyOp50
 70
     1
102
RTVSPropertyOp51
 70
     0
102
RTVSPropertyOp52
 70
     0
102
RTVSPropertyOp53
 70
     1
102
RTVSPropertyOp54
 70
     1
102
RTVSPropertyOp55
 70
     1
102
RTVSPropertyOp56
 70
     1
102
RTVSPropertyOp57
 70
     1
102
RTVSPropertyOp58
 70
     1
102
RTVSPropertyOp59
 70
     1
102
RTVSPropertyOp60
 70
     1
102
RTVSPropertyOp61
 70
     1
102
RTVSPropertyOp62
 70
     1
  0
ENDSEC
  0
EOF
