  0
SECTION
  2
HEADER
  9
$ACADVER
  1
AC1018
  9
$ACADMAINTVER
 70
   104
  9
$DWGCODEPAGE
  3
ANSI_932
  9
$LASTSAVEDBY
  1
0803015
  9
$INSBASE
 10
0.0
 20
0.0
 30
0.0
  9
$EXTMIN
 10
-0.40993654
 20
-0.15248078
 30
-0.00000002
  9
$EXTMAX
 10
13750.88222144
 20
10000.15262049
 30
0.00000001
  9
$LIMMIN
 10
0.0
 20
0.0
  9
$LIMMAX
 10
420.0
 20
330.0
  9
$ORTHOMODE
 70
     1
  9
$REGENMODE
 70
     1
  9
$FILLMODE
 70
     1
  9
$QTEXTMODE
 70
     0
  9
$MIRRTEXT
 70
     0
  9
$LTSCALE
 40
1.0
  9
$ATTMODE
 70
     1
  9
$TEXTSIZE
 40
0.2
  9
$TRACEWID
 40
0.05
  9
$TEXTSTYLE
  7
STANDARD
  9
$CLAYER
  8
0
  9
$CELTYPE
  6
BYLAYER
  9
$CECOLOR
 62
   256
  9
$CELTSCALE
 40
1.0
  9
$DISPSILH
 70
     1
  9
$DIMSCALE
 40
1.0
  9
$DIMASZ
 40
0.18
  9
$DIMEXO
 40
0.0625
  9
$DIMDLI
 40
0.38
  9
$DIMRND
 40
0.0
  9
$DIMDLE
 40
0.0
  9
$DIMEXE
 40
0.18
  9
$DIMTP
 40
0.0
  9
$DIMTM
 40
0.0
  9
$DIMTXT
 40
0.18
  9
$DIMCEN
 40
0.09
  9
$DIMTSZ
 40
0.0
  9
$DIMTOL
 70
     0
  9
$DIMLIM
 70
     0
  9
$DIMTIH
 70
     1
  9
$DIMTOH
 70
     1
  9
$DIMSE1
 70
     0
  9
$DIMSE2
 70
     0
  9
$DIMTAD
 70
     0
  9
$DIMZIN
 70
     0
  9
$DIMBLK
  1

  9
$DIMASO
 70
     1
  9
$DIMSHO
 70
     0
  9
$DIMPOST
  1

  9
$DIMAPOST
  1

  9
$DIMALT
 70
     0
  9
$DIMALTD
 70
     2
  9
$DIMALTF
 40
25.4
  9
$DIMLFAC
 40
1.0
  9
$DIMTOFL
 70
     0
  9
$DIMTVP
 40
0.0
  9
$DIMTIX
 70
     0
  9
$DIMSOXD
 70
     0
  9
$DIMSAH
 70
     0
  9
$DIMBLK1
  1

  9
$DIMBLK2
  1

  9
$DIMSTYLE
  2
STANDARD
  9
$DIMCLRD
 70
     0
  9
$DIMCLRE
 70
     0
  9
$DIMCLRT
 70
     0
  9
$DIMTFAC
 40
1.0
  9
$DIMGAP
 40
0.09
  9
$DIMJUST
 70
     0
  9
$DIMSD1
 70
     0
  9
$DIMSD2
 70
     0
  9
$DIMTOLJ
 70
     1
  9
$DIMTZIN
 70
     0
  9
$DIMALTZ
 70
     0
  9
$DIMALTTZ
 70
     0
  9
$DIMUPT
 70
     0
  9
$DIMDEC
 70
     4
  9
$DIMTDEC
 70
     4
  9
$DIMALTU
 70
     2
  9
$DIMALTTD
 70
     2
  9
$DIMTXSTY
  7
STANDARD
  9
$DIMAUNIT
 70
     0
  9
$DIMADEC
 70
     0
  9
$DIMALTRND
 40
0.0
  9
$DIMAZIN
 70
     0
  9
$DIMDSEP
 70
    46
  9
$DIMATFIT
 70
     3
  9
$DIMFRAC
 70
     0
  9
$DIMLDRBLK
  1

  9
$DIMLUNIT
 70
     2
  9
$DIMLWD
 70
    -2
  9
$DIMLWE
 70
    -2
  9
$DIMTMOVE
 70
     2
  9
$LUNITS
 70
     2
  9
$LUPREC
 70
     4
  9
$SKETCHINC
 40
0.1
  9
$FILLETRAD
 40
1.0
  9
$AUNITS
 70
     0
  9
$AUPREC
 70
     0
  9
$MENU
  1
acad
  9
$ELEVATION
 40
0.0
  9
$PELEVATION
 40
0.0
  9
$THICKNESS
 40
0.0
  9
$LIMCHECK
 70
     0
  9
$CHAMFERA
 40
0.0
  9
$CHAMFERB
 40
0.0
  9
$CHAMFERC
 40
0.0
  9
$CHAMFERD
 40
0.0
  9
$SKPOLY
 70
     0
  9
$TDCREATE
 40
2452970.385810186
  9
$TDUCREATE
 40
2452970.010810185
  9
$TDUPDATE
 40
2459629.552337963
  9
$TDUUPDATE
 40
2459629.177337963
  9
$TDINDWG
 40
0.0356479167
  9
$TDUSRTIMER
 40
0.0356479167
  9
$USRTIMER
 70
     1
  9
$ANGBASE
 50
0.0
  9
$ANGDIR
 70
     0
  9
$PDMODE
 70
     0
  9
$PDSIZE
 40
0.0
  9
$PLINEWID
 40
0.0
  9
$SPLFRAME
 70
     0
  9
$SPLINETYPE
 70
     6
  9
$SPLINESEGS
 70
     8
  9
$HANDSEED
  5
177F
  9
$SURFTAB1
 70
     6
  9
$SURFTAB2
 70
     6
  9
$SURFTYPE
 70
     6
  9
$SURFU
 70
     6
  9
$SURFV
 70
     6
  9
$UCSBASE
  2

  9
$UCSNAME
  2

  9
$UCSORG
 10
0.0
 20
0.0
 30
0.0
  9
$UCSXDIR
 10
1.0
 20
0.0
 30
0.0
  9
$UCSYDIR
 10
0.0
 20
1.0
 30
0.0
  9
$UCSORTHOREF
  2

  9
$UCSORTHOVIEW
 70
     0
  9
$UCSORGTOP
 10
0.0
 20
0.0
 30
0.0
  9
$UCSORGBOTTOM
 10
0.0
 20
0.0
 30
0.0
  9
$UCSORGLEFT
 10
0.0
 20
0.0
 30
0.0
  9
$UCSORGRIGHT
 10
0.0
 20
0.0
 30
0.0
  9
$UCSORGFRONT
 10
0.0
 20
0.0
 30
0.0
  9
$UCSORGBACK
 10
0.0
 20
0.0
 30
0.0
  9
$PUCSBASE
  2

  9
$PUCSNAME
  2

  9
$PUCSORG
 10
0.0
 20
0.0
 30
0.0
  9
$PUCSXDIR
 10
1.0
 20
0.0
 30
0.0
  9
$PUCSYDIR
 10
0.0
 20
1.0
 30
0.0
  9
$PUCSORTHOREF
  2

  9
$PUCSORTHOVIEW
 70
     0
  9
$PUCSORGTOP
 10
0.0
 20
0.0
 30
0.0
  9
$PUCSORGBOTTOM
 10
0.0
 20
0.0
 30
0.0
  9
$PUCSORGLEFT
 10
0.0
 20
0.0
 30
0.0
  9
$PUCSORGRIGHT
 10
0.0
 20
0.0
 30
0.0
  9
$PUCSORGFRONT
 10
0.0
 20
0.0
 30
0.0
  9
$PUCSORGBACK
 10
0.0
 20
0.0
 30
0.0
  9
$USERI1
 70
     0
  9
$USERI2
 70
     0
  9
$USERI3
 70
     0
  9
$USERI4
 70
     0
  9
$USERI5
 70
     0
  9
$USERR1
 40
0.0
  9
$USERR2
 40
0.0
  9
$USERR3
 40
0.0
  9
$USERR4
 40
0.0
  9
$USERR5
 40
0.0
  9
$WORLDVIEW
 70
     1
  9
$SHADEDGE
 70
     3
  9
$SHADEDIF
 70
    70
  9
$TILEMODE
 70
     1
  9
$MAXACTVP
 70
    16
  9
$PINSBASE
 10
0.0
 20
0.0
 30
0.0
  9
$PLIMCHECK
 70
     0
  9
$PEXTMIN
 10
1.00000000E+20
 20
1.00000000E+20
 30
1.00000000E+20
  9
$PEXTMAX
 10
-1.00000000E+20
 20
-1.00000000E+20
 30
-1.00000000E+20
  9
$PLIMMIN
 10
0.0
 20
0.0
  9
$PLIMMAX
 10
12.0
 20
9.0
  9
$UNITMODE
 70
     0
  9
$VISRETAIN
 70
     0
  9
$PLINEGEN
 70
     0
  9
$PSLTSCALE
 70
     0
  9
$TREEDEPTH
 70
  3020
  9
$CMLSTYLE
  2
STANDARD
  9
$CMLJUST
 70
     0
  9
$CMLSCALE
 40
1.0
  9
$PROXYGRAPHICS
 70
     1
  9
$MEASUREMENT
 70
     1
  9
$CELWEIGHT
370
    -1
  9
$ENDCAPS
280
     0
  9
$JOINSTYLE
280
     0
  9
$LWDISPLAY
290
     0
  9
$INSUNITS
 70
     0
  9
$HYPERLINKBASE
  1

  9
$STYLESHEET
  1

  9
$XEDIT
290
     1
  9
$CEPSNTYPE
380
     0
  9
$PSTYLEMODE
290
     1
  9
$FINGERPRINTGUID
  2
{CAAB3654-21F1-BD49-8A1E-EB116D500C4B}
  9
$VERSIONGUID
  2
{D2B76576-00EA-474A-93A0-0D39110E2B68}
  9
$EXTNAMES
290
     1
  9
$PSVPSCALE
 40
0.0
  9
$OLESTARTUP
290
     0
  9
$SORTENTS
280
   127
  9
$INDEXCTL
280
     0
  9
$HIDETEXT
280
     0
  9
$XCLIPFRAME
290
     0
  9
$HALOGAP
280
     0
  9
$OBSCOLOR
 70
   257
  9
$OBSLTYPE
280
     0
  9
$INTERSECTIONDISPLAY
280
     0
  9
$INTERSECTIONCOLOR
 70
   257
  9
$DIMASSOC
280
     1
  9
$PROJECTNAME
  1

  0
ENDSEC
  0
SECTION
  2
CLASSES
  0
CLASS
  1
DICTIONARYVAR
  2
AcDbDictionaryVar
  3
ObjectDBX Classes
 90
        0
 91
        7
280
     0
281
     0
  0
CLASS
  1
ACDBDICTIONARYWDFLT
  2
AcDbDictionaryWithDefault
  3
ObjectDBX Classes
 90
        0
 91
        1
280
     1
281
     0
  0
CLASS
  1
MATERIAL
  2
AcDbMaterial
  3
ObjectDBX Classes
 90
     1153
 91
        3
280
     0
281
     0
  0
CLASS
  1
VISUALSTYLE
  2
AcDbVisualStyle
  3
ObjectDBX Classes
 90
     4095
 91
       24
280
     0
281
     0
  0
CLASS
  1
TABLESTYLE
  2
AcDbTableStyle
  3
ObjectDBX Classes
 90
     4095
 91
        1
280
     0
281
     0
  0
CLASS
  1
SCALE
  2
AcDbScale
  3
ObjectDBX Classes
 90
     1153
 91
       17
280
     0
281
     0
  0
CLASS
  1
MLEADERSTYLE
  2
AcDbMLeaderStyle
  3
ACDB_MLEADERSTYLE_CLASS
 90
     4095
 91
        1
280
     0
281
     0
  0
CLASS
  1
ACDBSECTIONVIEWSTYLE
  2
AcDbSectionViewStyle
  3
ObjectDBX Classes
 90
     1025
 91
        2
280
     0
281
     0
  0
CLASS
  1
ACDBDETAILVIEWSTYLE
  2
AcDbDetailViewStyle
  3
ObjectDBX Classes
 90
     1025
 91
        2
280
     0
281
     0
  0
CLASS
  1
RAPIDRTRENDERSETTINGS
  2
AcDbRapidRTRenderSettings
  3
ObjectDBX Classes
 90
     1024
 91
        1
280
     0
281
     0
  0
CLASS
  1
CELLSTYLEMAP
  2
AcDbCellStyleMap
  3
ObjectDBX Classes
 90
     1152
 91
        2
280
     0
281
     0
  0
CLASS
  1
MENTALRAYRENDERSETTINGS
  2
AcDbMentalRayRenderSettings
  3
SCENEOE
 90
     1024
 91
        1
280
     0
281
     0
  0
CLASS
  1
SOLID_BACKGROUND
  2
AcDbSolidBackground
  3
SCENEOE
 90
     4095
 91
        0
280
     0
281
     0
  0
CLASS
  1
NPOCOLLECTION
  2
AcDbImpNonPersistentObjectsCollection
  3
ObjectDBX Classes
 90
     1153
 91
        0
280
     0
281
     0
  0
ENDSEC
  0
SECTION
  2
TABLES
  0
TABLE
  2
VPORT
  5
16
102
{ACAD_XDICTIONARY
360
705
102
}
330
0
100
AcDbSymbolTable
 70
     1
  0
VPORT
  5
45
330
16
100
AcDbSymbolTableRecord
100
AcDbViewportTableRecord
  2
*ACTIVE
 70
     0
 10
0.0
 20
0.0
 11
1.0
 21
1.0
 12
6875.23614245
 22
5000.00006985
 13
0.0
 23
0.0
 14
1.0
 24
1.0
 15
10.0
 25
10.0
 16
0.0
 26
0.0
 36
1.0
 17
0.0
 27
0.0
 37
0.0
 40
10115.91556487
 41
2.57722008
 42
50.0
 43
0.0
 44
0.0
 50
0.0
 51
0.0
 71
     0
 72
   100
 73
     1
 74
     0
 75
     0
 76
     0
 77
     0
 78
     0
281
     0
 65
     1
110
0.0
120
0.0
130
0.0
111
1.0
121
0.0
131
0.0
112
0.0
122
1.0
132
0.0
 79
     0
146
0.0
1001
ACAD_NAV_VCDISPLAY
1070
     1
  0
ENDTAB
  0
TABLE
  2
LTYPE
  5
11
330
0
100
AcDbSymbolTable
 70
     3
  0
LTYPE
  5
12
330
11
100
AcDbSymbolTableRecord
100
AcDbLinetypeTableRecord
  2
BYBLOCK
 70
     0
  3

 72
    65
 73
     0
 40
0.0
  0
LTYPE
  5
13
330
11
100
AcDbSymbolTableRecord
100
AcDbLinetypeTableRecord
  2
BYLAYER
 70
     0
  3

 72
    65
 73
     0
 40
0.0
  0
LTYPE
  5
7
330
11
100
AcDbSymbolTableRecord
100
AcDbLinetypeTableRecord
  2
CONTINUOUS
 70
     0
  3
Solid line
 72
    65
 73
     0
 40
0.0
  0
LTYPE
  5
102
330
11
100
AcDbSymbolTableRecord
100
AcDbLinetypeTableRecord
  2
PHANTOM
 70
     0
  3
_____ _ _ _____ _ _ _____ _ _ _____ _ _ ____  
 72
    65
 73
     6
 40
15.5
 49
8.0
 74
     0
 49
-1.5
 74
     0
 49
1.5
 74
     0
 49
-1.5
 74
     0
 49
1.5
 74
     0
 49
-1.5
 74
     0
  0
LTYPE
  5
112E
330
11
100
AcDbSymbolTableRecord
100
AcDbLinetypeTableRecord
  2
YHIDDEN_1
 70
     0
  3
破線尺度1－ － － － － － －
 72
    65
 73
     2
 40
4.0
 49
3.0
 74
     0
 49
-1.0
 74
     0
  0
ENDTAB
  0
TABLE
  2
LAYER
  5
E
102
{ACAD_XDICTIONARY
360
116
102
}
330
0
100
AcDbSymbolTable
 70
    12
  0
LAYER
  5
6
102
{ACAD_XDICTIONARY
360
B2
102
}
330
E
100
AcDbSymbolTableRecord
100
AcDbLayerTableRecord
  2
0
 70
     0
 62
     7
  6
CONTINUOUS
370
    -3
390
48
  0
LAYER
  5
24
102
{ACAD_XDICTIONARY
360
B4
102
}
330
E
100
AcDbSymbolTableRecord
100
AcDbLayerTableRecord
  2
YKK_F1
 70
     0
 62
     7
  6
CONTINUOUS
370
    -3
390
48
  0
LAYER
  5
103
330
E
100
AcDbSymbolTableRecord
100
AcDbLayerTableRecord
  2
YKK_A1
 70
     0
 62
     4
  6
CONTINUOUS
370
    30
390
48
1001
AcAecLayerStandard
1000

1000
姿図
  0
LAYER
  5
104
102
{ACAD_XDICTIONARY
360
105
102
}
330
E
100
AcDbSymbolTableRecord
100
AcDbLayerTableRecord
  2
YKK_B1
 70
     0
 62
     4
  6
CONTINUOUS
370
    -3
390
48
  0
LAYER
  5
106
102
{ACAD_XDICTIONARY
360
107
102
}
330
E
100
AcDbSymbolTableRecord
100
AcDbLayerTableRecord
  2
YKK_C1
 70
     0
 62
     4
  6
CONTINUOUS
370
    -3
390
48
  0
LAYER
  5
108
102
{ACAD_XDICTIONARY
360
109
102
}
330
E
100
AcDbSymbolTableRecord
100
AcDbLayerTableRecord
  2
YKK_N1
 70
     0
 62
     2
  6
CONTINUOUS
370
    -3
390
48
  0
LAYER
  5
10A
102
{ACAD_XDICTIONARY
360
10B
102
}
330
E
100
AcDbSymbolTableRecord
100
AcDbLayerTableRecord
  2
YKK_Z1
 70
     0
 62
     7
  6
CONTINUOUS
370
    -3
390
48
  0
LAYER
  5
10C
102
{ACAD_XDICTIONARY
360
10D
102
}
330
E
100
AcDbSymbolTableRecord
100
AcDbLayerTableRecord
  2
YKK_B2
 70
     0
 62
     5
  6
CONTINUOUS
370
    -3
390
48
  0
LAYER
  5
10E
102
{ACAD_XDICTIONARY
360
10F
102
}
330
E
100
AcDbSymbolTableRecord
100
AcDbLayerTableRecord
  2
YKK_C2
 70
     0
 62
     5
  6
CONTINUOUS
370
    -3
390
48
  0
LAYER
  5
110
330
E
100
AcDbSymbolTableRecord
100
AcDbLayerTableRecord
  2
YKK_B1E
 70
     2
 62
     7
  6
CONTINUOUS
370
    30
390
48
1001
AcAecLayerStandard
1000

1000
姿図
1001
AcCmTransparency
1071
        0
  0
LAYER
  5
111
330
E
100
AcDbSymbolTableRecord
100
AcDbLayerTableRecord
  2
YKK_C1E
 70
     2
 62
     7
  6
CONTINUOUS
370
    30
390
48
1001
AcAecLayerStandard
1000

1000
姿図
1001
AcCmTransparency
1071
        0
  0
ENDTAB
  0
TABLE
  2
STYLE
  5
F
330
0
100
AcDbSymbolTable
 70
     3
  0
STYLE
  5
10
330
F
100
AcDbSymbolTableRecord
100
AcDbTextStyleTableRecord
  2
STANDARD
 70
     0
 40
0.0
 41
1.0
 50
0.0
 71
     0
 42
0.2
  3
txt
  4

  0
STYLE
  5
3C
330
F
100
AcDbSymbolTableRecord
100
AcDbTextStyleTableRecord
  2
EXTFONT
 70
     0
 40
60.0
 41
1.0
 50
0.0
 71
     0
 42
60.0
  3
txt.shx
  4
EXTFONT
  0
STYLE
  5
112
330
F
100
AcDbSymbolTableRecord
100
AcDbTextStyleTableRecord
  2
MX_NOTE_STANDARD
 70
     0
 40
0.0
 41
1.0
 50
0.0
 71
     0
 42
3.0
  3
txt.shx
  4
extfont.shx
  0
ENDTAB
  0
TABLE
  2
VIEW
  5
14
330
0
100
AcDbSymbolTable
 70
     0
  0
ENDTAB
  0
TABLE
  2
UCS
  5
15
330
0
100
AcDbSymbolTable
 70
     0
  0
ENDTAB
  0
TABLE
  2
APPID
  5
18
330
0
100
AcDbSymbolTable
 70
     9
  0
APPID
  5
19
330
18
100
AcDbSymbolTableRecord
100
AcDbRegAppTableRecord
  2
ACAD
 70
     0
  0
APPID
  5
9E
330
18
100
AcDbSymbolTableRecord
100
AcDbRegAppTableRecord
  2
ACAD_NAV_VCDISPLAY
 70
     0
  0
APPID
  5
9F
330
18
100
AcDbSymbolTableRecord
100
AcDbRegAppTableRecord
  2
YKK_AP_LOCKLAYER
 70
     0
  0
APPID
  5
113
330
18
100
AcDbSymbolTableRecord
100
AcDbRegAppTableRecord
  2
AcAecLayerStandard
 70
     0
  0
APPID
  5
114
330
18
100
AcDbSymbolTableRecord
100
AcDbRegAppTableRecord
  2
YOBJCUT10427141548
 70
     0
  0
APPID
  5
115
330
18
100
AcDbSymbolTableRecord
100
AcDbRegAppTableRecord
  2
AcCmTransparency
 70
     0
  0
APPID
  5
6CE
330
18
100
AcDbSymbolTableRecord
100
AcDbRegAppTableRecord
  2
ACAD_EXEMPT_FROM_CAD_STANDARDS
 70
     0
  0
APPID
  5
73B
330
18
100
AcDbSymbolTableRecord
100
AcDbRegAppTableRecord
  2
ACAD_MLEADERVER
 70
     0
  0
APPID
  5
86D
330
18
100
AcDbSymbolTableRecord
100
AcDbRegAppTableRecord
  2
ACDBBLOCKREPETAG
 70
     0
  0
ENDTAB
  0
TABLE
  2
DIMSTYLE
  5
1A
330
0
100
AcDbSymbolTable
 70
     1
100
AcDbDimStyleTable
 71
     1
340
20
  0
DIMSTYLE
105
20
330
1A
100
AcDbSymbolTableRecord
100
AcDbDimStyleTableRecord
  2
STANDARD
 70
     0
279
     2
340
10
  0
ENDTAB
  0
TABLE
  2
BLOCK_RECORD
  5
1
330
0
100
AcDbSymbolTable
 70
     0
  0
BLOCK_RECORD
  5
2
102
{ACAD_XDICTIONARY
360
3
102
}
330
1
100
AcDbSymbolTableRecord
100
AcDbBlockTableRecord
  2
*MODEL_SPACE
340
98
  0
BLOCK_RECORD
  5
9
102
{ACAD_XDICTIONARY
360
A
102
}
330
1
100
AcDbSymbolTableRecord
100
AcDbBlockTableRecord
  2
*PAPER_SPACE
340
99
  0
ENDTAB
  0
ENDSEC
  0
SECTION
  2
BLOCKS
  0
BLOCK
  5
5
330
2
100
AcDbEntity
  8
0
100
AcDbBlockBegin
  2
*MODEL_SPACE
 70
     0
 10
0.0
 20
0.0
 30
0.0
  3
*MODEL_SPACE
  1

  0
ENDBLK
  5
8
330
2
100
AcDbEntity
  8
0
100
AcDbBlockEnd
  0
BLOCK
  5
C
330
9
100
AcDbEntity
 67
     1
  8
0
100
AcDbBlockBegin
  2
*PAPER_SPACE
 70
     0
 10
0.0
 20
0.0
 30
0.0
  3
*PAPER_SPACE
  1

  0
ENDBLK
  5
D
330
9
100
AcDbEntity
 67
     1
  8
0
100
AcDbBlockEnd
  0
ENDSEC
  0
SECTION
  2
ENTITIES
  0
LINE
  5
2C
330
2
100
AcDbEntity
  8
YKK_F1
 62
     7
100
AcDbLine
 10
0.0
 20
9300.0
 30
0.0
 11
13500.0
 21
9300.0
 31
0.0
  0
LINE
  5
2D
330
2
100
AcDbEntity
  8
YKK_F1
 62
     7
100
AcDbLine
 10
0.0
 20
9525.0
 30
0.0
 11
13500.0
 21
9525.0
 31
0.0
  0
LINE
  5
32
330
2
100
AcDbEntity
  8
YKK_F1
 62
     7
100
AcDbLine
 10
0.0
 20
9750.0
 30
0.0
 11
13500.0
 21
9750.0
 31
0.0
  0
LINE
  5
33
330
2
100
AcDbEntity
  8
YKK_F1
 62
     7
100
AcDbLine
 10
0.0
 20
0.0
 30
0.0
 11
13750.0
 21
0.0
 31
0.0
  0
LINE
  5
34
330
2
100
AcDbEntity
  8
YKK_F1
 62
     7
100
AcDbLine
 10
0.0
 20
10000.0
 30
0.0
 11
13750.0
 21
10000.0
 31
0.0
  0
LINE
  5
3A
330
2
100
AcDbEntity
  8
YKK_F1
 62
     7
100
AcDbLine
 10
0.0
 20
0.0
 30
0.0
 11
0.0
 21
10000.0
 31
0.0
  0
TEXT
  5
3B
330
2
100
AcDbEntity
  8
0
100
AcDbText
 10
50.0
 20
9368.75
 30
0.0
 40
87.5
  1
新設窓W=642 H=1,170
  7
EXTFONT
100
AcDbText
  0
TEXT
  5
3D
330
2
100
AcDbEntity
  8
0
100
AcDbText
 10
50.0
 20
9593.75
 30
0.0
 40
87.5
  1
居室仕様 【既設窓】：FIX窓 例：フレミングII 【新設窓】：樹脂窓 たてすべり出し窓
  7
EXTFONT
100
AcDbText
  0
TEXT
  5
3E
330
2
100
AcDbEntity
  8
0
100
AcDbText
 10
250.0
 20
9812.5
 30
0.0
 40
125.0
  1
ＭＡＤＲＸ０８　かんたんマドリモ　断熱窓　戸建用
  7
EXTFONT
100
AcDbText
  0
LINE
  5
3F
330
2
100
AcDbEntity
  8
YKK_F1
 62
     7
100
AcDbLine
 10
13500.0
 20
0.0
 30
0.0
 11
13500.0
 21
9750.0
 31
0.0
  0
LINE
  5
40
330
2
100
AcDbEntity
  8
YKK_F1
 62
     7
100
AcDbLine
 10
13750.0
 20
0.0
 30
0.0
 11
13750.0
 21
10000.0
 31
0.0
  0
TEXT
  5
7C9
330
2
100
AcDbEntity
  8
0
100
AcDbText
 10
8534.7087729
 20
9812.5
 30
0.0
 40
100.0
  1
※図面を簡略化しております。詳細につきましては、詳細図（納まり図）をご参照ください。
  7
EXTFONT
 72
     2
 11
13485.66115385
 21
9812.5
 31
0.0
100
AcDbText
  0
LINE
  5
1407
330
2
100
AcDbEntity
  8
YKK_Z1
  6
Continuous
 48
1.5
100
AcDbLine
 10
7679.00170486
 20
5388.00046765
 30
0.0
 11
7770.00003113
 21
5426.99975033
 31
0.0
  0
LINE
  5
1408
330
2
100
AcDbEntity
  8
YKK_Z1
  6
Continuous
 48
1.5
100
AcDbLine
 10
7770.00003286
 20
6690.00006565
 30
0.0
 11
7692.00003286
 21
6690.00006565
 31
0.0
  0
LINE
  5
1409
330
2
100
AcDbEntity
  8
YKK_Z1
  6
Continuous
 48
1.5
100
AcDbLine
 10
7692.00003286
 20
6690.00006565
 30
0.0
 11
7692.00003286
 21
6705.00006565
 31
0.0
  0
LINE
  5
140A
330
2
100
AcDbEntity
  8
YKK_Z1
  6
Continuous
 48
1.5
100
AcDbLine
 10
7770.00003286
 20
6705.00006565
 30
0.0
 11
7692.00003286
 21
6705.00006565
 31
0.0
  0
LINE
  5
140B
330
2
100
AcDbEntity
  8
YKK_Z1
  6
Continuous
 48
1.5
100
AcDbLine
 10
7770.00003286
 20
6705.00006565
 30
0.0
 11
7692.00003286
 21
6690.00006565
 31
0.0
  0
LINE
  5
140C
330
2
100
AcDbEntity
  8
YKK_Z1
  6
Continuous
 48
1.5
100
AcDbLine
 10
7692.0000708
 20
5426.99975049
 30
0.0
 11
7770.00003113
 21
5426.99975049
 31
0.0
  0
LINE
  5
140D
330
2
100
AcDbEntity
  8
YKK_Z1
  6
Continuous
 48
1.5
100
AcDbLine
 10
7770.00003113
 20
5446.99976349
 30
0.0
 11
7692.0000708
 21
5446.99976349
 31
0.0
  0
LINE
  5
140E
330
2
100
AcDbEntity
  8
YKK_Z1
  6
Continuous
 48
1.5
100
AcDbLine
 10
7692.00003113
 20
5446.99976349
 30
0.0
 11
7692.00003113
 21
5426.99974371
 31
0.0
  0
LINE
  5
140F
330
2
100
AcDbEntity
  8
YKK_Z1
  6
Continuous
 48
1.5
100
AcDbLine
 10
7692.00003113
 20
5426.99975049
 30
0.0
 11
7770.00003113
 21
5446.99976349
 31
0.0
  0
LINE
  5
1410
330
2
100
AcDbEntity
  8
YKK_Z1
  6
YHIDDEN_1
 48
1.5
100
AcDbLine
 10
7783.50003113
 20
5388.00046765
 30
0.0
 11
7783.49996981
 21
5446.9997632
 31
0.0
  0
LINE
  5
1411
330
2
100
AcDbEntity
  8
YKK_Z1
  6
Continuous
 48
1.5
100
AcDbLine
 10
7692.0000335
 20
6700.00006565
 30
0.0
 11
7665.0000335
 21
6700.00006565
 31
0.0
  0
LINE
  5
1412
330
2
100
AcDbEntity
  8
YKK_Z1
  6
Continuous
 48
1.5
100
AcDbLine
 10
7665.0000335
 20
6700.00006565
 30
0.0
 11
7665.0000335
 21
6705.00006565
 31
0.0
  0
LINE
  5
1413
330
2
100
AcDbEntity
  8
YKK_Z1
  6
Continuous
 48
1.5
100
AcDbLine
 10
7692.0000335
 20
6705.00006565
 30
0.0
 11
7665.0000335
 21
6705.00006565
 31
0.0
  0
LINE
  5
1414
330
2
100
AcDbEntity
  8
YKK_Z1
  6
Continuous
 48
1.5
100
AcDbLine
 10
7692.0000335
 20
6700.00006565
 30
0.0
 11
7692.0000335
 21
6705.00006565
 31
0.0
  0
LINE
  5
1415
330
2
100
AcDbEntity
  8
YKK_Z1
  6
Continuous
 48
1.5
100
AcDbLine
 10
7692.0000335
 20
6705.00006565
 30
0.0
 11
7665.0000335
 21
6700.00006565
 31
0.0
  0
LINE
  5
1416
330
2
100
AcDbEntity
  8
YKK_Z1
  6
Continuous
 48
1.5
100
AcDbLine
 10
7665.0000335
 20
6705.00006565
 30
0.0
 11
7731.49988305
 21
6733.50000117
 31
0.0
  0
LINE
  5
1417
330
2
100
AcDbEntity
  8
YKK_Z1
  6
YHIDDEN_1
 48
1.5
100
AcDbLine
 10
7783.5000335
 20
6690.00011172
 30
0.0
 11
7783.5000335
 21
6733.50000117
 31
0.0
  0
LINE
  5
1418
330
2
100
AcDbEntity
  8
YKK_Z1
  6
Continuous
 48
1.5
100
AcDbLine
 10
7656.70508994
 20
6733.50000117
 30
0.0
 11
7647.00001795
 21
6709.23732119
 31
0.0
  0
LINE
  5
1419
330
2
100
AcDbEntity
  8
YKK_Z1
  6
Continuous
 48
1.5
100
AcDbLine
 10
7647.00001795
 20
6709.23732119
 30
0.0
 11
7662.00003321
 21
6709.23732119
 31
0.0
  0
LINE
  5
141A
330
2
100
AcDbEntity
  8
YKK_Z1
  6
Continuous
 48
1.5
100
AcDbLine
 10
7665.00001795
 20
6709.23732119
 30
0.0
 11
7665.00001795
 21
6733.50000117
 31
0.0
  0
LINE
  5
141B
330
2
100
AcDbEntity
  8
YKK_Z1
  6
Continuous
 48
1.5
100
AcDbLine
 10
7647.00001795
 20
6733.50000117
 30
0.0
 11
7647.00001795
 21
6709.23732119
 31
0.0
  0
LINE
  5
141C
330
2
100
AcDbEntity
  8
YKK_C2
  6
Continuous
 48
1.5
100
AcDbLine
 10
7635.00001795
 20
6709.23732119
 30
0.0
 11
7635.00001795
 21
6699.23732119
 31
0.0
  0
LINE
  5
141D
330
2
100
AcDbEntity
  8
YKK_C2
  6
Continuous
 48
1.5
100
AcDbLine
 10
7648.00001795
 20
6709.23732119
 30
0.0
 11
7635.00001795
 21
6709.23732119
 31
0.0
  0
LINE
  5
141E
330
2
100
AcDbEntity
  8
YKK_C2
  6
Continuous
 48
1.5
100
AcDbLine
 10
7639.76442876
 20
6699.48701338
 30
0.0
 11
7645.00001795
 21
6704.72260256
 31
0.0
  0
LINE
  5
141F
330
2
100
AcDbEntity
  8
YKK_C2
  6
Continuous
 48
1.5
100
AcDbLine
 10
7635.00001795
 20
6700.37945681
 30
0.0
 11
7643.85788232
 21
6709.23732119
 31
0.0
  0
LINE
  5
1420
330
2
100
AcDbEntity
  8
YKK_C2
  6
Continuous
 48
1.5
100
AcDbLine
 10
7635.00001795
 20
6706.03631106
 30
0.0
 11
7638.20102807
 21
6709.23732119
 31
0.0
  0
LINE
  5
1421
330
2
100
AcDbEntity
  8
YKK_Z1
  6
Continuous
 48
1.5
100
AcDbLine
 10
7665.00001795
 20
6706.23732119
 30
0.0
 11
7665.00001795
 21
6700.49983177
 31
0.0
  0
LINE
  5
1422
330
2
100
AcDbEntity
  8
YKK_Z1
  6
Continuous
 48
1.5
100
AcDbLine
 10
7662.98368144
 20
6709.23732119
 30
0.0
 11
7648.00001795
 21
6709.23732119
 31
0.0
  0
LINE
  5
1423
330
2
100
AcDbEntity
  8
YKK_C2
  6
Continuous
 48
1.5
100
AcDbLine
 10
7645.00001795
 20
6709.23732119
 30
0.0
 11
7645.00001795
 21
6699.76139898
 31
0.0
  0
LINE
  5
1424
330
2
100
AcDbEntity
  8
YKK_C2
  6
Continuous
 48
1.5
100
AcDbLine
 10
7635.00001795
 20
5404.99662717
 30
0.0
 11
7635.00001795
 21
5414.99662717
 31
0.0
  0
LINE
  5
1425
330
2
100
AcDbEntity
  8
YKK_C2
  6
Continuous
 48
1.5
100
AcDbLine
 10
7648.00001795
 20
5404.99662717
 30
0.0
 11
7635.00001795
 21
5404.99662717
 31
0.0
  0
LINE
  5
1426
330
2
100
AcDbEntity
  8
YKK_C2
  6
Continuous
 48
1.5
100
AcDbLine
 10
7635.00001795
 20
5412.16820004
 30
0.0
 11
7637.83338823
 21
5415.00157033
 31
0.0
  0
LINE
  5
1427
330
2
100
AcDbEntity
  8
YKK_C2
  6
Continuous
 48
1.5
100
AcDbLine
 10
7635.00001795
 20
5406.51134579
 30
0.0
 11
7643.49024248
 21
5415.00157033
 31
0.0
  0
LINE
  5
1428
330
2
100
AcDbEntity
  8
YKK_C2
  6
Continuous
 48
1.5
100
AcDbLine
 10
7639.14215357
 20
5404.99662717
 30
0.0
 11
7645.00001795
 21
5410.85449154
 31
0.0
  0
LINE
  5
1429
330
2
100
AcDbEntity
  8
YKK_Z1
  6
Continuous
 48
1.5
100
AcDbLine
 10
7665.00001795
 20
5407.99662717
 30
0.0
 11
7665.00001795
 21
5413.73411658
 31
0.0
  0
LINE
  5
142A
330
2
100
AcDbEntity
  8
YKK_Z1
  6
Continuous
 48
1.5
100
AcDbLine
 10
7662.00001795
 20
5404.99662717
 30
0.0
 11
7648.00001795
 21
5404.99662717
 31
0.0
  0
LINE
  5
142B
330
2
100
AcDbEntity
  8
YKK_C2
  6
Continuous
 48
1.5
100
AcDbLine
 10
7645.00001795
 20
5404.99662717
 30
0.0
 11
7645.00001795
 21
5415.00157033
 31
0.0
  0
LINE
  5
142C
330
2
100
AcDbEntity
  8
YKK_Z1
  6
Continuous
 48
1.5
100
AcDbLine
 10
7662.99999744
 20
5399.9965759
 30
0.0
 11
7658.20155414
 21
5388.00046765
 31
0.0
  0
LINE
  5
142D
330
2
100
AcDbEntity
  8
YKK_Z1
  6
Continuous
 48
1.5
100
AcDbLine
 10
7647.00001795
 20
5404.99662717
 30
0.0
 11
7662.99999744
 21
5404.99662717
 31
0.0
  0
LINE
  5
142E
330
2
100
AcDbEntity
  8
YKK_Z1
  6
Continuous
 48
1.5
100
AcDbLine
 10
7665.00001795
 20
5404.99662717
 30
0.0
 11
7665.00001795
 21
5388.00046765
 31
0.0
  0
LINE
  5
142F
330
2
100
AcDbEntity
  8
YKK_Z1
  6
Continuous
 48
1.5
100
AcDbLine
 10
7647.00001795
 20
5388.00046765
 30
0.0
 11
7647.00001795
 21
5404.99662717
 31
0.0
  0
LINE
  5
1430
330
2
100
AcDbEntity
  8
YKK_Z1
  6
Continuous
 48
1.5
100
AcDbLine
 10
7770.00003113
 20
5388.00046765
 30
0.0
 11
7770.00003113
 21
5426.99975033
 31
0.0
  0
LINE
  5
1431
330
2
100
AcDbEntity
  8
YKK_Z1
  6
Continuous
 48
1.5
100
AcDbLine
 10
7770.00003113
 20
5426.99975033
 30
0.0
 11
7665.00003113
 21
5426.99975033
 31
0.0
  0
LINE
  5
1432
330
2
100
AcDbEntity
  8
YKK_Z1
  6
Continuous
 48
1.5
100
AcDbLine
 10
7665.00003113
 20
5426.99975033
 30
0.0
 11
7665.00003113
 21
5388.00046765
 31
0.0
  0
LINE
  5
1433
330
2
100
AcDbEntity
  8
YKK_Z1
  6
Continuous
 48
1.5
100
AcDbLine
 10
7770.00003113
 20
5388.00046765
 30
0.0
 11
7770.00003113
 21
5446.99976349
 31
0.0
  0
LINE
  5
1434
330
2
100
AcDbEntity
  8
YKK_Z1
  6
Continuous
 48
1.5
100
AcDbLine
 10
7782.50003113
 20
5446.99976349
 30
0.0
 11
7770.00003113
 21
5446.99976349
 31
0.0
  0
LINE
  5
1435
330
2
100
AcDbEntity
  8
YKK_Z1
  6
Continuous
 48
1.5
100
AcDbLine
 10
7665.0000335
 20
6733.50000117
 30
0.0
 11
7665.0000335
 21
6705.00006565
 31
0.0
  0
LINE
  5
1436
330
2
100
AcDbEntity
  8
YKK_Z1
  6
Continuous
 48
1.5
100
AcDbLine
 10
7665.0000335
 20
6705.00006565
 30
0.0
 11
7770.0000335
 21
6705.00006565
 31
0.0
  0
LINE
  5
1437
330
2
100
AcDbEntity
  8
YKK_Z1
  6
Continuous
 48
1.5
100
AcDbLine
 10
7770.0000335
 20
6733.50000117
 30
0.0
 11
7770.0000335
 21
6690.00011143
 31
0.0
  0
LINE
  5
1438
330
2
100
AcDbEntity
  8
YKK_Z1
  6
Continuous
 48
1.5
100
AcDbLine
 10
7770.0000335
 20
6690.00011143
 30
0.0
 11
7782.5000335
 21
6690.00011143
 31
0.0
  0
LINE
  5
1439
330
2
100
AcDbEntity
  8
YKK_C2
  6
Continuous
 48
1.5
100
AcDbLine
 10
7647.00001795
 20
6709.23732119
 30
0.0
 11
7635.00001795
 21
6709.23732119
 31
0.0
  0
LINE
  5
143A
330
2
100
AcDbEntity
  8
YKK_Z1
  6
Continuous
 48
1.5
100
AcDbLine
 10
7635.00001795
 20
6733.50000117
 30
0.0
 11
7635.00001795
 21
6709.23732119
 31
0.0
  0
LINE
  5
143B
330
2
100
AcDbEntity
  8
YKK_Z1
  6
Continuous
 48
1.5
100
AcDbLine
 10
7647.00001795
 20
6733.50000117
 30
0.0
 11
7647.00001795
 21
6709.23732119
 31
0.0
  0
LINE
  5
143C
330
2
100
AcDbEntity
  8
YKK_C2
  6
Continuous
 48
1.5
100
AcDbLine
 10
7647.00001795
 20
5404.99662717
 30
0.0
 11
7635.00001795
 21
5404.99662717
 31
0.0
  0
LINE
  5
143D
330
2
100
AcDbEntity
  8
YKK_Z1
  6
Continuous
 48
1.5
100
AcDbLine
 10
7635.00001795
 20
5388.00046765
 30
0.0
 11
7635.00001795
 21
5404.99662717
 31
0.0
  0
LINE
  5
143E
330
2
100
AcDbEntity
  8
YKK_Z1
  6
Continuous
 48
1.5
100
AcDbLine
 10
7647.00001795
 20
5388.00046765
 30
0.0
 11
7647.00001795
 21
5404.99662717
 31
0.0
  0
LINE
  5
143F
330
2
100
AcDbEntity
  8
YKK_Z1
  6
YHIDDEN_1
 48
1.5
100
AcDbLine
 10
5764.49927206
 20
3113.9997589
 30
0.00000001
 11
5699.49935909
 21
3114.00000025
 31
0.00000001
  0
LINE
  5
1440
330
2
100
AcDbEntity
  8
YKK_Z1
  6
Continuous
 48
1.5
100
AcDbLine
 10
4944.99978843
 20
3127.49986243
 30
0.00000001
 11
4902.49978843
 21
3169.99986243
 31
0.00000001
  0
LINE
  5
1441
330
2
100
AcDbEntity
  8
YKK_Z1
  6
Continuous
 48
1.5
100
AcDbLine
 10
4944.99978843
 20
3232.49986243
 30
0.00000001
 11
4902.49978843
 21
3189.99986243
 31
0.00000001
  0
LINE
  5
1442
330
2
100
AcDbEntity
  8
YKK_Z1
  6
Continuous
 48
1.5
100
AcDbLine
 10
4944.99985546
 20
3232.49979603
 30
0.00000001
 11
4957.49985546
 21
3232.49979603
 31
0.00000001
  0
LINE
  5
1443
330
2
100
AcDbEntity
  8
YKK_Z1
  6
Continuous
 48
1.5
100
AcDbLine
 10
4944.99985546
 20
3205.49979603
 30
0.00000001
 11
4957.49985546
 21
3205.49979603
 31
0.00000001
  0
LINE
  5
1444
330
2
100
AcDbEntity
  8
YKK_Z1
  6
Continuous
 48
1.5
100
AcDbLine
 10
4944.99985546
 20
3205.49979603
 30
0.00000001
 11
4944.99985546
 21
3232.49979603
 31
0.00000001
  0
LINE
  5
1445
330
2
100
AcDbEntity
  8
YKK_Z1
  6
Continuous
 48
1.5
100
AcDbLine
 10
4957.49985546
 20
3205.49979603
 30
0.00000001
 11
4957.49985546
 21
3232.49979603
 31
0.00000001
  0
LINE
  5
1446
330
2
100
AcDbEntity
  8
YKK_Z1
  6
Continuous
 48
1.5
100
AcDbLine
 10
4944.99985216
 20
3232.49979619
 30
0.00000001
 11
4957.49985546
 21
3205.49979603
 31
0.00000001
  0
LINE
  5
1447
330
2
100
AcDbEntity
  8
YKK_Z1
  6
Continuous
 48
1.5
100
AcDbLine
 10
4944.99972139
 20
3127.49979156
 30
0.00000001
 11
4944.99972139
 21
3205.49979156
 31
0.00000001
  0
LINE
  5
1448
330
2
100
AcDbEntity
  8
YKK_Z1
  6
Continuous
 48
1.5
100
AcDbLine
 10
4944.99972139
 20
3205.49979156
 30
0.00000001
 11
4957.49972124
 21
3205.49979156
 31
0.00000001
  0
LINE
  5
1449
330
2
100
AcDbEntity
  8
YKK_Z1
  6
Continuous
 48
1.5
100
AcDbLine
 10
4957.49972124
 20
3205.49979156
 30
0.00000001
 11
4957.49972124
 21
3127.49979156
 31
0.00000001
  0
LINE
  5
144A
330
2
100
AcDbEntity
  8
YKK_Z1
  6
Continuous
 48
1.5
100
AcDbLine
 10
4957.49972124
 20
3127.49979156
 30
0.00000001
 11
4944.99972139
 21
3127.49979156
 31
0.00000001
  0
LINE
  5
144B
330
2
100
AcDbEntity
  8
YKK_Z1
  6
Continuous
 48
1.5
100
AcDbLine
 10
4957.49972124
 20
3127.49979156
 30
0.00000001
 11
4944.99972139
 21
3205.49979156
 31
0.00000001
  0
LINE
  5
144C
330
2
100
AcDbEntity
  8
YKK_Z1
  6
Continuous
 48
1.5
100
AcDbLine
 10
5711.99927206
 20
3127.49979603
 30
0.00000001
 11
5764.49927206
 21
3179.99979603
 31
0.00000001
  0
LINE
  5
144D
330
2
100
AcDbEntity
  8
YKK_Z1
  6
Continuous
 48
1.5
100
AcDbLine
 10
5711.99927206
 20
3232.49979603
 30
0.00000001
 11
5764.49927206
 21
3179.99979603
 31
0.00000001
  0
LINE
  5
144E
330
2
100
AcDbEntity
  8
YKK_Z1
  6
Continuous
 48
1.5
100
AcDbLine
 10
5711.99927206
 20
3232.49979603
 30
0.00000001
 11
5699.49927206
 21
3232.49979603
 31
0.00000001
  0
LINE
  5
144F
330
2
100
AcDbEntity
  8
YKK_Z1
  6
Continuous
 48
1.5
100
AcDbLine
 10
5711.99927206
 20
3205.49979603
 30
0.00000001
 11
5699.49927206
 21
3205.49979603
 31
0.00000001
  0
LINE
  5
1450
330
2
100
AcDbEntity
  8
YKK_Z1
  6
Continuous
 48
1.5
100
AcDbLine
 10
5711.99927206
 20
3205.49979603
 30
0.00000001
 11
5711.99927206
 21
3232.49979603
 31
0.00000001
  0
LINE
  5
1451
330
2
100
AcDbEntity
  8
YKK_Z1
  6
Continuous
 48
1.5
100
AcDbLine
 10
5699.49927206
 20
3205.49979603
 30
0.00000001
 11
5699.49927206
 21
3232.49979603
 31
0.00000001
  0
LINE
  5
1452
330
2
100
AcDbEntity
  8
YKK_Z1
  6
Continuous
 48
1.5
100
AcDbLine
 10
5711.99927537
 20
3232.49979619
 30
0.00000001
 11
5699.49927206
 21
3205.49979603
 31
0.00000001
  0
LINE
  5
1453
330
2
100
AcDbEntity
  8
YKK_Z1
  6
Continuous
 48
1.5
100
AcDbLine
 10
5711.99927206
 20
3127.49979603
 30
0.00000001
 11
5711.99927206
 21
3205.49979603
 31
0.00000001
  0
LINE
  5
1454
330
2
100
AcDbEntity
  8
YKK_Z1
  6
Continuous
 48
1.5
100
AcDbLine
 10
5711.99927206
 20
3205.49979603
 30
0.00000001
 11
5699.49927221
 21
3205.49979603
 31
0.00000001
  0
LINE
  5
1455
330
2
100
AcDbEntity
  8
YKK_Z1
  6
Continuous
 48
1.5
100
AcDbLine
 10
5699.49927221
 20
3205.49979603
 30
0.00000001
 11
5699.49927221
 21
3127.49979603
 31
0.00000001
  0
LINE
  5
1456
330
2
100
AcDbEntity
  8
YKK_Z1
  6
Continuous
 48
1.5
100
AcDbLine
 10
5699.49927221
 20
3127.49979603
 30
0.00000001
 11
5711.99927206
 21
3205.49979603
 31
0.00000001
  0
LINE
  5
1457
330
2
100
AcDbEntity
  8
YKK_Z1
  6
YHIDDEN_1
 48
1.5
100
AcDbLine
 10
4902.49978843
 20
3114.00000001
 30
0.00000001
 11
4957.49973622
 21
3114.00000001
 31
0.00000001
  0
LINE
  5
1458
330
2
100
AcDbEntity
  8
YKK_Z1
  6
Continuous
 48
1.5
100
AcDbLine
 10
4955.2998531
 20
3234.50284216
 30
0.00000001
 11
4955.2998531
 21
3249.50000961
 31
0.00000001
  0
LINE
  5
1459
330
2
100
AcDbEntity
  8
YKK_B2
  6
Continuous
 48
1.5
100
AcDbLine
 10
4955.2998531
 20
3252.50000961
 30
0.00000001
 11
4965.0998531
 21
3252.50000961
 31
0.00000001
  0
LINE
  5
145A
330
2
100
AcDbEntity
  8
YKK_B2
  6
Continuous
 48
1.5
100
AcDbLine
 10
4955.2998531
 20
3262.50000961
 30
0.00000001
 11
4965.0998531
 21
3262.50000961
 31
0.00000001
  0
LINE
  5
145B
330
2
100
AcDbEntity
  8
YKK_B2
  6
Continuous
 48
1.5
100
AcDbLine
 10
4955.2998531
 20
3249.50000961
 30
0.00000001
 11
4955.2998531
 21
3262.50000961
 31
0.00000001
  0
LINE
  5
145C
330
2
100
AcDbEntity
  8
YKK_B2
  6
Continuous
 48
1.5
100
AcDbLine
 10
4965.09960202
 20
3257.78503435
 30
0.00000001
 11
4959.81456257
 21
3252.50000961
 31
0.00000001
  0
LINE
  5
145D
330
2
100
AcDbEntity
  8
YKK_B2
  6
Continuous
 48
1.5
100
AcDbLine
 10
4964.15770222
 20
3262.50000961
 30
0.00000001
 11
4955.2998531
 21
3253.64214523
 31
0.00000001
  0
LINE
  5
145E
330
2
100
AcDbEntity
  8
YKK_B2
  6
Continuous
 48
1.5
100
AcDbLine
 10
4958.50087239
 20
3262.50000961
 30
0.00000001
 11
4955.2998531
 21
3259.29900558
 31
0.00000001
  0
LINE
  5
145F
330
2
100
AcDbEntity
  8
YKK_Z1
  6
Continuous
 48
1.5
100
AcDbLine
 10
4950.29277212
 20
3234.50284216
 30
0.00000001
 11
4910.2998531
 21
3250.50000977
 31
0.00000001
  0
LINE
  5
1460
330
2
100
AcDbEntity
  8
YKK_Z1
  6
Continuous
 48
1.5
100
AcDbLine
 10
4955.2998531
 20
3250.50000977
 30
0.00000001
 11
4955.2998531
 21
3235.50000977
 31
0.00000001
  0
LINE
  5
1461
330
2
100
AcDbEntity
  8
YKK_Z1
  6
Continuous
 48
1.5
100
AcDbLine
 10
4910.2998531
 20
3250.50000977
 30
0.00000001
 11
4910.2998531
 21
3232.49986243
 31
0.00000001
  0
LINE
  5
1462
330
2
100
AcDbEntity
  8
YKK_Z1
  6
Continuous
 48
1.5
100
AcDbLine
 10
4955.2998531
 20
3250.50000977
 30
0.00000001
 11
4910.2998531
 21
3250.50000977
 31
0.00000001
  0
LINE
  5
1463
330
2
100
AcDbEntity
  8
YKK_B2
  6
Continuous
 48
1.5
100
AcDbLine
 10
5701.70091831
 20
3262.49979601
 30
0.00000001
 11
5691.89999059
 21
3262.49979601
 31
0.00000001
  0
LINE
  5
1464
330
2
100
AcDbEntity
  8
YKK_B2
  6
Continuous
 48
1.5
100
AcDbLine
 10
5701.70091831
 20
3249.49979601
 30
0.00000001
 11
5701.70091831
 21
3262.49979601
 31
0.00000001
  0
LINE
  5
1465
330
2
100
AcDbEntity
  8
YKK_B2
  6
Continuous
 48
1.5
100
AcDbLine
 10
5696.21562778
 20
3252.49979601
 30
0.00000001
 11
5701.70091831
 21
3257.98507128
 31
0.00000001
  0
LINE
  5
1466
330
2
100
AcDbEntity
  8
YKK_B2
  6
Continuous
 48
1.5
100
AcDbLine
 10
5691.89999059
 20
3253.84100426
 30
0.00000001
 11
5700.55876743
 21
3262.49979601
 31
0.00000001
  0
LINE
  5
1467
330
2
100
AcDbEntity
  8
YKK_B2
  6
Continuous
 48
1.5
100
AcDbLine
 10
5691.89999059
 20
3259.49786332
 30
0.00000001
 11
5694.9019376
 21
3262.49979601
 31
0.00000001
  0
LINE
  5
1468
330
2
100
AcDbEntity
  8
YKK_Z1
  6
Continuous
 48
1.5
100
AcDbLine
 10
5701.70091831
 20
3234.50284216
 30
0.00000001
 11
5701.70091831
 21
3249.49979601
 31
0.00000001
  0
LINE
  5
1469
330
2
100
AcDbEntity
  8
YKK_B2
  6
Continuous
 48
1.5
100
AcDbLine
 10
5701.70091831
 20
3252.49979601
 30
0.00000001
 11
5691.89999059
 21
3252.49979601
 31
0.00000001
  0
LINE
  5
146A
330
2
100
AcDbEntity
  8
YKK_Z1
  6
Continuous
 48
1.5
100
AcDbLine
 10
5709.53759187
 20
3234.50284743
 30
0.00000001
 11
5746.70091831
 21
3250.49979617
 31
0.00000001
  0
LINE
  5
146B
330
2
100
AcDbEntity
  8
YKK_Z1
  6
Continuous
 48
1.5
100
AcDbLine
 10
5701.70091831
 20
3250.49979617
 30
0.00000001
 11
5701.70091831
 21
3235.49979617
 31
0.00000001
  0
LINE
  5
146C
330
2
100
AcDbEntity
  8
YKK_Z1
  6
Continuous
 48
1.5
100
AcDbLine
 10
5746.70091831
 20
3250.49979617
 30
0.00000001
 11
5746.70091831
 21
3232.49979603
 31
0.00000001
  0
LINE
  5
146D
330
2
100
AcDbEntity
  8
YKK_Z1
  6
Continuous
 48
1.5
100
AcDbLine
 10
5701.70091831
 20
3250.49979617
 30
0.00000001
 11
5746.70091831
 21
3250.49979617
 31
0.00000001
  0
LINE
  5
146E
330
2
100
AcDbEntity
  8
YKK_Z1
  6
Continuous
 48
1.5
100
AcDbLine
 10
5699.49923978
 20
3114.99979603
 30
0.00000001
 11
5699.49923978
 21
3127.49979603
 31
0.00000001
  0
LINE
  5
146F
330
2
100
AcDbEntity
  8
YKK_Z1
  6
Continuous
 48
1.5
100
AcDbLine
 10
5764.49927206
 20
3127.49979603
 30
0.00000001
 11
5699.49923978
 21
3127.49979603
 31
0.00000001
  0
LINE
  5
1470
330
2
100
AcDbEntity
  8
YKK_Z1
  6
Continuous
 48
1.5
100
AcDbLine
 10
4902.49978843
 20
3232.49986243
 30
0.00000001
 11
4944.99978843
 21
3232.49986243
 31
0.00000001
  0
LINE
  5
1471
330
2
100
AcDbEntity
  8
YKK_Z1
  6
Continuous
 48
1.5
100
AcDbLine
 10
4944.99978843
 20
3232.49986243
 30
0.00000001
 11
4944.99978843
 21
3127.49986243
 31
0.00000001
  0
LINE
  5
1472
330
2
100
AcDbEntity
  8
YKK_Z1
  6
Continuous
 48
1.5
100
AcDbLine
 10
4944.99978843
 20
3127.49986243
 30
0.00000001
 11
4902.49978843
 21
3127.49986243
 31
0.00000001
  0
LINE
  5
1473
330
2
100
AcDbEntity
  8
YKK_Z1
  6
Continuous
 48
1.5
100
AcDbLine
 10
4902.49978843
 20
3127.4998669
 30
0.00000001
 11
4957.49975367
 21
3127.4998669
 31
0.00000001
  0
LINE
  5
1474
330
2
100
AcDbEntity
  8
YKK_Z1
  6
Continuous
 48
1.5
100
AcDbLine
 10
4957.49975367
 20
3114.9998669
 30
0.00000001
 11
4957.49975367
 21
3127.4998669
 31
0.00000001
  0
LINE
  5
1475
330
2
100
AcDbEntity
  8
YKK_Z1
  6
Continuous
 48
1.5
100
AcDbLine
 10
5764.49927206
 20
3232.49979603
 30
0.00000001
 11
5711.99927206
 21
3232.49979603
 31
0.00000001
  0
LINE
  5
1476
330
2
100
AcDbEntity
  8
YKK_Z1
  6
Continuous
 48
1.5
100
AcDbLine
 10
5711.99927206
 20
3232.49979603
 30
0.00000001
 11
5711.99927206
 21
3127.49979603
 31
0.00000001
  0
LINE
  5
1477
330
2
100
AcDbEntity
  8
YKK_Z1
  6
Continuous
 48
1.5
100
AcDbLine
 10
5711.99927206
 20
3127.49979603
 30
0.00000001
 11
5764.49927206
 21
3127.49979603
 31
0.00000001
  0
LINE
  5
1478
330
2
100
AcDbEntity
  8
YKK_Z1
  6
Continuous
 48
1.5
100
AcDbLine
 10
4902.49978843
 20
3262.50000961
 30
0.00000001
 11
4955.2998531
 21
3262.50000961
 31
0.00000001
  0
LINE
  5
1479
330
2
100
AcDbEntity
  8
YKK_Z1
  6
Continuous
 48
1.5
100
AcDbLine
 10
4902.49978843
 20
3250.50000961
 30
0.00000001
 11
4955.2998531
 21
3250.50000961
 31
0.00000001
  0
LINE
  5
147A
330
2
100
AcDbEntity
  8
YKK_B2
  6
Continuous
 48
1.5
100
AcDbLine
 10
4955.2998531
 20
3250.50000961
 30
0.00000001
 11
4955.2998531
 21
3262.50000961
 31
0.00000001
  0
LINE
  5
147B
330
2
100
AcDbEntity
  8
YKK_Z1
  6
Continuous
 48
1.5
100
AcDbLine
 10
5764.49927206
 20
3262.49979601
 30
0.00000001
 11
5701.70091831
 21
3262.49979601
 31
0.00000001
  0
LINE
  5
147C
330
2
100
AcDbEntity
  8
YKK_Z1
  6
Continuous
 48
1.5
100
AcDbLine
 10
5764.49927206
 20
3250.49979601
 30
0.00000001
 11
5701.70091831
 21
3250.49979601
 31
0.00000001
  0
LINE
  5
147D
330
2
100
AcDbEntity
  8
YKK_B2
  6
Continuous
 48
1.5
100
AcDbLine
 10
5701.70091831
 20
3250.49979601
 30
0.00000001
 11
5701.70091831
 21
3262.49979601
 31
0.00000001
  0
LINE
  5
147E
330
2
100
AcDbEntity
  8
YKK_Z1
100
AcDbLine
 10
7759.69941064
 20
6670.00000021
 30
0.0
 11
7779.69941032
 21
6689.99999988
 31
0.0
  0
LINE
  5
147F
330
2
100
AcDbEntity
  8
YKK_Z1
100
AcDbLine
 10
7730.0009258
 20
6670.00000018
 30
0.0
 11
7750.00092551
 21
6689.99999988
 31
0.0
  0
LINE
  5
1480
330
2
100
AcDbEntity
  8
YKK_Z1
100
AcDbLine
 10
7703.30244099
 20
6673.00000018
 30
0.0
 11
7720.3024407
 21
6689.99999988
 31
0.0
  0
LINE
  5
1481
330
2
100
AcDbEntity
  8
YKK_Z1
100
AcDbLine
 10
7700.4911591
 20
5463.99976303
 30
0.0
 11
7717.4911588
 21
5446.99976333
 31
0.0
  0
LINE
  5
1482
330
2
100
AcDbEntity
  8
YKK_Z1
100
AcDbLine
 10
7747.18964361
 20
5446.99976333
 30
0.0
 11
7727.18964391
 21
5466.99976303
 31
0.0
  0
LINE
  5
1483
330
2
100
AcDbEntity
  8
YKK_Z1
100
AcDbLine
 10
7776.88812842
 20
5446.99976333
 30
0.0
 11
7756.88812872
 21
5466.99976303
 31
0.0
  0
LINE
  5
1484
330
2
100
AcDbEntity
  8
YKK_Z1
100
AcDbLine
 10
5699.49923985
 20
3195.83790647
 30
0.00000001
 11
5679.49924014
 21
3175.83790677
 31
0.00000001
  0
LINE
  5
1485
330
2
100
AcDbEntity
  8
YKK_Z1
100
AcDbLine
 10
5699.49923985
 20
3166.13942166
 30
0.00000001
 11
5679.49924014
 21
3146.13942196
 31
0.00000001
  0
LINE
  5
1486
330
2
100
AcDbEntity
  8
YKK_Z1
100
AcDbLine
 10
5699.49923985
 20
3136.44093685
 30
0.00000001
 11
5679.49924014
 21
3116.44093715
 31
0.00000001
  0
LINE
  5
1487
330
2
100
AcDbEntity
  8
YKK_Z1
100
AcDbLine
 10
4957.4998554
 20
3195.83791577
 30
0.00000001
 11
4977.50098647
 21
3175.8367847
 31
0.00000001
  0
LINE
  5
1488
330
2
100
AcDbEntity
  8
YKK_Z1
100
AcDbLine
 10
4957.49985543
 20
3166.13943093
 30
0.00000001
 11
4977.50098647
 21
3146.13829989
 31
0.00000001
  0
LINE
  5
1489
330
2
100
AcDbEntity
  8
YKK_Z1
100
AcDbLine
 10
4957.49985545
 20
3136.4409461
 30
0.00000001
 11
4977.50098647
 21
3116.43981508
 31
0.00000001
  0
LINE
  5
148A
330
2
100
AcDbEntity
  8
YKK_C2
100
AcDbLine
 10
7781.98368818
 20
6613.00032831
 30
0.0
 11
7781.98368818
 21
5503.00000001
 31
0.0
  0
LINE
  5
148B
330
2
100
AcDbEntity
  8
YKK_Z1
  6
Continuous
 48
1.5
100
AcDbLine
 10
7753.98368818
 20
5468.00000001
 30
0.0
 11
7707.00003318
 21
5466.9997632
 31
0.0
  0
LINE
  5
148C
330
2
100
AcDbEntity
  8
YKK_Z1
  6
Continuous
 48
1.5
100
AcDbLine
 10
7753.98368818
 20
6670.00011172
 30
0.0
 11
7690.53618566
 21
6660.00000001
 31
0.0
  0
LINE
  5
148D
330
2
100
AcDbEntity
  8
YKK_Z1
  6
Continuous
 48
1.5
100
AcDbLine
 10
7721.18368818
 20
6670.00000001
 30
0.0
 11
7721.18368818
 21
6668.40000001
 31
0.0
  0
LINE
  5
148E
330
2
100
AcDbEntity
  8
YKK_Z1
  6
Continuous
 48
1.5
100
AcDbLine
 10
7721.18368818
 20
6668.40000001
 30
0.0
 11
7690.53618566
 21
6668.40000001
 31
0.0
  0
LINE
  5
148F
330
2
100
AcDbEntity
  8
YKK_Z1
  6
Continuous
 48
1.5
100
AcDbLine
 10
4977.49983458
 20
3188.002847
 30
0.00000001
 11
5003.19985594
 21
3143.50284245
 31
0.00000001
  0
LINE
  5
1490
330
2
100
AcDbEntity
  8
YKK_Z1
  6
Continuous
 48
1.5
100
AcDbLine
 10
5679.49924008
 20
3188.00284245
 30
0.00000001
 11
5653.79985594
 21
3143.50284245
 31
0.00000001
  0
LINE
  5
1491
330
2
100
AcDbEntity
  8
YKK_B2
100
AcDbLine
 10
5037.49985594
 20
3115.50284245
 30
0.00000001
 11
5619.49999971
 21
3115.50284245
 31
0.00000001
  0
LINE
  5
1492
330
2
100
AcDbEntity
  8
YKK_Z1
  6
Continuous
 48
1.5
100
AcDbLine
 10
4977.49985594
 20
3208.10284245
 30
0.00000001
 11
4982.49985594
 21
3188.00284245
 31
0.00000001
  0
LINE
  5
1493
330
2
100
AcDbEntity
  8
YKK_Z1
  6
Continuous
 48
1.5
100
AcDbLine
 10
5679.49998775
 20
3208.10284772
 30
0.00000001
 11
5674.49999999
 21
3188.00284245
 31
0.00000001
  0
LINE
  5
1494
330
2
100
AcDbEntity
  8
YKK_B2
100
AcDbLine
 10
5031.49985811
 20
3103.00000001
 30
0.00000001
 11
5625.49999801
 21
3103.00000001
 31
0.00000001
  0
LINE
  5
1495
330
2
100
AcDbEntity
  8
YKK_C2
100
AcDbLine
 10
7794.5
 20
6708.99999804
 30
0.0
 11
7797.5
 21
6708.99999804
 31
0.0
  0
LINE
  5
1496
330
2
100
AcDbEntity
  8
YKK_C2
100
AcDbLine
 10
7797.5
 20
6708.99999804
 30
0.0
 11
7797.5
 21
5407.00000224
 31
0.0
  0
LINE
  5
1497
330
2
100
AcDbEntity
  8
YKK_Z1
  6
Continuous
 48
1.5
100
AcDbLine
 10
7783.5
 20
6670.00000001
 30
0.0
 11
7753.9800022
 21
6632.59999804
 31
0.0
  0
LINE
  5
1498
330
2
100
AcDbEntity
  8
YKK_Z1
  6
Continuous
 48
1.5
100
AcDbLine
 10
7783.50000047
 20
5483.40000204
 30
0.0
 11
7753.98001581
 21
5466.99976422
 31
0.0
  0
LINE
  5
1499
330
2
100
AcDbEntity
  8
YKK_Z1
  6
Continuous
 48
1.5
100
AcDbLine
 10
4977.4998542
 20
3143.50284245
 30
-0.00000001
 11
5017.89985694
 21
3114.00284501
 31
0.00000001
  0
LINE
  5
149A
330
2
100
AcDbEntity
  8
YKK_Z1
  6
Continuous
 48
1.5
100
AcDbLine
 10
5679.50076159
 20
3143.50335005
 30
0.00000001
 11
5639.10075887
 21
3114.00335262
 31
0.00000001
  0
LINE
  5
149B
330
2
100
AcDbEntity
  8
YKK_Z1
  6
ByBlock
 48
0.5
370
    -2
100
AcDbLine
 10
7693.00003081
 20
5446.9997632
 30
0.0
 11
7783.49996981
 21
5446.9997632
 31
0.0
  0
LINE
  5
149C
330
2
100
AcDbEntity
  8
YKK_Z1
  6
ByBlock
 48
0.5
370
    -2
100
AcDbLine
 10
7783.49996981
 20
5446.9997632
 30
0.0
 11
7783.49996981
 21
5466.9997632
 31
0.0
  0
LINE
  5
149D
330
2
100
AcDbEntity
  8
YKK_Z1
  6
ByBlock
 48
0.5
370
    -2
100
AcDbLine
 10
7783.49996981
 20
5466.9997632
 30
0.0
 11
7707.00003081
 21
5466.9997632
 31
0.0
  0
LINE
  5
149E
330
2
100
AcDbEntity
  8
YKK_Z1
  6
ByBlock
 48
0.5
370
    -2
100
AcDbLine
 10
7707.00003081
 20
5466.9997632
 30
0.0
 11
7707.00003081
 21
5463.9997632
 31
0.0
  0
LINE
  5
149F
330
2
100
AcDbEntity
  8
YKK_Z1
  6
ByBlock
 48
0.5
370
    -2
100
AcDbLine
 10
7707.00003081
 20
5463.9997632
 30
0.0
 11
7695.00003081
 21
5463.9997632
 31
0.0
  0
LINE
  5
14A0
330
2
100
AcDbEntity
  8
YKK_Z1
  6
ByBlock
 48
0.5
370
    -2
100
AcDbLine
 10
7695.00003081
 20
5463.9997632
 30
0.0
 11
7693.00003081
 21
5461.9997632
 31
0.0
  0
LINE
  5
14A1
330
2
100
AcDbEntity
  8
YKK_Z1
  6
ByBlock
 48
0.5
370
    -2
100
AcDbLine
 10
7693.00003081
 20
5461.9997632
 30
0.0
 11
7693.00003081
 21
5446.9997632
 31
0.0
  0
LINE
  5
14A2
330
2
100
AcDbEntity
  8
YKK_Z1
  6
ByBlock
 48
0.5
370
    -2
100
AcDbLine
 10
7692.98368118
 20
6690.00000001
 30
0.0
 11
7783.48362018
 21
6690.00000001
 31
0.0
  0
LINE
  5
14A3
330
2
100
AcDbEntity
  8
YKK_Z1
  6
ByBlock
 48
0.5
370
    -2
100
AcDbLine
 10
7783.48362018
 20
6690.00000001
 30
0.0
 11
7783.48362018
 21
6670.00000001
 31
0.0
  0
LINE
  5
14A4
330
2
100
AcDbEntity
  8
YKK_Z1
  6
ByBlock
 48
0.5
370
    -2
100
AcDbLine
 10
7783.48362018
 20
6670.00000001
 30
0.0
 11
7706.98368118
 21
6670.00000001
 31
0.0
  0
LINE
  5
14A5
330
2
100
AcDbEntity
  8
YKK_Z1
  6
ByBlock
 48
0.5
370
    -2
100
AcDbLine
 10
7706.98368118
 20
6670.00000001
 30
0.0
 11
7706.98368118
 21
6673.00000001
 31
0.0
  0
LINE
  5
14A6
330
2
100
AcDbEntity
  8
YKK_Z1
  6
ByBlock
 48
0.5
370
    -2
100
AcDbLine
 10
7706.98368118
 20
6673.00000001
 30
0.0
 11
7694.98368118
 21
6673.00000001
 31
0.0
  0
LINE
  5
14A7
330
2
100
AcDbEntity
  8
YKK_Z1
  6
ByBlock
 48
0.5
370
    -2
100
AcDbLine
 10
7694.98368118
 20
6673.00000001
 30
0.0
 11
7692.98368118
 21
6675.00000001
 31
0.0
  0
LINE
  5
14A8
330
2
100
AcDbEntity
  8
YKK_Z1
  6
ByBlock
 48
0.5
370
    -2
100
AcDbLine
 10
7692.98368118
 20
6675.00000001
 30
0.0
 11
7692.98368118
 21
6690.00000001
 31
0.0
  0
LINE
  5
14A9
330
2
100
AcDbEntity
  8
YKK_Z1
  6
ByBlock
 48
0.5
370
    -2
100
AcDbLine
 10
5699.49924007
 20
3204.49979625
 30
0.00000001
 11
5699.49924009
 21
3114.00000025
 31
0.00000001
  0
LINE
  5
14AA
330
2
100
AcDbEntity
  8
YKK_Z1
  6
ByBlock
370
    -2
100
AcDbLine
 10
5699.49935909
 20
3114.00000025
 30
0.00000001
 11
5679.49924009
 21
3114.00000025
 31
0.00000001
  0
LINE
  5
14AB
330
2
100
AcDbEntity
  8
YKK_Z1
  6
ByBlock
 48
0.5
370
    -2
100
AcDbLine
 10
5679.49924009
 20
3114.00000025
 30
0.00000001
 11
5679.49924008
 21
3190.49979625
 31
0.00000001
  0
LINE
  5
14AC
330
2
100
AcDbEntity
  8
YKK_Z1
  6
ByBlock
 48
0.5
370
    -2
100
AcDbLine
 10
5679.49924008
 20
3190.49979625
 30
0.00000001
 11
5682.49924008
 21
3190.49979625
 31
0.00000001
  0
LINE
  5
14AD
330
2
100
AcDbEntity
  8
YKK_Z1
  6
ByBlock
 48
0.5
370
    -2
100
AcDbLine
 10
5682.49924008
 20
3190.49979625
 30
0.00000001
 11
5682.49924007
 21
3202.49979625
 31
0.00000001
  0
LINE
  5
14AE
330
2
100
AcDbEntity
  8
YKK_Z1
  6
ByBlock
 48
0.5
370
    -2
100
AcDbLine
 10
5682.49924007
 20
3202.49979625
 30
0.00000001
 11
5684.49924007
 21
3204.49979625
 31
0.00000001
  0
LINE
  5
14AF
330
2
100
AcDbEntity
  8
YKK_Z1
  6
ByBlock
 48
0.5
370
    -2
100
AcDbLine
 10
5684.49924007
 20
3204.49979625
 30
0.00000001
 11
5699.49924007
 21
3204.49979625
 31
0.00000001
  0
LINE
  5
14B0
330
2
100
AcDbEntity
  8
YKK_Z1
  6
ByBlock
 48
0.5
370
    -2
100
AcDbLine
 10
4957.49985517
 20
3204.49979625
 30
0.00000001
 11
4957.49985522
 21
3114.00000025
 31
0.00000001
  0
LINE
  5
14B1
330
2
100
AcDbEntity
  8
YKK_Z1
  6
ByBlock
370
    -2
100
AcDbLine
 10
4957.49973622
 20
3114.00000025
 30
0.00000001
 11
4977.49985522
 21
3114.00000026
 31
0.00000001
  0
LINE
  5
14B2
330
2
100
AcDbEntity
  8
YKK_Z1
  6
ByBlock
 48
0.5
370
    -2
100
AcDbLine
 10
4977.49985522
 20
3114.00000026
 30
0.00000001
 11
4977.49985518
 21
3190.49979626
 31
0.00000001
  0
LINE
  5
14B3
330
2
100
AcDbEntity
  8
YKK_Z1
  6
ByBlock
 48
0.5
370
    -2
100
AcDbLine
 10
4977.49985518
 20
3190.49979626
 30
0.00000001
 11
4974.49985518
 21
3190.49979626
 31
0.00000001
  0
LINE
  5
14B4
330
2
100
AcDbEntity
  8
YKK_Z1
  6
ByBlock
 48
0.5
370
    -2
100
AcDbLine
 10
4974.49985518
 20
3190.49979626
 30
0.00000001
 11
4974.49985517
 21
3202.49979626
 31
0.00000001
  0
LINE
  5
14B5
330
2
100
AcDbEntity
  8
YKK_Z1
  6
ByBlock
 48
0.5
370
    -2
100
AcDbLine
 10
4974.49985517
 20
3202.49979626
 30
0.00000001
 11
4972.49985517
 21
3204.49979626
 31
0.00000001
  0
LINE
  5
14B6
330
2
100
AcDbEntity
  8
YKK_Z1
  6
ByBlock
 48
0.5
370
    -2
100
AcDbLine
 10
4972.49985517
 20
3204.49979626
 30
0.00000001
 11
4957.49985517
 21
3204.49979625
 31
0.00000001
  0
LINE
  5
14B7
330
2
100
AcDbEntity
  8
YKK_Z1
  6
Continuous
 48
1.5
100
AcDbLine
 10
7707.00003318
 20
5468.00000001
 30
0.0
 11
7753.98368818
 21
5468.00000001
 31
0.0
  0
LINE
  5
14B8
330
2
100
AcDbEntity
  8
YKK_Z1
  6
Continuous
 48
1.5
100
AcDbLine
 10
7753.98368818
 20
5468.00000001
 30
0.0
 11
7753.98368818
 21
5466.9997632
 31
0.0
  0
LINE
  5
14B9
330
2
100
AcDbEntity
  8
YKK_Z1
  6
Continuous
 48
1.5
100
AcDbLine
 10
7753.98368818
 20
5466.9997632
 30
0.0
 11
7707.00003318
 21
5466.9997632
 31
0.0
  0
LINE
  5
14BA
330
2
100
AcDbEntity
  8
YKK_Z1
  6
Continuous
 48
1.5
100
AcDbLine
 10
7707.00003318
 20
5466.9997632
 30
0.0
 11
7707.00003318
 21
5468.00000001
 31
0.0
  0
LINE
  5
14BB
330
2
100
AcDbEntity
  8
YKK_Z1
  6
Continuous
 48
1.5
100
AcDbLine
 10
7721.18368818
 20
6670.00000001
 30
0.0
 11
7753.98368818
 21
6670.00011172
 31
0.0
  0
LINE
  5
14BC
330
2
100
AcDbEntity
  8
YKK_Z1
  6
Continuous
 48
1.5
100
AcDbLine
 10
7753.98368818
 20
6670.00011172
 30
0.0
 11
7753.98368818
 21
6660.00000001
 31
0.0
  0
LINE
  5
14BD
330
2
100
AcDbEntity
  8
YKK_Z1
  6
Continuous
 48
1.5
100
AcDbLine
 10
7753.98368818
 20
6660.00000001
 30
0.0
 11
7690.53618566
 21
6660.00000001
 31
0.0
  0
LINE
  5
14BE
330
2
100
AcDbEntity
  8
YKK_Z1
  6
Continuous
 48
1.5
100
AcDbLine
 10
7690.53618566
 20
6660.00000001
 30
0.0
 11
7690.53618566
 21
6668.40011172
 31
0.0
  0
LINE
  5
14BF
330
2
100
AcDbEntity
  8
YKK_Z1
  6
Continuous
 48
1.5
100
AcDbLine
 10
4977.49985519
 20
3188.00284245
 30
0.00000001
 11
5003.19985594
 21
3188.00284245
 31
0.00000001
  0
LINE
  5
14C0
330
2
100
AcDbEntity
  8
YKK_Z1
  6
Continuous
 48
1.5
100
AcDbLine
 10
5003.19985594
 20
3188.00284245
 30
0.00000001
 11
5003.19985594
 21
3143.50284245
 31
0.00000001
  0
LINE
  5
14C1
330
2
100
AcDbEntity
  8
YKK_Z1
  6
Continuous
 48
1.5
100
AcDbLine
 10
5003.19985594
 20
3143.50284245
 30
0.00000001
 11
4977.49985519
 21
3143.50284245
 31
0.00000001
  0
LINE
  5
14C2
330
2
100
AcDbEntity
  8
YKK_Z1
  6
Continuous
 48
1.5
100
AcDbLine
 10
4977.49985519
 20
3143.50284245
 30
0.00000001
 11
4977.49985519
 21
3188.00284245
 31
0.00000001
  0
LINE
  5
14C3
330
2
100
AcDbEntity
  8
YKK_Z1
  6
Continuous
 48
1.5
100
AcDbLine
 10
5679.49924008
 20
3188.00284245
 30
0.00000001
 11
5653.79985594
 21
3188.00284245
 31
0.00000001
  0
LINE
  5
14C4
330
2
100
AcDbEntity
  8
YKK_Z1
  6
Continuous
 48
1.5
100
AcDbLine
 10
5653.79985594
 20
3188.00284245
 30
0.00000001
 11
5653.79985594
 21
3143.50284245
 31
0.00000001
  0
LINE
  5
14C5
330
2
100
AcDbEntity
  8
YKK_Z1
  6
Continuous
 48
1.5
100
AcDbLine
 10
5653.79985594
 20
3143.50284245
 30
0.00000001
 11
5679.49924008
 21
3143.50284245
 31
0.00000001
  0
LINE
  5
14C6
330
2
100
AcDbEntity
  8
YKK_Z1
  6
Continuous
 48
1.5
100
AcDbLine
 10
5679.49924008
 20
3143.50284245
 30
0.00000001
 11
5679.49924008
 21
3188.00284245
 31
0.00000001
  0
LINE
  5
14C7
330
2
100
AcDbEntity
  8
YKK_Z1
  6
Continuous
 48
1.5
100
AcDbLine
 10
4977.49983458
 20
3208.10284472
 30
0.00000001
 11
4982.49985594
 21
3208.10284017
 31
0.00000001
  0
LINE
  5
14C8
330
2
100
AcDbEntity
  8
YKK_Z1
  6
Continuous
 48
1.5
100
AcDbLine
 10
4982.49985594
 20
3208.10284017
 30
0.00000001
 11
4982.49985594
 21
3188.00284245
 31
0.00000001
  0
LINE
  5
14C9
330
2
100
AcDbEntity
  8
YKK_Z1
  6
Continuous
 48
1.5
100
AcDbLine
 10
4982.49985594
 20
3188.00284245
 30
0.00000001
 11
4977.49983458
 21
3188.002847
 31
0.00000001
  0
LINE
  5
14CA
330
2
100
AcDbEntity
  8
YKK_Z1
  6
Continuous
 48
1.5
100
AcDbLine
 10
4977.49983458
 20
3188.002847
 30
0.00000001
 11
4977.49983458
 21
3208.10284472
 31
0.00000001
  0
LINE
  5
14CB
330
2
100
AcDbEntity
  8
YKK_Z1
  6
Continuous
 48
1.5
100
AcDbLine
 10
5679.49998775
 20
3208.10284772
 30
0.00000001
 11
5674.49999999
 21
3208.10284772
 31
0.00000001
  0
LINE
  5
14CC
330
2
100
AcDbEntity
  8
YKK_Z1
  6
Continuous
 48
1.5
100
AcDbLine
 10
5674.49999999
 20
3208.10284772
 30
0.00000001
 11
5674.49999999
 21
3188.00284245
 31
0.00000001
  0
LINE
  5
14CD
330
2
100
AcDbEntity
  8
YKK_Z1
  6
Continuous
 48
1.5
100
AcDbLine
 10
5674.49999999
 20
3188.00284245
 30
0.00000001
 11
5679.49998775
 21
3188.00284245
 31
0.00000001
  0
LINE
  5
14CE
330
2
100
AcDbEntity
  8
YKK_Z1
  6
Continuous
 48
1.5
100
AcDbLine
 10
5679.49998775
 20
3188.00284245
 30
0.00000001
 11
5679.49998775
 21
3208.10284772
 31
0.00000001
  0
LINE
  5
14CF
330
2
100
AcDbEntity
  8
YKK_Z1
  6
Continuous
 48
1.5
100
AcDbLine
 10
7753.9800022
 20
6670.00000001
 30
0.0
 11
7783.5
 21
6670.00000001
 31
0.0
  0
LINE
  5
14D0
330
2
100
AcDbEntity
  8
YKK_Z1
  6
Continuous
 48
1.5
100
AcDbLine
 10
7783.5
 20
6670.00000001
 30
0.0
 11
7783.5
 21
6632.59999804
 31
0.0
  0
LINE
  5
14D1
330
2
100
AcDbEntity
  8
YKK_C2
  6
Continuous
 48
1.5
100
AcDbLine
 10
7783.5
 20
6632.59999804
 30
0.0
 11
7753.9800022
 21
6632.59999804
 31
0.0
  0
LINE
  5
14D2
330
2
100
AcDbEntity
  8
YKK_Z1
  6
Continuous
 48
1.5
100
AcDbLine
 10
7753.9800022
 20
6632.59999804
 30
0.0
 11
7753.9800022
 21
6670.00000001
 31
0.0
  0
LINE
  5
14D3
330
2
100
AcDbEntity
  8
YKK_Z1
  6
Continuous
 48
1.5
100
AcDbLine
 10
7753.98001581
 20
5483.40000204
 30
0.0
 11
7783.50000047
 21
5483.40000204
 31
0.0
  0
LINE
  5
14D4
330
2
100
AcDbEntity
  8
YKK_Z1
  6
Continuous
 48
1.5
100
AcDbLine
 10
7783.50000047
 20
5483.40000204
 30
0.0
 11
7783.50000047
 21
5466.99976422
 31
0.0
  0
LINE
  5
14D5
330
2
100
AcDbEntity
  8
YKK_Z1
  6
Continuous
 48
1.5
100
AcDbLine
 10
7783.50000047
 20
5466.99976422
 30
0.0
 11
7753.98001581
 21
5466.99976422
 31
0.0
  0
LINE
  5
14D6
330
2
100
AcDbEntity
  8
YKK_Z1
  6
Continuous
 48
1.5
100
AcDbLine
 10
7753.98001581
 20
5466.99976422
 30
0.0
 11
7753.98001581
 21
5483.40000204
 31
0.0
  0
LINE
  5
14D7
330
2
100
AcDbEntity
  8
YKK_Z1
  6
Continuous
 48
1.5
100
AcDbLine
 10
4977.49985422
 20
3143.50284245
 30
0.00000001
 11
5017.89985694
 21
3143.50284245
 31
0.00000001
  0
LINE
  5
14D8
330
2
100
AcDbEntity
  8
YKK_Z1
  6
Continuous
 48
1.5
100
AcDbLine
 10
5017.89985694
 20
3143.50284245
 30
0.00000001
 11
5017.89985694
 21
3114.00284464
 31
0.00000001
  0
LINE
  5
14D9
330
2
100
AcDbEntity
  8
YKK_Z1
  6
Continuous
 48
1.5
100
AcDbLine
 10
5017.89985694
 20
3114.00284464
 30
0.00000001
 11
4977.49985422
 21
3114.00284464
 31
0.00000001
  0
LINE
  5
14DA
330
2
100
AcDbEntity
  8
YKK_Z1
  6
Continuous
 48
1.5
100
AcDbLine
 10
4977.49985422
 20
3114.00284464
 30
0.00000001
 11
4977.49985422
 21
3143.50284245
 31
0.00000001
  0
LINE
  5
14DB
330
2
100
AcDbEntity
  8
YKK_Z1
  6
Continuous
 48
1.5
100
AcDbLine
 10
5679.50076159
 20
3143.50335005
 30
0.00000001
 11
5639.10075887
 21
3143.50335005
 31
0.00000001
  0
LINE
  5
14DC
330
2
100
AcDbEntity
  8
YKK_Z1
  6
Continuous
 48
1.5
100
AcDbLine
 10
5639.10075887
 20
3143.50335005
 30
0.00000001
 11
5639.10075887
 21
3114.00335225
 31
0.00000001
  0
LINE
  5
14DD
330
2
100
AcDbEntity
  8
YKK_Z1
  6
Continuous
 48
1.5
100
AcDbLine
 10
5639.10075887
 20
3114.00335225
 30
0.00000001
 11
5679.50076159
 21
3114.00335225
 31
0.00000001
  0
LINE
  5
14DE
330
2
100
AcDbEntity
  8
YKK_Z1
  6
Continuous
 48
1.5
100
AcDbLine
 10
5679.50076159
 20
3114.00335225
 30
0.00000001
 11
5679.50076159
 21
3143.50335005
 31
0.00000001
  0
LINE
  5
14DF
330
2
100
AcDbEntity
  8
YKK_C2
  6
Continuous
100
AcDbLine
 10
7733.07695842
 20
6616.00000001
 30
0.0
 11
7724.98368818
 21
6624.09327026
 31
0.0
  0
LINE
  5
14E0
330
2
100
AcDbEntity
  8
YKK_C2
  6
Continuous
100
AcDbLine
 10
7754.03747066
 20
6613.00000001
 30
0.0
 11
7734.43747099
 21
6632.59999969
 31
0.0
  0
LINE
  5
14E1
330
2
100
AcDbEntity
  8
YKK_C2
  6
Continuous
100
AcDbLine
 10
7771.9979829
 20
6613.00000001
 30
0.0
 11
7752.39798385
 21
6632.59999906
 31
0.0
  0
LINE
  5
14E2
330
2
100
AcDbEntity
  8
YKK_C2
  6
Continuous
100
AcDbLine
 10
7781.98368681
 20
6616.48468029
 30
0.0
 11
7779.86836906
 21
6618.59999804
 31
0.0
  0
LINE
  5
14E3
330
2
100
AcDbEntity
  8
YKK_C2
  6
Continuous
100
AcDbLine
 10
7776.65849712
 20
6626.29999804
 30
0.0
 11
7770.35849672
 21
6632.59999844
 31
0.0
  0
LINE
  5
14E4
330
2
100
AcDbEntity
  8
YKK_C2
  6
ByBlock
 48
0.5
370
    -2
100
AcDbLine
 10
7781.98368618
 20
6632.59999801
 30
0.0
 11
7724.98368818
 21
6632.60000001
 31
0.0
  0
LINE
  5
14E5
330
2
100
AcDbEntity
  8
YKK_C2
  6
ByBlock
 48
0.5
370
    -2
100
AcDbLine
 10
7724.98368818
 20
6632.60000001
 30
0.0
 11
7724.98368818
 21
6618.00000001
 31
0.0
  0
LINE
  5
14E6
330
2
100
AcDbEntity
  8
YKK_C2
  6
ByBlock
 48
0.5
370
    -2
100
AcDbLine
 10
7724.98368818
 20
6618.00000001
 30
0.0
 11
7726.98368818
 21
6616.00000001
 31
0.0
  0
LINE
  5
14E7
330
2
100
AcDbEntity
  8
YKK_C2
  6
ByBlock
 48
0.5
370
    -2
100
AcDbLine
 10
7726.98368818
 20
6616.00000001
 30
0.0
 11
7738.98368818
 21
6616.00000001
 31
0.0
  0
LINE
  5
14E8
330
2
100
AcDbEntity
  8
YKK_C2
  6
ByBlock
 48
0.5
370
    -2
100
AcDbLine
 10
7738.98368818
 20
6616.00000001
 30
0.0
 11
7738.98368818
 21
6613.00000001
 31
0.0
  0
LINE
  5
14E9
330
2
100
AcDbEntity
  8
YKK_C2
  6
ByBlock
 48
0.5
370
    -2
100
AcDbLine
 10
7738.98368818
 20
6613.00000001
 30
0.0
 11
7781.98368818
 21
6613.00000001
 31
0.0
  0
LINE
  5
14EA
330
2
100
AcDbEntity
  8
YKK_C2
  6
ByBlock
 48
0.5
370
    -2
100
AcDbLine
 10
7781.98368818
 20
6613.00000001
 30
0.0
 11
7781.98368618
 21
6618.59999801
 31
0.0
  0
LINE
  5
14EB
330
2
100
AcDbEntity
  8
YKK_C2
  6
ByBlock
 48
0.5
370
    -2
100
AcDbLine
 10
7781.98368618
 20
6618.59999801
 30
0.0
 11
7766.98368618
 21
6618.59999801
 31
0.0
  0
LINE
  5
14EC
330
2
100
AcDbEntity
  8
YKK_C2
  6
ByBlock
 48
0.5
370
    -2
100
AcDbLine
 10
7766.98368618
 20
6618.59999801
 30
0.0
 11
7766.98368618
 21
6626.29999801
 31
0.0
  0
LINE
  5
14ED
330
2
100
AcDbEntity
  8
YKK_C2
  6
ByBlock
 48
0.5
370
    -2
100
AcDbLine
 10
7766.98368618
 20
6626.29999801
 30
0.0
 11
7781.98368618
 21
6626.29999801
 31
0.0
  0
LINE
  5
14EE
330
2
100
AcDbEntity
  8
YKK_C2
  6
ByBlock
 48
0.5
370
    -2
100
AcDbLine
 10
7781.98368618
 20
6626.29999801
 30
0.0
 11
7781.98368618
 21
6632.59999801
 31
0.0
  0
LINE
  5
14EF
330
2
100
AcDbEntity
  8
YKK_C2
  6
Continuous
100
AcDbLine
 10
7733.64606663
 20
5483.40000031
 30
0.0
 11
7724.98368818
 21
5492.06237876
 31
0.0
  0
LINE
  5
14F0
330
2
100
AcDbEntity
  8
YKK_C2
  6
Continuous
100
AcDbLine
 10
7751.60657825
 20
5483.40000093
 30
0.0
 11
7735.00657917
 21
5500.00000001
 31
0.0
  0
LINE
  5
14F1
330
2
100
AcDbEntity
  8
YKK_C2
  6
Continuous
100
AcDbLine
 10
7769.56708987
 20
5483.40000156
 30
0.0
 11
7749.96709141
 21
5503.00000001
 31
0.0
  0
LINE
  5
14F2
330
2
100
AcDbEntity
  8
YKK_C2
  6
Continuous
100
AcDbLine
 10
7781.98368598
 20
5488.94391769
 30
0.0
 11
7781.22760168
 21
5489.70000199
 31
0.0
  0
LINE
  5
14F3
330
2
100
AcDbEntity
  8
YKK_C2
  6
Continuous
100
AcDbLine
 10
7773.52760168
 20
5497.40000199
 30
0.0
 11
7767.92760365
 21
5503.00000001
 31
0.0
  0
LINE
  5
14F4
330
2
100
AcDbEntity
  8
YKK_C2
  6
ByBlock
 48
0.5
370
    -2
100
AcDbLine
 10
7781.98368618
 20
5483.40000201
 30
0.0
 11
7724.98368818
 21
5483.40000001
 31
0.0
  0
LINE
  5
14F5
330
2
100
AcDbEntity
  8
YKK_C2
  6
ByBlock
 48
0.5
370
    -2
100
AcDbLine
 10
7724.98368818
 20
5483.40000001
 30
0.0
 11
7724.98368818
 21
5498.00000001
 31
0.0
  0
LINE
  5
14F6
330
2
100
AcDbEntity
  8
YKK_C2
  6
ByBlock
 48
0.5
370
    -2
100
AcDbLine
 10
7724.98368818
 20
5498.00000001
 30
0.0
 11
7726.98368818
 21
5500.00000001
 31
0.0
  0
LINE
  5
14F7
330
2
100
AcDbEntity
  8
YKK_C2
  6
ByBlock
 48
0.5
370
    -2
100
AcDbLine
 10
7726.98368818
 20
5500.00000001
 30
0.0
 11
7738.98368818
 21
5500.00000001
 31
0.0
  0
LINE
  5
14F8
330
2
100
AcDbEntity
  8
YKK_C2
  6
ByBlock
 48
0.5
370
    -2
100
AcDbLine
 10
7738.98368818
 20
5500.00000001
 30
0.0
 11
7738.98368818
 21
5503.00000001
 31
0.0
  0
LINE
  5
14F9
330
2
100
AcDbEntity
  8
YKK_C2
  6
ByBlock
 48
0.5
370
    -2
100
AcDbLine
 10
7738.98368818
 20
5503.00000001
 30
0.0
 11
7781.98368818
 21
5503.00000001
 31
0.0
  0
LINE
  5
14FA
330
2
100
AcDbEntity
  8
YKK_C2
  6
ByBlock
 48
0.5
370
    -2
100
AcDbLine
 10
7781.98368818
 20
5503.00000001
 30
0.0
 11
7781.98368618
 21
5497.40000201
 31
0.0
  0
LINE
  5
14FB
330
2
100
AcDbEntity
  8
YKK_C2
  6
ByBlock
 48
0.5
370
    -2
100
AcDbLine
 10
7781.98368618
 20
5497.40000201
 30
0.0
 11
7766.98368618
 21
5497.40000201
 31
0.0
  0
LINE
  5
14FC
330
2
100
AcDbEntity
  8
YKK_C2
  6
ByBlock
 48
0.5
370
    -2
100
AcDbLine
 10
7766.98368618
 20
5497.40000201
 30
0.0
 11
7766.98368618
 21
5489.70000201
 31
0.0
  0
LINE
  5
14FD
330
2
100
AcDbEntity
  8
YKK_C2
  6
ByBlock
 48
0.5
370
    -2
100
AcDbLine
 10
7766.98368618
 20
5489.70000201
 30
0.0
 11
7781.98368618
 21
5489.70000201
 31
0.0
  0
LINE
  5
14FE
330
2
100
AcDbEntity
  8
YKK_C2
  6
ByBlock
 48
0.5
370
    -2
100
AcDbLine
 10
7781.98368618
 20
5489.70000201
 30
0.0
 11
7781.98368618
 21
5483.40000201
 31
0.0
  0
LINE
  5
14FF
330
2
100
AcDbEntity
  8
YKK_B2
  6
Continuous
100
AcDbLine
 10
5017.89985624
 20
3163.840464
 30
0.00000001
 11
5026.56223469
 21
3172.50284245
 31
0.00000001
  0
LINE
  5
1500
330
2
100
AcDbEntity
  8
YKK_B2
  6
Continuous
100
AcDbLine
 10
5017.89985686
 20
3145.87995238
 30
0.00000001
 11
5034.49985594
 21
3162.47995145
 31
0.00000001
  0
LINE
  5
1501
330
2
100
AcDbEntity
  8
YKK_B2
  6
Continuous
100
AcDbLine
 10
5017.89985748
 20
3127.91944076
 30
0.00000001
 11
5037.49985594
 21
3147.51943921
 31
0.00000001
  0
LINE
  5
1502
330
2
100
AcDbEntity
  8
YKK_B2
  6
Continuous
100
AcDbLine
 10
5023.44377361
 20
3115.50284464
 30
0.00000001
 11
5024.19985791
 21
3116.25892895
 31
0.00000001
  0
LINE
  5
1503
330
2
100
AcDbEntity
  8
YKK_B2
  6
Continuous
100
AcDbLine
 10
5031.89985791
 20
3123.95892895
 30
0.00000001
 11
5037.49985594
 21
3129.55892697
 31
0.00000001
  0
LINE
  5
1504
330
2
100
AcDbEntity
  8
YKK_B2
  6
ByBlock
 48
0.5
370
    -2
100
AcDbLine
 10
5017.89985794
 20
3115.50284445
 30
0.00000001
 11
5017.89985594
 21
3172.50284245
 31
0.00000001
  0
LINE
  5
1505
330
2
100
AcDbEntity
  8
YKK_B2
  6
ByBlock
 48
0.5
370
    -2
100
AcDbLine
 10
5017.89985594
 20
3172.50284245
 30
0.00000001
 11
5032.49985594
 21
3172.50284245
 31
0.00000001
  0
LINE
  5
1506
330
2
100
AcDbEntity
  8
YKK_B2
  6
ByBlock
 48
0.5
370
    -2
100
AcDbLine
 10
5032.49985594
 20
3172.50284245
 30
0.00000001
 11
5034.49985594
 21
3170.50284245
 31
0.00000001
  0
LINE
  5
1507
330
2
100
AcDbEntity
  8
YKK_B2
  6
ByBlock
 48
0.5
370
    -2
100
AcDbLine
 10
5034.49985594
 20
3170.50284245
 30
0.00000001
 11
5034.49985594
 21
3158.50284245
 31
0.00000001
  0
LINE
  5
1508
330
2
100
AcDbEntity
  8
YKK_B2
  6
ByBlock
 48
0.5
370
    -2
100
AcDbLine
 10
5034.49985594
 20
3158.50284245
 30
0.00000001
 11
5037.49985594
 21
3158.50284245
 31
0.00000001
  0
LINE
  5
1509
330
2
100
AcDbEntity
  8
YKK_B2
  6
ByBlock
 48
0.5
370
    -2
100
AcDbLine
 10
5037.49985594
 20
3158.50284245
 30
0.00000001
 11
5037.49985594
 21
3115.50284245
 31
0.00000001
  0
LINE
  5
150A
330
2
100
AcDbEntity
  8
YKK_B2
  6
ByBlock
 48
0.5
370
    -2
100
AcDbLine
 10
5037.49985594
 20
3115.50284245
 30
0.00000001
 11
5031.89985794
 21
3115.50284445
 31
0.00000001
  0
LINE
  5
150B
330
2
100
AcDbEntity
  8
YKK_B2
  6
ByBlock
 48
0.5
370
    -2
100
AcDbLine
 10
5031.89985794
 20
3115.50284445
 30
0.00000001
 11
5031.89985794
 21
3130.50284445
 31
0.00000001
  0
LINE
  5
150C
330
2
100
AcDbEntity
  8
YKK_B2
  6
ByBlock
 48
0.5
370
    -2
100
AcDbLine
 10
5031.89985794
 20
3130.50284445
 30
0.00000001
 11
5024.19985794
 21
3130.50284445
 31
0.00000001
  0
LINE
  5
150D
330
2
100
AcDbEntity
  8
YKK_B2
  6
ByBlock
 48
0.5
370
    -2
100
AcDbLine
 10
5024.19985794
 20
3130.50284445
 30
0.00000001
 11
5024.19985794
 21
3115.50284445
 31
0.00000001
  0
LINE
  5
150E
330
2
100
AcDbEntity
  8
YKK_B2
  6
ByBlock
 48
0.5
370
    -2
100
AcDbLine
 10
5024.19985794
 20
3115.50284445
 30
0.00000001
 11
5017.89985794
 21
3115.50284445
 31
0.00000001
  0
LINE
  5
150F
330
2
100
AcDbEntity
  8
YKK_B2
  6
Continuous
100
AcDbLine
 10
5619.79539189
 20
3115.50284256
 30
0.00000001
 11
5619.49999999
 21
3115.79823446
 31
0.00000001
  0
LINE
  5
1510
330
2
100
AcDbEntity
  8
YKK_B2
  6
Continuous
100
AcDbLine
 10
5624.28551819
 20
3115.50284433
 30
0.00000001
 11
5619.49999999
 21
3120.28836252
 31
0.00000001
  0
LINE
  5
1511
330
2
100
AcDbEntity
  8
YKK_B2
  6
Continuous
100
AcDbLine
 10
5639.09999812
 20
3118.64887663
 30
0.00000001
 11
5632.79999801
 21
3124.94887674
 31
0.00000001
  0
LINE
  5
1512
330
2
100
AcDbEntity
  8
YKK_B2
  6
Continuous
100
AcDbLine
 10
5627.24603011
 20
3130.50284464
 30
0.00000001
 11
5619.49999999
 21
3138.24887476
 31
0.00000001
  0
LINE
  5
1513
330
2
100
AcDbEntity
  8
YKK_B2
  6
Continuous
100
AcDbLine
 10
5639.09999875
 20
3136.60938825
 30
0.00000001
 11
5619.49999999
 21
3156.20938701
 31
0.00000001
  0
LINE
  5
1514
330
2
100
AcDbEntity
  8
YKK_B2
  6
Continuous
100
AcDbLine
 10
5639.09999937
 20
3154.56989987
 30
0.00000001
 11
5622.83352839
 21
3170.83637085
 31
0.00000001
  0
LINE
  5
1515
330
2
100
AcDbEntity
  8
YKK_B2
  6
ByBlock
 48
0.5
370
    -2
100
AcDbLine
 10
5639.09999799
 20
3115.50284445
 30
0.00000001
 11
5639.09999999
 21
3172.50284245
 31
0.00000001
  0
LINE
  5
1516
330
2
100
AcDbEntity
  8
YKK_B2
  6
ByBlock
 48
0.5
370
    -2
100
AcDbLine
 10
5639.09999999
 20
3172.50284245
 30
0.00000001
 11
5624.49999999
 21
3172.50284245
 31
0.00000001
  0
LINE
  5
1517
330
2
100
AcDbEntity
  8
YKK_B2
  6
ByBlock
 48
0.5
370
    -2
100
AcDbLine
 10
5624.49999999
 20
3172.50284245
 30
0.00000001
 11
5622.49999999
 21
3170.50284245
 31
0.00000001
  0
LINE
  5
1518
330
2
100
AcDbEntity
  8
YKK_B2
  6
ByBlock
 48
0.5
370
    -2
100
AcDbLine
 10
5622.49999999
 20
3170.50284245
 30
0.00000001
 11
5622.49999999
 21
3158.50284245
 31
0.00000001
  0
LINE
  5
1519
330
2
100
AcDbEntity
  8
YKK_B2
  6
ByBlock
 48
0.5
370
    -2
100
AcDbLine
 10
5622.49999999
 20
3158.50284245
 30
0.00000001
 11
5619.49999999
 21
3158.50284245
 31
0.00000001
  0
LINE
  5
151A
330
2
100
AcDbEntity
  8
YKK_B2
  6
ByBlock
 48
0.5
370
    -2
100
AcDbLine
 10
5619.49999999
 20
3158.50284245
 30
0.00000001
 11
5619.49999999
 21
3115.50284245
 31
0.00000001
  0
LINE
  5
151B
330
2
100
AcDbEntity
  8
YKK_B2
  6
ByBlock
 48
0.5
370
    -2
100
AcDbLine
 10
5619.49999999
 20
3115.50284245
 30
0.00000001
 11
5625.09999799
 21
3115.50284445
 31
0.00000001
  0
LINE
  5
151C
330
2
100
AcDbEntity
  8
YKK_B2
  6
ByBlock
 48
0.5
370
    -2
100
AcDbLine
 10
5625.09999799
 20
3115.50284445
 30
0.00000001
 11
5625.09999799
 21
3130.50284445
 31
0.00000001
  0
LINE
  5
151D
330
2
100
AcDbEntity
  8
YKK_B2
  6
ByBlock
 48
0.5
370
    -2
100
AcDbLine
 10
5625.09999799
 20
3130.50284445
 30
0.00000001
 11
5632.79999799
 21
3130.50284445
 31
0.00000001
  0
LINE
  5
151E
330
2
100
AcDbEntity
  8
YKK_B2
  6
ByBlock
 48
0.5
370
    -2
100
AcDbLine
 10
5632.79999799
 20
3130.50284445
 30
0.00000001
 11
5632.79999799
 21
3115.50284445
 31
0.00000001
  0
LINE
  5
151F
330
2
100
AcDbEntity
  8
YKK_B2
  6
ByBlock
 48
0.5
370
    -2
100
AcDbLine
 10
5632.79999799
 20
3115.50284445
 30
0.00000001
 11
5639.09999799
 21
3115.50284445
 31
0.00000001
  0
LINE
  5
1520
330
2
100
AcDbEntity
  8
YKK_B2
  6
Continuous
100
AcDbLine
 10
5625.49999801
 20
3118.68016102
 30
0.00000001
 11
5632.49999801
 21
3125.68016102
 31
0.00000001
  0
LINE
  5
1521
330
2
100
AcDbEntity
  8
YKK_B2
  6
Continuous
100
AcDbLine
 10
5626.04959323
 20
3101.26924399
 30
0.00000001
 11
5638.78034925
 21
3114.00000001
 31
0.00000001
  0
LINE
  5
1522
330
2
100
AcDbEntity
  8
YKK_B2
  6
Continuous
100
AcDbLine
 10
5642.74086149
 20
3100.00000001
 30
0.00000001
 11
5656.74086149
 21
3114.00000001
 31
0.00000001
  0
LINE
  5
1523
330
2
100
AcDbEntity
  8
YKK_B2
  6
Continuous
100
AcDbLine
 10
5660.70137373
 20
3100.00000001
 30
0.00000001
 11
5674.70137373
 21
3114.00000001
 31
0.00000001
  0
LINE
  5
1524
330
2
100
AcDbEntity
  8
YKK_B2
  6
Continuous
100
AcDbLine
 10
5678.66188597
 20
3100.00000001
 30
0.00000001
 11
5692.66188597
 21
3114.00000001
 31
0.00000001
  0
LINE
  5
1525
330
2
100
AcDbEntity
  8
YKK_B2
  6
Continuous
100
AcDbLine
 10
5696.62239821
 20
3100.00000001
 30
0.00000001
 11
5710.62239821
 21
3114.00000001
 31
0.00000001
  0
LINE
  5
1526
330
2
100
AcDbEntity
  8
YKK_B2
  6
ByBlock
 48
0.5
370
    -2
100
AcDbLine
 10
5628.499998
 20
3100.0
 30
0.00000001
 11
5712.499998
 21
3100.0
 31
0.00000001
  0
ARC
  5
1527
330
2
100
AcDbEntity
  8
YKK_B2
  6
ByBlock
 48
0.5
370
    -2
100
AcDbCircle
 10
5712.49999751
 20
3103.00000049
 30
0.00000001
 40
3.000000490192444
100
AcDbArc
 50
270.00000936
 51
359.99999064
  0
LINE
  5
1528
330
2
100
AcDbEntity
  8
YKK_B2
  6
ByBlock
 48
0.5
370
    -2
100
AcDbLine
 10
5715.499998
 20
3103.0
 30
0.00000001
 11
5715.499998
 21
3114.0
 31
0.00000001
  0
LINE
  5
1529
330
2
100
AcDbEntity
  8
YKK_B2
  6
ByBlock
 48
0.5
370
    -2
100
AcDbLine
 10
5715.499998
 20
3114.0
 30
0.00000001
 11
5632.499998
 21
3114.0
 31
0.00000001
  0
LINE
  5
152A
330
2
100
AcDbEntity
  8
YKK_B2
  6
ByBlock
 48
0.5
370
    -2
100
AcDbLine
 10
5632.499998
 20
3114.0
 30
0.00000001
 11
5632.499998
 21
3128.0
 31
0.00000001
  0
LINE
  5
152B
330
2
100
AcDbEntity
  8
YKK_B2
  6
ByBlock
 48
0.5
370
    -2
100
AcDbLine
 10
5632.499998
 20
3128.0
 30
0.00000001
 11
5625.499998
 21
3128.0
 31
0.00000001
  0
LINE
  5
152C
330
2
100
AcDbEntity
  8
YKK_B2
  6
ByBlock
 48
0.5
370
    -2
100
AcDbLine
 10
5625.499998
 20
3128.0
 30
0.00000001
 11
5625.499998
 21
3103.0
 31
0.00000001
  0
ARC
  5
152D
330
2
100
AcDbEntity
  8
YKK_B2
  6
ByBlock
 48
0.5
370
    -2
100
AcDbCircle
 10
5628.49999849
 20
3103.00000049
 30
0.00000001
 40
3.000000490192444
100
AcDbArc
 50
180.00000936
 51
269.99999064
  0
LINE
  5
152E
330
2
100
AcDbEntity
  8
YKK_B2
  6
Continuous
100
AcDbLine
 10
4941.4998581
 20
3113.31549076
 30
0.00000001
 11
4942.18436735
 21
3114.00000001
 31
0.00000001
  0
LINE
  5
152F
330
2
100
AcDbEntity
  8
YKK_B2
  6
Continuous
100
AcDbLine
 10
4946.14487959
 20
3100.00000001
 30
0.00000001
 11
4960.14487959
 21
3114.00000001
 31
0.00000001
  0
LINE
  5
1530
330
2
100
AcDbEntity
  8
YKK_B2
  6
Continuous
100
AcDbLine
 10
4964.10539183
 20
3100.00000001
 30
0.00000001
 11
4978.10539183
 21
3114.00000001
 31
0.00000001
  0
LINE
  5
1531
330
2
100
AcDbEntity
  8
YKK_B2
  6
Continuous
100
AcDbLine
 10
4982.06590407
 20
3100.00000001
 30
0.00000001
 11
4996.06590407
 21
3114.00000001
 31
0.00000001
  0
LINE
  5
1532
330
2
100
AcDbEntity
  8
YKK_B2
  6
Continuous
100
AcDbLine
 10
5000.02641631
 20
3100.00000001
 30
0.00000001
 11
5014.02641631
 21
3114.00000001
 31
0.00000001
  0
LINE
  5
1533
330
2
100
AcDbEntity
  8
YKK_B2
  6
Continuous
100
AcDbLine
 10
5024.4998581
 20
3124.4734418
 30
0.00000001
 11
5028.02641631
 21
3128.00000001
 31
0.00000001
  0
LINE
  5
1534
330
2
100
AcDbEntity
  8
YKK_B2
  6
Continuous
100
AcDbLine
 10
5017.98692856
 20
3100.00000001
 30
0.00000001
 11
5031.4998581
 21
3113.51292955
 31
0.00000001
  0
LINE
  5
1535
330
2
100
AcDbEntity
  8
YKK_B2
  6
ByBlock
 48
0.5
370
    -2
100
AcDbLine
 10
5028.49985811
 20
3100.0
 30
0.00000001
 11
4944.49985811
 21
3100.0
 31
0.00000001
  0
ARC
  5
1536
330
2
100
AcDbEntity
  8
YKK_B2
  6
ByBlock
 48
0.5
370
    -2
100
AcDbCircle
 10
4944.4998586
 20
3103.00000049
 30
0.00000001
 40
3.000000490192444
100
AcDbArc
 50
180.00000936
 51
269.99999064
  0
LINE
  5
1537
330
2
100
AcDbEntity
  8
YKK_B2
  6
ByBlock
 48
0.5
370
    -2
100
AcDbLine
 10
4941.49985811
 20
3103.0
 30
0.00000001
 11
4941.49985811
 21
3114.0
 31
0.00000001
  0
LINE
  5
1538
330
2
100
AcDbEntity
  8
YKK_B2
  6
ByBlock
 48
0.5
370
    -2
100
AcDbLine
 10
4941.49985811
 20
3114.0
 30
0.00000001
 11
5024.49985811
 21
3114.0
 31
0.00000001
  0
LINE
  5
1539
330
2
100
AcDbEntity
  8
YKK_B2
  6
ByBlock
 48
0.5
370
    -2
100
AcDbLine
 10
5024.49985811
 20
3114.0
 30
0.00000001
 11
5024.49985811
 21
3128.0
 31
0.00000001
  0
LINE
  5
153A
330
2
100
AcDbEntity
  8
YKK_B2
  6
ByBlock
 48
0.5
370
    -2
100
AcDbLine
 10
5024.49985811
 20
3128.0
 30
0.00000001
 11
5031.49985811
 21
3128.0
 31
0.00000001
  0
LINE
  5
153B
330
2
100
AcDbEntity
  8
YKK_B2
  6
ByBlock
 48
0.5
370
    -2
100
AcDbLine
 10
5031.49985811
 20
3128.0
 30
0.00000001
 11
5031.49985811
 21
3103.0
 31
0.00000001
  0
ARC
  5
153C
330
2
100
AcDbEntity
  8
YKK_B2
  6
ByBlock
 48
0.5
370
    -2
100
AcDbCircle
 10
5028.49985762
 20
3103.00000049
 30
0.00000001
 40
3.000000490192444
100
AcDbArc
 50
270.00000936
 51
359.99999064
  0
LINE
  5
153D
330
2
100
AcDbEntity
  8
YKK_C2
  6
Continuous
100
AcDbLine
 10
7783.5
 20
6698.96711527
 30
0.0
 11
7793.53288277
 21
6708.99999804
 31
0.0
  0
LINE
  5
153E
330
2
100
AcDbEntity
  8
YKK_C2
  6
Continuous
100
AcDbLine
 10
7783.5
 20
6681.00660303
 30
0.0
 11
7794.5
 21
6692.00660303
 31
0.0
  0
LINE
  5
153F
330
2
100
AcDbEntity
  8
YKK_C2
  6
Continuous
100
AcDbLine
 10
7783.5
 20
6663.04609079
 30
0.0
 11
7794.5
 21
6674.04609079
 31
0.0
  0
LINE
  5
1540
330
2
100
AcDbEntity
  8
YKK_C2
  6
Continuous
100
AcDbLine
 10
7783.5
 20
6645.08557855
 30
0.0
 11
7794.5
 21
6656.08557855
 31
0.0
  0
LINE
  5
1541
330
2
100
AcDbEntity
  8
YKK_C2
  6
Continuous
100
AcDbLine
 10
7775.37493173
 20
6618.99999804
 30
0.0
 11
7782.37493173
 21
6625.99999804
 31
0.0
  0
LINE
  5
1542
330
2
100
AcDbEntity
  8
YKK_C2
  6
Continuous
100
AcDbLine
 10
7783.5
 20
6627.1250663
 30
0.0
 11
7794.5
 21
6638.1250663
 31
0.0
  0
LINE
  5
1543
330
2
100
AcDbEntity
  8
YKK_C2
  6
ByBlock
 48
0.5
370
    -2
100
AcDbLine
 10
7794.5
 20
6621.99999803
 30
0.0
 11
7794.5
 21
6708.99999803
 31
0.0
  0
LINE
  5
1544
330
2
100
AcDbEntity
  8
YKK_C2
  6
ByBlock
 48
0.5
370
    -2
100
AcDbLine
 10
7794.5
 20
6708.99999803
 30
0.0
 11
7783.5
 21
6708.99999803
 31
0.0
  0
LINE
  5
1545
330
2
100
AcDbEntity
  8
YKK_C2
  6
ByBlock
 48
0.5
370
    -2
100
AcDbLine
 10
7783.5
 20
6708.99999803
 30
0.0
 11
7783.5
 21
6625.99999803
 31
0.0
  0
LINE
  5
1546
330
2
100
AcDbEntity
  8
YKK_C2
  6
ByBlock
 48
0.5
370
    -2
100
AcDbLine
 10
7783.5
 20
6625.99999803
 30
0.0
 11
7769.5
 21
6625.99999803
 31
0.0
  0
LINE
  5
1547
330
2
100
AcDbEntity
  8
YKK_C2
  6
ByBlock
 48
0.5
370
    -2
100
AcDbLine
 10
7769.5
 20
6625.99999803
 30
0.0
 11
7769.5
 21
6618.99999803
 31
0.0
  0
LINE
  5
1548
330
2
100
AcDbEntity
  8
YKK_C2
  6
ByBlock
 48
0.5
370
    -2
100
AcDbLine
 10
7769.5
 20
6618.99999803
 30
0.0
 11
7791.5
 21
6618.99999803
 31
0.0
  0
ARC
  5
1549
330
2
100
AcDbEntity
  8
YKK_C2
  6
ByBlock
 48
0.5
370
    -2
100
AcDbCircle
 10
7791.49999951
 20
6621.99999852
 30
0.0
 40
3.000000490192444
100
AcDbArc
 50
270.00000936
 51
359.99999064
  0
LINE
  5
154A
330
2
100
AcDbEntity
  8
YKK_C2
  6
Continuous
100
AcDbLine
 10
7773.1143234
 20
5490.00000224
 30
0.0
 11
7780.1143234
 21
5497.00000224
 31
0.0
  0
LINE
  5
154B
330
2
100
AcDbEntity
  8
YKK_C2
  6
Continuous
100
AcDbLine
 10
7783.50000047
 20
5482.42516706
 30
0.0
 11
7794.50000047
 21
5493.42516706
 31
0.0
  0
LINE
  5
154C
330
2
100
AcDbEntity
  8
YKK_C2
  6
Continuous
100
AcDbLine
 10
7783.50000047
 20
5464.46465482
 30
0.0
 11
7794.50000047
 21
5475.46465482
 31
0.0
  0
LINE
  5
154D
330
2
100
AcDbEntity
  8
YKK_C2
  6
Continuous
100
AcDbLine
 10
7783.50000047
 20
5446.50414257
 30
0.0
 11
7794.50000047
 21
5457.50414257
 31
0.0
  0
LINE
  5
154E
330
2
100
AcDbEntity
  8
YKK_C2
  6
Continuous
100
AcDbLine
 10
7783.50000047
 20
5428.54363033
 30
0.0
 11
7794.50000047
 21
5439.54363033
 31
0.0
  0
LINE
  5
154F
330
2
100
AcDbEntity
  8
YKK_C2
  6
Continuous
100
AcDbLine
 10
7783.50000047
 20
5410.58311809
 30
0.0
 11
7794.50000047
 21
5421.58311809
 31
0.0
  0
LINE
  5
1550
330
2
100
AcDbEntity
  8
YKK_C2
  6
ByBlock
 48
0.5
370
    -2
100
AcDbLine
 10
7794.50000047
 20
5494.00000225
 30
0.0
 11
7794.50000047
 21
5407.00000225
 31
0.0
  0
LINE
  5
1551
330
2
100
AcDbEntity
  8
YKK_C2
  6
ByBlock
 48
0.5
370
    -2
100
AcDbLine
 10
7797.5
 20
5407.00000225
 30
0.0
 11
7783.50000047
 21
5407.00000225
 31
0.0
  0
LINE
  5
1552
330
2
100
AcDbEntity
  8
YKK_C2
  6
ByBlock
 48
0.5
370
    -2
100
AcDbLine
 10
7783.50000047
 20
5407.00000225
 30
0.0
 11
7783.50000047
 21
5490.00000225
 31
0.0
  0
LINE
  5
1553
330
2
100
AcDbEntity
  8
YKK_C2
  6
ByBlock
 48
0.5
370
    -2
100
AcDbLine
 10
7783.50000047
 20
5490.00000225
 30
0.0
 11
7769.50000047
 21
5490.00000225
 31
0.0
  0
LINE
  5
1554
330
2
100
AcDbEntity
  8
YKK_C2
  6
ByBlock
 48
0.5
370
    -2
100
AcDbLine
 10
7769.50000047
 20
5490.00000225
 30
0.0
 11
7769.50000047
 21
5497.00000225
 31
0.0
  0
LINE
  5
1555
330
2
100
AcDbEntity
  8
YKK_C2
  6
ByBlock
 48
0.5
370
    -2
100
AcDbLine
 10
7769.50000047
 20
5497.00000225
 30
0.0
 11
7791.50000047
 21
5497.00000225
 31
0.0
  0
ARC
  5
1556
330
2
100
AcDbEntity
  8
YKK_C2
  6
ByBlock
 48
0.5
370
    -2
100
AcDbCircle
 10
7791.49999998
 20
5494.00000176
 30
0.0
 40
3.000000490192444
100
AcDbArc
 50
0.00000936
 51
89.99999064
  0
LINE
  5
1557
330
2
100
AcDbEntity
  8
YKK_C1
  6
Continuous
370
    13
100
AcDbLine
 10
7690.48368817
 20
6653.10202026
 30
0.0
 11
7697.38166792
 21
6660.00000001
 31
0.0
  0
LINE
  5
1558
330
2
100
AcDbEntity
  8
YKK_C1
  6
Continuous
370
    13
100
AcDbLine
 10
7695.23852216
 20
6652.20000001
 30
0.0
 11
7703.03852216
 21
6660.00000001
 31
0.0
  0
LINE
  5
1559
330
2
100
AcDbEntity
  8
YKK_C1
  6
Continuous
370
    13
100
AcDbLine
 10
7700.89537641
 20
6652.20000001
 30
0.0
 11
7706.28368817
 21
6657.58831176
 31
0.0
  0
LINE
  5
155A
330
2
100
AcDbEntity
  8
YKK_B1
  6
Continuous
370
    13
100
AcDbLine
 10
4994.69985593
 20
3231.68812381
 30
0.00000001
 11
5001.11457455
 21
3238.10284244
 31
0.00000001
  0
LINE
  5
155B
330
2
100
AcDbEntity
  8
YKK_B1
  6
Continuous
370
    13
100
AcDbLine
 10
4994.69985593
 20
3226.03126956
 30
0.00000001
 11
5002.49985593
 21
3233.83126956
 31
0.00000001
  0
LINE
  5
155C
330
2
100
AcDbEntity
  8
YKK_B1
  6
Continuous
370
    13
100
AcDbLine
 10
4996.62828305
 20
3222.30284244
 30
0.00000001
 11
5002.49985593
 21
3228.17441531
 31
0.00000001
  0
LINE
  5
155D
330
2
100
AcDbEntity
  8
YKK_C1E
100
AcDbLine
 10
7691.98368118
 20
6700.00000001
 30
0.0
 11
7691.98368118
 21
6670.00000001
 31
0.0
  0
LINE
  5
155E
330
2
100
AcDbEntity
  8
YKK_C1E
100
AcDbLine
 10
7706.98368118
 20
6672.50000001
 30
0.0
 11
7706.98368118
 21
6670.00000001
 31
0.0
  0
LINE
  5
155F
330
2
100
AcDbEntity
  8
YKK_C1E
100
AcDbLine
 10
7706.98368118
 20
6670.00000001
 30
0.0
 11
7663.88767718
 21
6669.99989801
 31
0.0
  0
LINE
  5
1560
330
2
100
AcDbEntity
  8
YKK_C1E
100
AcDbLine
 10
7663.88767718
 20
6669.99989801
 30
0.0
 11
7663.88767718
 21
6700.00309101
 31
0.0
  0
LINE
  5
1561
330
2
100
AcDbEntity
  8
YKK_C1E
100
AcDbLine
 10
7667.48368118
 20
6700.00309101
 30
0.0
 11
7649.60538518
 21
6700.00000001
 31
0.0
  0
LINE
  5
1562
330
2
100
AcDbEntity
  8
YKK_C1E
100
AcDbLine
 10
7649.60538518
 20
6700.00000001
 30
0.0
 11
7620.98368818
 21
6698.50000101
 31
0.0
  0
LINE
  5
1563
330
2
100
AcDbEntity
  8
YKK_C1E
100
AcDbLine
 10
7620.98368818
 20
6698.50000101
 30
0.0
 11
7620.98368818
 21
6691.99990901
 31
0.0
  0
LINE
  5
1564
330
2
100
AcDbEntity
  8
YKK_C1E
100
AcDbLine
 10
7664.98369518
 20
6725.00000801
 30
0.0
 11
7664.988017
 21
6700.00265954
 31
0.0
  0
LINE
  5
1565
330
2
100
AcDbEntity
  8
YKK_C1E
100
AcDbLine
 10
7634.98374518
 20
6674.00000001
 30
0.0
 11
7634.98374518
 21
6699.23371279
 31
0.0
  0
LINE
  5
1566
330
2
100
AcDbEntity
  8
YKK_C1E
100
AcDbLine
 10
7665.00000118
 20
5395.00050401
 30
0.0
 11
7665.00000118
 21
5440.00050101
 31
0.0
  0
LINE
  5
1567
330
2
100
AcDbEntity
  8
YKK_C1E
100
AcDbLine
 10
7692.00003218
 20
5426.99996901
 30
0.0
 11
7692.00008075
 21
5466.9999678
 31
0.0
  0
LINE
  5
1568
330
2
100
AcDbEntity
  8
YKK_C1E
100
AcDbLine
 10
7692.00008075
 20
5466.9999678
 30
0.0
 11
7707.00003318
 21
5466.9999678
 31
0.0
  0
LINE
  5
1569
330
2
100
AcDbEntity
  8
YKK_C1E
100
AcDbLine
 10
7707.00003318
 20
5468.00000001
 30
0.0
 11
7707.00003318
 21
5464.49996901
 31
0.0
  0
LINE
  5
156A
330
2
100
AcDbEntity
  8
YKK_C1E
100
AcDbLine
 10
7669.00015218
 20
5462.99996101
 30
0.0
 11
7692.00007589
 21
5462.99993308
 31
0.0
  0
LINE
  5
156B
330
2
100
AcDbEntity
  8
YKK_C1E
100
AcDbLine
 10
7692.00004796
 20
5440.00050101
 30
0.0
 11
7634.99999218
 21
5440.00050101
 31
0.0
  0
LINE
  5
156C
330
2
100
AcDbEntity
  8
YKK_C1E
100
AcDbLine
 10
7634.99999218
 20
5462.99996901
 30
0.0
 11
7634.99999218
 21
5424.46907801
 31
0.0
  0
LINE
  5
156D
330
2
100
AcDbEntity
  8
YKK_C1E
100
AcDbLine
 10
7634.99999218
 20
5424.46907801
 30
0.0
 11
7620.99999718
 21
5422.00050101
 31
0.0
  0
LINE
  5
156E
330
2
100
AcDbEntity
  8
YKK_C1E
100
AcDbLine
 10
7620.99999718
 20
5422.00050101
 30
0.0
 11
7620.99999718
 21
5410.00050101
 31
0.0
  0
LINE
  5
156F
330
2
100
AcDbEntity
  8
YKK_C1E
100
AcDbLine
 10
7665.00000118
 20
5415.00103501
 30
0.0
 11
7620.99999718
 21
5415.00103501
 31
0.0
  0
LINE
  5
1570
330
2
100
AcDbEntity
  8
YKK_B1E
100
AcDbLine
 10
4962.49983894
 20
3276.50284245
 30
0.00000001
 11
4966.49985394
 21
3276.50284245
 31
0.00000001
  0
LINE
  5
1571
330
2
100
AcDbEntity
  8
YKK_B1E
100
AcDbLine
 10
4966.49985394
 20
3276.50284245
 30
0.00000001
 11
4966.49985994
 21
3205.50284245
 31
0.00000001
  0
LINE
  5
1572
330
2
100
AcDbEntity
  8
YKK_B1E
100
AcDbLine
 10
4966.49985994
 20
3205.50284245
 30
0.00000001
 11
4957.50021394
 21
3205.50284245
 31
0.00000001
  0
LINE
  5
1573
330
2
100
AcDbEntity
  8
YKK_B1E
100
AcDbLine
 10
4957.50021394
 20
3205.50284245
 30
0.00000001
 11
4957.50021394
 21
3207.50284245
 31
0.00000001
  0
LINE
  5
1574
330
2
100
AcDbEntity
  8
YKK_B1E
100
AcDbLine
 10
4930.50169494
 20
3232.50283745
 30
0.00000001
 11
4966.49985994
 21
3232.50283745
 31
0.00000001
  0
LINE
  5
1575
330
2
100
AcDbEntity
  8
YKK_B1E
100
AcDbLine
 10
4966.49985972
 20
3208.10284245
 30
0.00000001
 11
4977.49985594
 21
3208.10284245
 31
0.00000001
  0
LINE
  5
1576
330
2
100
AcDbEntity
  8
YKK_B1E
100
AcDbLine
 10
4977.49985594
 20
3208.10284245
 30
0.00000001
 11
4977.49985594
 21
3190.50000445
 31
0.00000001
  0
LINE
  5
1577
330
2
100
AcDbEntity
  8
YKK_B1E
100
AcDbLine
 10
4977.49985594
 20
3190.50000445
 30
0.00000001
 11
4974.99985594
 21
3190.49979045
 31
0.00000001
  0
LINE
  5
1578
330
2
100
AcDbEntity
  8
YKK_B1E
100
AcDbLine
 10
5694.50001389
 20
3276.50284245
 30
0.00000001
 11
5690.49999889
 21
3276.50284245
 31
0.00000001
  0
LINE
  5
1579
330
2
100
AcDbEntity
  8
YKK_B1E
100
AcDbLine
 10
5690.49999889
 20
3276.50284245
 30
0.00000001
 11
5690.49999289
 21
3205.50284245
 31
0.00000001
  0
LINE
  5
157A
330
2
100
AcDbEntity
  8
YKK_B1E
100
AcDbLine
 10
5690.49999289
 20
3205.50284245
 30
0.00000001
 11
5699.49963889
 21
3205.50284245
 31
0.00000001
  0
LINE
  5
157B
330
2
100
AcDbEntity
  8
YKK_B1E
100
AcDbLine
 10
5699.49963889
 20
3205.50284245
 30
0.00000001
 11
5699.49963889
 21
3207.50284245
 31
0.00000001
  0
LINE
  5
157C
330
2
100
AcDbEntity
  8
YKK_B1E
100
AcDbLine
 10
5726.49815789
 20
3232.50283745
 30
0.00000001
 11
5690.49999289
 21
3232.50283745
 31
0.00000001
  0
LINE
  5
157D
330
2
100
AcDbEntity
  8
YKK_B1E
100
AcDbLine
 10
5690.49999311
 20
3208.10284245
 30
0.00000001
 11
5679.49999689
 21
3208.10284245
 31
0.00000001
  0
LINE
  5
157E
330
2
100
AcDbEntity
  8
YKK_B1E
100
AcDbLine
 10
5679.49999689
 20
3208.10284245
 30
0.00000001
 11
5679.49999689
 21
3190.50000445
 31
0.00000001
  0
LINE
  5
157F
330
2
100
AcDbEntity
  8
YKK_B1E
100
AcDbLine
 10
5679.49999689
 20
3190.50000445
 30
0.00000001
 11
5681.99999689
 21
3190.49979045
 31
0.00000001
  0
LINE
  5
1580
330
2
100
AcDbEntity
  8
YKK_B1
100
AcDbLine
 10
5019.49985583
 20
3265.50284253
 30
0.00000001
 11
5019.49985583
 21
3223.50284253
 31
0.00000001
  0
LINE
  5
1581
330
2
100
AcDbEntity
  8
YKK_B1
100
AcDbLine
 10
4959.49985593
 20
3276.50284244
 30
0.00000001
 11
4959.49985593
 21
3281.50284244
 31
0.00000001
  0
LINE
  5
1582
330
2
100
AcDbEntity
  8
YKK_B1
100
AcDbLine
 10
4959.49985593
 20
3281.50284244
 30
0.00000001
 11
5015.49985593
 21
3281.50284244
 31
0.00000001
  0
LINE
  5
1583
330
2
100
AcDbEntity
  8
YKK_B1
100
AcDbLine
 10
5015.49985593
 20
3281.50284244
 30
0.00000001
 11
5015.49985593
 21
3265.50284253
 31
0.00000001
  0
LINE
  5
1584
330
2
100
AcDbEntity
  8
YKK_B1
100
AcDbLine
 10
4982.49985593
 20
3188.00284244
 30
0.00000001
 11
4984.99985593
 21
3188.00284244
 31
0.00000001
  0
LINE
  5
1585
330
2
100
AcDbEntity
  8
YKK_B1
100
AcDbLine
 10
4984.99985593
 20
3188.00284244
 30
0.00000001
 11
4984.99985593
 21
3203.00284244
 31
0.00000001
  0
LINE
  5
1586
330
2
100
AcDbEntity
  8
YKK_B1
100
AcDbLine
 10
4982.49985593
 20
3203.00284244
 30
0.00000001
 11
5002.49985593
 21
3203.00284244
 31
0.00000001
  0
LINE
  5
1587
330
2
100
AcDbEntity
  8
YKK_B1
100
AcDbLine
 10
5002.49985593
 20
3203.00284244
 30
0.00000001
 11
5002.49985593
 21
3281.50284244
 31
0.00000001
  0
LINE
  5
1588
330
2
100
AcDbEntity
  8
YKK_B1
100
AcDbLine
 10
4982.49985593
 20
3203.00284244
 30
0.00000001
 11
4982.49985593
 21
3281.50284244
 31
0.00000001
  0
LINE
  5
1589
330
2
100
AcDbEntity
  8
YKK_B1
100
AcDbLine
 10
4982.49985593
 20
3238.10284244
 30
0.00000001
 11
5002.49985593
 21
3238.10284244
 31
0.00000001
  0
LINE
  5
158A
330
2
100
AcDbEntity
  8
YKK_B1
100
AcDbLine
 10
5002.49985593
 20
3222.30284244
 30
0.00000001
 11
4982.49985593
 21
3222.30284244
 31
0.00000001
  0
LINE
  5
158B
330
2
100
AcDbEntity
  8
YKK_B1
100
AcDbLine
 10
4994.69985593
 20
3222.30284244
 30
0.00000001
 11
4994.69985593
 21
3238.10284244
 31
0.00000001
  0
LINE
  5
158C
330
2
100
AcDbEntity
  8
YKK_B1
100
AcDbLine
 10
5019.49985583
 20
3265.50284253
 30
0.00000001
 11
5007.49985593
 21
3265.50284253
 31
0.00000001
  0
LINE
  5
158D
330
2
100
AcDbEntity
  8
YKK_B1
100
AcDbLine
 10
5007.49985593
 20
3265.50284253
 30
0.00000001
 11
5007.49985593
 21
3173.50284244
 31
0.00000001
  0
LINE
  5
158E
330
2
100
AcDbEntity
  8
YKK_B1
100
AcDbLine
 10
5007.49985593
 20
3173.50284244
 30
0.00000001
 11
5063.49985593
 21
3173.50284253
 31
0.00000001
  0
LINE
  5
158F
330
2
100
AcDbEntity
  8
YKK_B1
100
AcDbLine
 10
5034.99985593
 20
3158.50284253
 30
0.00000001
 11
5037.49985593
 21
3158.50284253
 31
0.00000001
  0
LINE
  5
1590
330
2
100
AcDbEntity
  8
YKK_B1
100
AcDbLine
 10
5037.49985593
 20
3158.50284253
 30
0.00000001
 11
5037.49985593
 21
3173.50284249
 31
0.00000001
  0
LINE
  5
1591
330
2
100
AcDbEntity
  8
YKK_B1
100
AcDbLine
 10
5037.49985593
 20
3173.50284253
 30
0.00000001
 11
5037.49985593
 21
3223.50284253
 31
0.00000001
  0
LINE
  5
1592
330
2
100
AcDbEntity
  8
YKK_B1
100
AcDbLine
 10
5037.49985593
 20
3223.50284253
 30
0.00000001
 11
5007.49985593
 21
3223.50284253
 31
0.00000001
  0
LINE
  5
1593
330
2
100
AcDbEntity
  8
YKK_B1
100
AcDbLine
 10
5003.19985593
 20
3143.50284244
 30
0.00000001
 11
5005.79985593
 21
3143.50284244
 31
0.00000001
  0
LINE
  5
1594
330
2
100
AcDbEntity
  8
YKK_B1
100
AcDbLine
 10
5005.79985593
 20
3143.50284244
 30
0.00000001
 11
5005.79985593
 21
3202.20284244
 31
0.00000001
  0
LINE
  5
1595
330
2
100
AcDbEntity
  8
YKK_B1
100
AcDbLine
 10
5005.79985593
 20
3202.20284244
 30
0.00000001
 11
4988.99985593
 21
3202.20284244
 31
0.00000001
  0
LINE
  5
1596
330
2
100
AcDbEntity
  8
YKK_B1
100
AcDbLine
 10
5029.49985593
 20
3235.50284238
 30
0.00000001
 11
5095.4998559
 21
3235.50284238
 31
0.00000001
  0
LINE
  5
1597
330
2
100
AcDbEntity
  8
YKK_B1
100
AcDbLine
 10
5095.49985593
 20
3187.50284238
 30
0.00000001
 11
5053.49985593
 21
3187.50284238
 31
0.00000001
  0
LINE
  5
1598
330
2
100
AcDbEntity
  8
YKK_B1
100
AcDbLine
 10
5053.49985593
 20
3187.50284238
 30
0.00000001
 11
5053.49985593
 21
3235.50284238
 31
0.00000001
  0
LINE
  5
1599
330
2
100
AcDbEntity
  8
YKK_B1
100
AcDbLine
 10
5078.49985593
 20
3235.50284238
 30
0.00000001
 11
5078.49985593
 21
3187.50284238
 31
0.00000001
  0
LINE
  5
159A
330
2
100
AcDbEntity
  8
YKK_B1
  6
Continuous
370
    13
100
AcDbLine
 10
5662.3
 20
3231.68812381
 30
0.00000001
 11
5655.88528137
 21
3238.10284244
 31
0.00000001
  0
LINE
  5
159B
330
2
100
AcDbEntity
  8
YKK_B1
  6
Continuous
370
    13
100
AcDbLine
 10
5662.3
 20
3226.03126956
 30
0.00000001
 11
5654.5
 21
3233.83126956
 31
0.00000001
  0
LINE
  5
159C
330
2
100
AcDbEntity
  8
YKK_B1
  6
Continuous
370
    13
100
AcDbLine
 10
5660.37157288
 20
3222.30284244
 30
0.00000001
 11
5654.5
 21
3228.17441531
 31
0.00000001
  0
LINE
  5
159D
330
2
100
AcDbEntity
  8
YKK_B1
100
AcDbLine
 10
5637.5000001
 20
3265.50284253
 30
0.00000001
 11
5637.5000001
 21
3223.50284253
 31
0.00000001
  0
LINE
  5
159E
330
2
100
AcDbEntity
  8
YKK_B1
100
AcDbLine
 10
5697.5
 20
3276.50284244
 30
0.00000001
 11
5697.5
 21
3281.50284244
 31
0.00000001
  0
LINE
  5
159F
330
2
100
AcDbEntity
  8
YKK_B1
100
AcDbLine
 10
5697.5
 20
3281.50284244
 30
0.00000001
 11
5641.5
 21
3281.50284244
 31
0.00000001
  0
LINE
  5
15A0
330
2
100
AcDbEntity
  8
YKK_B1
100
AcDbLine
 10
5641.5
 20
3281.50284244
 30
0.00000001
 11
5641.5
 21
3265.50284253
 31
0.00000001
  0
LINE
  5
15A1
330
2
100
AcDbEntity
  8
YKK_B1
100
AcDbLine
 10
5674.5
 20
3188.00284244
 30
0.00000001
 11
5672.0
 21
3188.00284244
 31
0.00000001
  0
LINE
  5
15A2
330
2
100
AcDbEntity
  8
YKK_B1
100
AcDbLine
 10
5672.0
 20
3188.00284244
 30
0.00000001
 11
5672.0
 21
3203.00284244
 31
0.00000001
  0
LINE
  5
15A3
330
2
100
AcDbEntity
  8
YKK_B1
100
AcDbLine
 10
5674.5
 20
3203.00284244
 30
0.00000001
 11
5654.5
 21
3203.00284244
 31
0.00000001
  0
LINE
  5
15A4
330
2
100
AcDbEntity
  8
YKK_B1
100
AcDbLine
 10
5654.5
 20
3203.00284244
 30
0.00000001
 11
5654.5
 21
3281.50284244
 31
0.00000001
  0
LINE
  5
15A5
330
2
100
AcDbEntity
  8
YKK_B1
100
AcDbLine
 10
5674.5
 20
3203.00284244
 30
0.00000001
 11
5674.5
 21
3281.50284244
 31
0.00000001
  0
LINE
  5
15A6
330
2
100
AcDbEntity
  8
YKK_B1
100
AcDbLine
 10
5674.5
 20
3238.10284244
 30
0.00000001
 11
5654.5
 21
3238.10284244
 31
0.00000001
  0
LINE
  5
15A7
330
2
100
AcDbEntity
  8
YKK_B1
100
AcDbLine
 10
5654.5
 20
3222.30284244
 30
0.00000001
 11
5674.5
 21
3222.30284244
 31
0.00000001
  0
LINE
  5
15A8
330
2
100
AcDbEntity
  8
YKK_B1
100
AcDbLine
 10
5662.3
 20
3222.30284244
 30
0.00000001
 11
5662.3
 21
3238.10284244
 31
0.00000001
  0
LINE
  5
15A9
330
2
100
AcDbEntity
  8
YKK_B1
100
AcDbLine
 10
5637.5000001
 20
3265.50284253
 30
0.00000001
 11
5649.5
 21
3265.50284253
 31
0.00000001
  0
LINE
  5
15AA
330
2
100
AcDbEntity
  8
YKK_B1
100
AcDbLine
 10
5649.5
 20
3265.50284253
 30
0.00000001
 11
5649.5
 21
3173.50284244
 31
0.00000001
  0
LINE
  5
15AB
330
2
100
AcDbEntity
  8
YKK_B1
100
AcDbLine
 10
5649.5
 20
3173.50284244
 30
0.00000001
 11
5593.5
 21
3173.50284253
 31
0.00000001
  0
LINE
  5
15AC
330
2
100
AcDbEntity
  8
YKK_B1
100
AcDbLine
 10
5622.0
 20
3158.50284253
 30
0.00000001
 11
5619.5
 21
3158.50284253
 31
0.00000001
  0
LINE
  5
15AD
330
2
100
AcDbEntity
  8
YKK_B1
100
AcDbLine
 10
5619.5
 20
3158.50284253
 30
0.00000001
 11
5619.5
 21
3173.50284249
 31
0.00000001
  0
LINE
  5
15AE
330
2
100
AcDbEntity
  8
YKK_B1
100
AcDbLine
 10
5619.5
 20
3173.50284253
 30
0.00000001
 11
5619.5
 21
3223.50284253
 31
0.00000001
  0
LINE
  5
15AF
330
2
100
AcDbEntity
  8
YKK_B1
100
AcDbLine
 10
5619.5
 20
3223.50284253
 30
0.00000001
 11
5649.5
 21
3223.50284253
 31
0.00000001
  0
LINE
  5
15B0
330
2
100
AcDbEntity
  8
YKK_B1
100
AcDbLine
 10
5653.8
 20
3143.50284244
 30
0.00000001
 11
5651.2
 21
3143.50284244
 31
0.00000001
  0
LINE
  5
15B1
330
2
100
AcDbEntity
  8
YKK_B1
100
AcDbLine
 10
5651.2
 20
3143.50284244
 30
0.00000001
 11
5651.2
 21
3202.20284244
 31
0.00000001
  0
LINE
  5
15B2
330
2
100
AcDbEntity
  8
YKK_B1
100
AcDbLine
 10
5651.2
 20
3202.20284244
 30
0.00000001
 11
5668.0
 21
3202.20284244
 31
0.00000001
  0
LINE
  5
15B3
330
2
100
AcDbEntity
  8
YKK_B1
100
AcDbLine
 10
5627.5
 20
3235.50284238
 30
0.00000001
 11
5561.50000002
 21
3235.50284238
 31
0.00000001
  0
LINE
  5
15B4
330
2
100
AcDbEntity
  8
YKK_B1
100
AcDbLine
 10
5561.5
 20
3187.50284238
 30
0.00000001
 11
5603.5
 21
3187.50284238
 31
0.00000001
  0
LINE
  5
15B5
330
2
100
AcDbEntity
  8
YKK_B1
100
AcDbLine
 10
5603.5
 20
3187.50284238
 30
0.00000001
 11
5603.5
 21
3235.50284238
 31
0.00000001
  0
LINE
  5
15B6
330
2
100
AcDbEntity
  8
YKK_B1
100
AcDbLine
 10
5578.5
 20
3235.50284238
 30
0.00000001
 11
5578.5
 21
3187.50284238
 31
0.00000001
  0
LINE
  5
15B7
330
2
100
AcDbEntity
  8
YKK_B1
100
AcDbLine
 10
5082.49985593
 20
3229.50284238
 30
0.00000001
 11
5574.49985595
 21
3229.5028424
 31
0.00000001
  0
LINE
  5
15B8
330
2
100
AcDbEntity
  8
YKK_B1
100
AcDbLine
 10
5574.49985595
 20
3207.5028424
 30
0.00000001
 11
5082.49985593
 21
3207.50284238
 31
0.00000001
  0
LINE
  5
15B9
330
2
100
AcDbEntity
  8
YKK_B1
100
AcDbLine
 10
5029.49985583
 20
3265.50284252
 30
0.00000001
 11
5627.5000001
 21
3265.50284254
 31
0.00000001
  0
LINE
  5
15BA
330
2
100
AcDbEntity
  8
YKK_B1
100
AcDbLine
 10
5047.49985593
 20
3158.50284238
 30
0.00000001
 11
5609.5
 21
3158.50284238
 31
0.00000001
  0
LINE
  5
15BB
330
2
100
AcDbEntity
  8
YKK_B1
  6
PHANTOM
100
AcDbLine
 10
5123.89985583
 20
3245.10284252
 30
0.00000001
 11
5123.89985583
 21
3843.10374252
 31
0.00000001
  0
ARC
  5
15BC
330
2
100
AcDbEntity
  8
YKK_B1
  6
PHANTOM
100
AcDbCircle
 10
5004.54479752
 20
3231.6773868
 30
0.00000001
 40
622.9669480900095
100
AcDbArc
 50
0.35183863
 51
78.95433375
  0
LINE
  5
15BD
330
2
100
AcDbEntity
  8
YKK_C1
100
AcDbLine
 10
7614.98368817
 20
6642.50000126
 30
0.0
 11
7614.98368818
 21
6698.5000009
 31
0.0
  0
LINE
  5
15BE
330
2
100
AcDbEntity
  8
YKK_C1
100
AcDbLine
 10
7614.98368817
 20
6642.50000126
 30
0.0
 11
7631.98368817
 21
6642.50000126
 31
0.0
  0
LINE
  5
15BF
330
2
100
AcDbEntity
  8
YKK_C1
100
AcDbLine
 10
7631.98368817
 20
6642.50000126
 30
0.0
 11
7631.98368817
 21
6660.00000001
 31
0.0
  0
LINE
  5
15C0
330
2
100
AcDbEntity
  8
YKK_C1
100
AcDbLine
 10
7753.98368817
 20
6660.00000001
 30
0.0
 11
7690.48368711
 21
6660.00000001
 31
0.0
  0
LINE
  5
15C1
330
2
100
AcDbEntity
  8
YKK_C1
100
AcDbLine
 10
7690.48368711
 20
6660.00000001
 30
0.0
 11
7651.98368923
 21
6646.10000001
 31
0.0
  0
LINE
  5
15C2
330
2
100
AcDbEntity
  8
YKK_C1
100
AcDbLine
 10
7651.98368923
 20
6646.10000001
 30
0.0
 11
7631.98368817
 21
6646.10000001
 31
0.0
  0
LINE
  5
15C3
330
2
100
AcDbEntity
  8
YKK_C1
100
AcDbLine
 10
7651.98368817
 20
6643.00000001
 30
0.0
 11
7651.98368817
 21
6646.10000001
 31
0.0
  0
LINE
  5
15C4
330
2
100
AcDbEntity
  8
YKK_C1
100
AcDbLine
 10
7690.48368817
 20
6643.00000003
 30
0.0
 11
7690.48368817
 21
6660.00000001
 31
0.0
  0
LINE
  5
15C5
330
2
100
AcDbEntity
  8
YKK_C1
100
AcDbLine
 10
7706.28368817
 20
6643.00000003
 30
0.0
 11
7706.28368817
 21
6660.00000001
 31
0.0
  0
LINE
  5
15C6
330
2
100
AcDbEntity
  8
YKK_C1
100
AcDbLine
 10
7723.98368802
 20
6587.00000003
 30
0.0
 11
7723.98368802
 21
6643.00000003
 31
0.0
  0
LINE
  5
15C7
330
2
100
AcDbEntity
  8
YKK_C1
100
AcDbLine
 10
7723.98368802
 20
6643.00000003
 30
0.0
 11
7723.98368817
 21
6660.00000001
 31
0.0
  0
LINE
  5
15C8
330
2
100
AcDbEntity
  8
YKK_C1
100
AcDbLine
 10
7690.48368817
 20
6652.20000001
 30
0.0
 11
7706.28368817
 21
6652.20000001
 31
0.0
  0
LINE
  5
15C9
330
2
100
AcDbEntity
  8
YKK_C1
100
AcDbLine
 10
7631.98368817
 20
6631.00000013
 30
0.0
 11
7673.98368802
 21
6631.00000013
 31
0.0
  0
LINE
  5
15CA
330
2
100
AcDbEntity
  8
YKK_C1
100
AcDbLine
 10
7631.98368817
 20
6643.00000126
 30
0.0
 11
7631.98368817
 21
6631.00000013
 31
0.0
  0
LINE
  5
15CB
330
2
100
AcDbEntity
  8
YKK_C1
100
AcDbLine
 10
7631.98368817
 20
6643.00000126
 30
0.0
 11
7723.98368802
 21
6643.00000003
 31
0.0
  0
LINE
  5
15CC
330
2
100
AcDbEntity
  8
YKK_C1
100
AcDbLine
 10
7738.98368802
 20
6615.50000003
 30
0.0
 11
7738.98368802
 21
6613.00000003
 31
0.0
  0
LINE
  5
15CD
330
2
100
AcDbEntity
  8
YKK_C1
100
AcDbLine
 10
7738.98368802
 20
6613.00000003
 30
0.0
 11
7673.98368802
 21
6613.00000003
 31
0.0
  0
LINE
  5
15CE
330
2
100
AcDbEntity
  8
YKK_C1
100
AcDbLine
 10
7673.98368802
 20
6613.00000003
 30
0.0
 11
7673.98368842
 21
6643.0000007
 31
0.0
  0
LINE
  5
15CF
330
2
100
AcDbEntity
  8
YKK_C1
100
AcDbLine
 10
7661.98368816
 20
6621.00000003
 30
0.0
 11
7661.98368816
 21
6555.00000005
 31
0.0
  0
LINE
  5
15D0
330
2
100
AcDbEntity
  8
YKK_C1
100
AcDbLine
 10
7709.98368816
 20
6555.00000003
 30
0.0
 11
7709.98368816
 21
6597.00000003
 31
0.0
  0
LINE
  5
15D1
330
2
100
AcDbEntity
  8
YKK_C1
100
AcDbLine
 10
7709.98368816
 20
6597.00000003
 30
0.0
 11
7661.98368816
 21
6597.00000003
 31
0.0
  0
LINE
  5
15D2
330
2
100
AcDbEntity
  8
YKK_C1
100
AcDbLine
 10
7661.98368816
 20
6572.00000003
 30
0.0
 11
7709.98368816
 21
6572.00000003
 31
0.0
  0
LINE
  5
15D3
330
2
100
AcDbEntity
  8
YKK_C1
100
AcDbLine
 10
7667.98368817
 20
6568.00000002
 30
0.0
 11
7667.98368815
 21
5548.00000001
 31
0.0
  0
LINE
  5
15D4
330
2
100
AcDbEntity
  8
YKK_C1
100
AcDbLine
 10
7689.98368815
 20
5548.00000001
 30
0.0
 11
7689.98368817
 21
6568.00000002
 31
0.0
  0
LINE
  5
15D5
330
2
100
AcDbEntity
  8
YKK_C1
100
AcDbLine
 10
7615.98368818
 20
6632.50000126
 30
0.0
 11
7615.98368818
 21
5397.99619398
 31
0.0
  0
LINE
  5
15D6
330
2
100
AcDbEntity
  8
YKK_C1
100
AcDbLine
 10
7738.98368818
 20
6603.00000003
 30
0.0
 11
7738.98368818
 21
5513.0
 31
0.0
  0
LINE
  5
15D7
330
2
100
AcDbEntity
  8
YKK_C1
100
AcDbLine
 10
7631.983688
 20
5485.00000004
 30
0.0
 11
7673.983688
 21
5485.00000004
 31
0.0
  0
LINE
  5
15D8
330
2
100
AcDbEntity
  8
YKK_C1
100
AcDbLine
 10
7631.983688
 20
5485.00000004
 30
0.0
 11
7631.98368805
 21
5473.0
 31
0.0
  0
LINE
  5
15D9
330
2
100
AcDbEntity
  8
YKK_C1
100
AcDbLine
 10
7631.98368805
 20
5473.0
 30
0.0
 11
7723.98368817
 21
5473.0
 31
0.0
  0
LINE
  5
15DA
330
2
100
AcDbEntity
  8
YKK_C1
100
AcDbLine
 10
7723.98368817
 20
5473.0
 30
0.0
 11
7723.983688
 21
5529.0
 31
0.0
  0
LINE
  5
15DB
330
2
100
AcDbEntity
  8
YKK_C1
100
AcDbLine
 10
7738.983688
 20
5500.5
 30
0.0
 11
7738.983688
 21
5503.0
 31
0.0
  0
LINE
  5
15DC
330
2
100
AcDbEntity
  8
YKK_C1
100
AcDbLine
 10
7738.983688
 20
5503.0
 30
0.0
 11
7673.983688
 21
5503.0
 31
0.0
  0
LINE
  5
15DD
330
2
100
AcDbEntity
  8
YKK_C1
100
AcDbLine
 10
7673.983688
 20
5503.0
 30
0.0
 11
7673.983688
 21
5473.0
 31
0.0
  0
LINE
  5
15DE
330
2
100
AcDbEntity
  8
YKK_C1
100
AcDbLine
 10
7616.68458898
 20
5400.0
 30
0.0
 11
7616.68458898
 21
5473.00000001
 31
0.0
  0
LINE
  5
15DF
330
2
100
AcDbEntity
  8
YKK_C1
100
AcDbLine
 10
7616.68458898
 20
5473.00000001
 30
0.0
 11
7648.08458898
 21
5473.0
 31
0.0
  0
LINE
  5
15E0
330
2
100
AcDbEntity
  8
YKK_C1
100
AcDbLine
 10
7753.98368817
 20
5468.0
 30
0.0
 11
7753.98368817
 21
5473.0
 31
0.0
  0
LINE
  5
15E1
330
2
100
AcDbEntity
  8
YKK_C1
100
AcDbLine
 10
7753.98368817
 20
5473.0
 30
0.0
 11
7721.28368817
 21
5473.0
 31
0.0
  0
LINE
  5
15E2
330
2
100
AcDbEntity
  8
YKK_C1
100
AcDbLine
 10
7721.28368817
 20
5473.0
 30
0.0
 11
7721.28368817
 21
5468.0
 31
0.0
  0
LINE
  5
15E3
330
2
100
AcDbEntity
  8
YKK_C1
100
AcDbLine
 10
7726.78368817
 20
5473.0
 30
0.0
 11
7726.78368817
 21
5481.0
 31
0.0
  0
LINE
  5
15E4
330
2
100
AcDbEntity
  8
YKK_C1
100
AcDbLine
 10
7709.98368816
 20
5519.0
 30
0.0
 11
7709.98368816
 21
5561.0
 31
0.0
  0
LINE
  5
15E5
330
2
100
AcDbEntity
  8
YKK_C1
100
AcDbLine
 10
7661.98368816
 20
5495.0
 30
0.0
 11
7661.98368816
 21
5560.99999998
 31
0.0
  0
LINE
  5
15E6
330
2
100
AcDbEntity
  8
YKK_C1
100
AcDbLine
 10
7709.98368816
 20
5519.0
 30
0.0
 11
7661.98368816
 21
5519.0
 31
0.0
  0
LINE
  5
15E7
330
2
100
AcDbEntity
  8
YKK_C1
100
AcDbLine
 10
7661.98368816
 20
5544.0
 30
0.0
 11
7709.98368816
 21
5544.0
 31
0.0
  0
TEXT
  5
15E8
330
2
100
AcDbEntity
  8
YKK_N1
  6
Continuous
100
AcDbText
 10
8185.5
 20
5810.16261493
 30
0.0
 40
60.0
  1
新設窓H=1170
 50
90.0
 41
1.122581
  7
MX_NOTE_STANDARD
 11
8155.5
 21
5810.16261493
 31
0.0
100
AcDbText
 73
     2
  0
TEXT
  5
15E9
330
2
100
AcDbEntity
  8
YKK_N1
  6
Continuous
100
AcDbText
 10
8185.5
 20
6725.09541904
 30
0.0
 40
60.0
  1
17
 50
90.0
  7
MX_NOTE_STANDARD
 11
8155.5
 21
6725.09541904
 31
0.0
100
AcDbText
 73
     2
  0
LINE
  5
15EA
330
2
100
AcDbEntity
  8
YKK_N1
  6
Continuous
100
AcDbLine
 10
8147.5
 20
6556.39745901
 30
0.0
 11
8247.5
 21
6556.39745901
 31
0.0
  0
LINE
  5
15EB
330
2
100
AcDbEntity
  8
YKK_N1
  6
Continuous
100
AcDbLine
 10
8147.5
 20
6556.39745901
 30
0.0
 11
8197.5
 21
6643.00000001
 31
0.0
  0
CIRCLE
  5
15EC
330
2
100
AcDbEntity
  8
YKK_N1
  6
Continuous
100
AcDbCircle
 10
7997.5
 20
6643.00000001
 30
0.0
 40
5.0
  0
CIRCLE
  5
15ED
330
2
100
AcDbEntity
  8
YKK_N1
  6
Continuous
100
AcDbCircle
 10
7997.5
 20
6613.00000001
 30
0.0
 40
5.0
  0
LINE
  5
15EE
330
2
100
AcDbEntity
  8
YKK_N1
  6
Continuous
100
AcDbLine
 10
7997.5
 20
6613.00000001
 30
0.0
 11
7997.5
 21
6643.00000001
 31
0.0
  0
LINE
  5
15EF
330
2
100
AcDbEntity
  8
YKK_N1
  6
Continuous
100
AcDbLine
 10
8197.5
 20
6660.00000001
 30
0.0
 11
8197.5
 21
6643.00000001
 31
0.0
  0
CIRCLE
  5
15F0
330
2
100
AcDbEntity
  8
YKK_N1
  6
Continuous
100
AcDbCircle
 10
8197.5
 20
6660.00000001
 30
0.0
 40
5.0
  0
LINE
  5
15F1
330
2
100
AcDbEntity
  8
YKK_N1
  6
Continuous
100
AcDbLine
 10
8247.5
 20
6556.39745901
 30
0.0
 11
8197.5
 21
6643.00000001
 31
0.0
  0
LINE
  5
15F2
330
2
100
AcDbEntity
  8
YKK_N1
  6
Continuous
100
AcDbLine
 10
8147.5
 20
5559.60294001
 30
0.0
 11
8247.5
 21
5559.60294001
 31
0.0
  0
LINE
  5
15F3
330
2
100
AcDbEntity
  8
YKK_N1
  6
Continuous
100
AcDbLine
 10
8147.5
 20
5559.60294001
 30
0.0
 11
8197.5
 21
5473.00040001
 31
0.0
  0
LINE
  5
15F4
330
2
100
AcDbEntity
  8
YKK_N1
  6
Continuous
100
AcDbLine
 10
7997.5
 20
5503.00000001
 30
0.0
 11
7997.5
 21
5473.00000001
 31
0.0
  0
CIRCLE
  5
15F5
330
2
100
AcDbEntity
  8
YKK_N1
  6
Continuous
100
AcDbCircle
 10
7997.5
 20
5473.00002501
 30
0.0
 40
5.0
  0
CIRCLE
  5
15F6
330
2
100
AcDbEntity
  8
YKK_N1
  6
Continuous
100
AcDbCircle
 10
7997.5
 20
5503.00000001
 30
0.0
 40
5.0
  0
LINE
  5
15F7
330
2
100
AcDbEntity
  8
YKK_N1
  6
Continuous
100
AcDbLine
 10
8247.5
 20
5559.60294001
 30
0.0
 11
8197.5
 21
5473.00040001
 31
0.0
  0
CIRCLE
  5
15F8
330
2
100
AcDbEntity
  8
YKK_N1
  6
Continuous
100
AcDbCircle
 10
8197.5
 20
5468.00000001
 30
0.0
 40
5.0
  0
LINE
  5
15F9
330
2
100
AcDbEntity
  8
YKK_N1
  6
Continuous
100
AcDbLine
 10
8197.5
 20
5473.00000001
 30
0.0
 11
8197.5
 21
5468.00000001
 31
0.0
  0
LINE
  5
15FA
330
2
100
AcDbEntity
  8
YKK_N1
  6
Continuous
100
AcDbLine
 10
8197.5
 20
6643.00000001
 30
0.0
 11
8197.5
 21
5473.00000001
 31
0.0
  0
LINE
  5
15FB
330
2
100
AcDbEntity
  8
YKK_N1
  6
Continuous
100
AcDbLine
 10
7872.5
 20
5473.00000001
 30
0.0
 11
8197.5
 21
5473.00000001
 31
0.0
  0
LINE
  5
15FC
330
2
100
AcDbEntity
  8
YKK_N1
  6
Continuous
100
AcDbLine
 10
7872.5
 20
5468.00000001
 30
0.0
 11
8597.5
 21
5468.00000001
 31
0.0
  0
LINE
  5
15FD
330
2
100
AcDbEntity
  8
YKK_N1
  6
Continuous
100
AcDbLine
 10
7872.5
 20
5503.00000001
 30
0.0
 11
7997.5
 21
5503.00000001
 31
0.0
  0
TEXT
  5
15FE
330
2
100
AcDbEntity
  8
YKK_N1
  6
Continuous
100
AcDbText
 10
7985.5
 20
5512.84005501
 30
0.0
 40
60.0
  1
30
 50
90.0
  7
MX_NOTE_STANDARD
 11
7955.5
 21
5512.84005501
 31
0.0
100
AcDbText
 73
     2
  0
LINE
  5
15FF
330
2
100
AcDbEntity
  8
YKK_N1
  6
Continuous
100
AcDbLine
 10
7872.5
 20
6660.00000001
 30
0.0
 11
8397.5
 21
6660.00000001
 31
0.0
  0
LINE
  5
1600
330
2
100
AcDbEntity
  8
YKK_N1
  6
Continuous
100
AcDbLine
 10
7872.5
 20
6643.00000001
 30
0.0
 11
8197.5
 21
6643.00000001
 31
0.0
  0
LINE
  5
1601
330
2
100
AcDbEntity
  8
YKK_N1
  6
Continuous
100
AcDbLine
 10
7872.5
 20
6613.00000001
 30
0.0
 11
7997.5
 21
6613.00000001
 31
0.0
  0
TEXT
  5
1602
330
2
100
AcDbEntity
  8
YKK_N1
  6
Continuous
100
AcDbText
 10
7985.5
 20
6504.97812701
 30
0.0
 40
60.0
  1
30
 50
90.0
  7
MX_NOTE_STANDARD
 11
7955.5
 21
6504.97812701
 31
0.0
100
AcDbText
 73
     2
  0
TEXT
  5
1603
330
2
100
AcDbEntity
  8
YKK_N1
  6
Continuous
100
AcDbText
 10
8190.50816407
 20
5415.09323395
 30
0.0
 40
60.0
  1
5
 50
90.0
  7
MX_NOTE_STANDARD
 11
8160.50816407
 21
5415.09323395
 31
0.0
100
AcDbText
 73
     2
  0
LINE
  5
1604
330
2
100
AcDbEntity
  8
YKK_N1
  6
Continuous
100
AcDbLine
 10
8397.5
 20
6660.00000001
 30
0.0
 11
8397.5
 21
5468.00000001
 31
0.0
  0
LINE
  5
1605
330
2
100
AcDbEntity
  8
YKK_N1
  6
Continuous
100
AcDbLine
 10
8597.5
 20
6670.00000001
 30
0.0
 11
8597.5
 21
5468.00000001
 31
0.0
  0
LINE
  5
1606
330
2
100
AcDbEntity
  8
YKK_N1
  6
Continuous
100
AcDbLine
 10
7872.5
 20
6670.00000001
 30
0.0
 11
8597.5
 21
6670.00000001
 31
0.0
  0
LINE
  5
1607
330
2
100
AcDbEntity
  8
YKK_N1
100
AcDbLine
 10
8397.5
 20
6660.00000001
 30
0.0
 11
8397.5
 21
6670.00000001
 31
0.0
  0
LINE
  5
1608
330
2
100
AcDbEntity
  8
YKK_N1
  6
Continuous
100
AcDbLine
 10
7872.5
 20
6709.00000001
 30
0.0
 11
8597.5
 21
6709.00000001
 31
0.0
  0
LINE
  5
1609
330
2
100
AcDbEntity
  8
YKK_N1
100
AcDbLine
 10
8597.5
 20
6670.00000001
 30
0.0
 11
8597.5
 21
6709.00000001
 31
0.0
  0
LINE
  5
160A
330
2
100
AcDbEntity
  8
YKK_N1
  6
Continuous
100
AcDbLine
 10
8347.5
 20
6573.39745901
 30
0.0
 11
8447.5
 21
6573.39745901
 31
0.0
  0
LINE
  5
160B
330
2
100
AcDbEntity
  8
YKK_N1
  6
Continuous
100
AcDbLine
 10
8347.5
 20
6573.39745901
 30
0.0
 11
8397.5
 21
6660.00000001
 31
0.0
  0
LINE
  5
160C
330
2
100
AcDbEntity
  8
YKK_N1
  6
Continuous
100
AcDbLine
 10
8447.5
 20
6573.39745901
 30
0.0
 11
8397.5
 21
6660.00000001
 31
0.0
  0
LINE
  5
160D
330
2
100
AcDbEntity
  8
YKK_N1
  6
Continuous
100
AcDbLine
 10
8547.5
 20
6583.39745901
 30
0.0
 11
8647.5
 21
6583.39745901
 31
0.0
  0
LINE
  5
160E
330
2
100
AcDbEntity
  8
YKK_N1
  6
Continuous
100
AcDbLine
 10
8547.5
 20
6583.39745901
 30
0.0
 11
8597.5
 21
6670.00000001
 31
0.0
  0
LINE
  5
160F
330
2
100
AcDbEntity
  8
YKK_N1
  6
Continuous
100
AcDbLine
 10
8647.5
 20
6583.39745901
 30
0.0
 11
8597.5
 21
6670.00000001
 31
0.0
  0
CIRCLE
  5
1610
330
2
100
AcDbEntity
  8
YKK_N1
  6
Continuous
100
AcDbCircle
 10
8397.5
 20
6670.00000001
 30
0.0
 40
5.0
  0
CIRCLE
  5
1611
330
2
100
AcDbEntity
  8
YKK_N1
  6
Continuous
100
AcDbCircle
 10
8597.5
 20
6709.00000001
 30
0.0
 40
5.0
  0
LINE
  5
1612
330
2
100
AcDbEntity
  8
YKK_N1
  6
Continuous
100
AcDbLine
 10
8347.5
 20
5554.60254001
 30
0.0
 11
8447.5
 21
5554.60254001
 31
0.0
  0
LINE
  5
1613
330
2
100
AcDbEntity
  8
YKK_N1
  6
Continuous
100
AcDbLine
 10
8347.5
 20
5554.60254001
 30
0.0
 11
8397.5
 21
5468.00000001
 31
0.0
  0
LINE
  5
1614
330
2
100
AcDbEntity
  8
YKK_N1
  6
Continuous
100
AcDbLine
 10
8447.5
 20
5554.60254001
 30
0.0
 11
8397.5
 21
5468.00000001
 31
0.0
  0
LINE
  5
1615
330
2
100
AcDbEntity
  8
YKK_N1
  6
Continuous
100
AcDbLine
 10
8547.5
 20
5554.60254001
 30
0.0
 11
8647.5
 21
5554.60254001
 31
0.0
  0
LINE
  5
1616
330
2
100
AcDbEntity
  8
YKK_N1
  6
Continuous
100
AcDbLine
 10
8547.5
 20
5554.60254001
 30
0.0
 11
8597.5
 21
5468.00000001
 31
0.0
  0
LINE
  5
1617
330
2
100
AcDbEntity
  8
YKK_N1
  6
Continuous
100
AcDbLine
 10
8647.5
 20
5554.60254001
 30
0.0
 11
8597.5
 21
5468.00000001
 31
0.0
  0
TEXT
  5
1618
330
2
100
AcDbEntity
  8
YKK_N1
  6
Continuous
100
AcDbText
 10
8380.5
 20
5587.10558116
 30
0.0
 40
50.0
  1
ジョイント枠出来高JH=1192
 50
90.0
 41
1.122581
  7
MX_NOTE_STANDARD
 11
8355.5
 21
5587.10558116
 31
0.0
100
AcDbText
 73
     2
  0
TEXT
  5
1619
330
2
100
AcDbEntity
  8
YKK_N1
  6
Continuous
100
AcDbText
 10
8580.5
 20
5667.73733587
 30
0.0
 40
50.0
  1
既設窓枠開口高KH=1202
 50
90.0
 41
1.122581
  7
MX_NOTE_STANDARD
 11
8555.5
 21
5667.73733587
 31
0.0
100
AcDbText
 73
     2
  0
TEXT
  5
161A
330
2
100
AcDbEntity
  8
YKK_N1
  6
Continuous
100
AcDbText
 10
8385.5
 20
6735.09541904
 30
0.0
 40
60.0
  1
10
 50
90.0
  7
MX_NOTE_STANDARD
 11
8355.5
 21
6735.09541904
 31
0.0
100
AcDbText
 73
     2
  0
TEXT
  5
161B
330
2
100
AcDbEntity
  8
YKK_N1
  6
Continuous
100
AcDbText
 10
8585.5
 20
6730.29584714
 30
0.0
 40
60.0
  1
39
 50
90.0
  7
MX_NOTE_STANDARD
 11
8555.5
 21
6730.29584714
 31
0.0
100
AcDbText
 73
     2
  0
LINE
  5
161C
330
2
100
AcDbEntity
  8
YKK_N1
  6
Continuous
100
AcDbLine
 10
7872.5
 20
5407.00000001
 30
0.0
 11
8597.5
 21
5407.00000001
 31
0.0
  0
LINE
  5
161D
330
2
100
AcDbEntity
  8
YKK_N1
100
AcDbLine
 10
8597.5
 20
5407.00000001
 30
0.0
 11
8597.5
 21
5468.00000001
 31
0.0
  0
TEXT
  5
161E
330
2
100
AcDbEntity
  8
YKK_N1
  6
Continuous
100
AcDbText
 10
8585.5
 20
5293.15143157
 30
0.0
 40
60.0
  1
61
 50
90.0
  7
MX_NOTE_STANDARD
 11
8555.5
 21
5293.15143157
 31
0.0
100
AcDbText
 73
     2
  0
TEXT
  5
161F
330
2
100
AcDbEntity
  8
YKK_N1
  6
Continuous
100
AcDbText
 10
7617.03036199
 20
5116.00046765
 30
0.0
 40
60.0
  1
92
  7
MX_NOTE_STANDARD
 11
7617.03036199
 21
5146.00046765
 31
0.0
100
AcDbText
 73
     2
  0
TEXT
  5
1620
330
2
100
AcDbEntity
  8
YKK_N1
  6
Continuous
100
AcDbText
 10
7772.84721021
 20
5200.00046765
 30
0.0
 40
60.0
  1
15
  7
MX_NOTE_STANDARD
 11
7772.84721021
 21
5230.00046765
 31
0.0
100
AcDbText
 73
     2
  0
LINE
  5
1621
330
2
100
AcDbEntity
  8
YKK_N1
  6
Continuous
100
AcDbLine
 10
7616.68458899
 20
5188.00046765
 30
0.0
 11
7631.98458899
 21
5188.00046765
 31
0.0
  0
CIRCLE
  5
1622
330
2
100
AcDbEntity
  8
YKK_N1
  6
Continuous
100
AcDbCircle
 10
7616.68458899
 20
5187.89421765
 30
0.0
 40
5.0
  0
CIRCLE
  5
1623
330
2
100
AcDbEntity
  8
YKK_N1
  6
Continuous
100
AcDbCircle
 10
7616.68458899
 20
5188.00046765
 30
0.0
 40
0.10625
  0
LINE
  5
1624
330
2
100
AcDbEntity
  8
YKK_N1
  6
Continuous
100
AcDbLine
 10
7723.98458899
 20
5188.00046765
 30
0.0
 11
7631.98458899
 21
5188.00046765
 31
0.0
  0
CIRCLE
  5
1625
330
2
100
AcDbEntity
  8
YKK_N1
  6
Continuous
100
AcDbCircle
 10
7631.98458899
 20
5188.00046765
 30
0.0
 40
5.0
  0
LINE
  5
1626
330
2
100
AcDbEntity
  8
YKK_N1
  6
Continuous
100
AcDbLine
 10
7738.98458899
 20
5188.00046765
 30
0.0
 11
7723.98458899
 21
5188.00046765
 31
0.0
  0
CIRCLE
  5
1627
330
2
100
AcDbEntity
  8
YKK_N1
  6
Continuous
100
AcDbCircle
 10
7723.98458899
 20
5188.00046765
 30
0.0
 40
5.0
  0
CIRCLE
  5
1628
330
2
100
AcDbEntity
  8
YKK_N1
  6
Continuous
100
AcDbCircle
 10
7738.98458899
 20
5188.00046765
 30
0.0
 40
5.0
  0
LINE
  5
1629
330
2
100
AcDbEntity
  8
YKK_N1
  6
Continuous
100
AcDbLine
 10
7616.68458899
 20
5313.00046765
 30
0.0
 11
7616.68458899
 21
5188.00046765
 31
0.0
  0
LINE
  5
162A
330
2
100
AcDbEntity
  8
YKK_N1
  6
Continuous
100
AcDbLine
 10
7723.98458899
 20
5313.00046765
 30
0.0
 11
7723.98458899
 21
5188.00046765
 31
0.0
  0
LINE
  5
162B
330
2
100
AcDbEntity
  8
YKK_N1
  6
Continuous
100
AcDbLine
 10
7738.98458899
 20
5188.00046765
 30
0.0
 11
7738.98458899
 21
5313.00046765
 31
0.0
  0
LINE
  5
162C
330
2
100
AcDbEntity
  8
YKK_N1
  6
Continuous
100
AcDbLine
 10
7631.98458899
 20
5313.00046765
 30
0.0
 11
7631.98458899
 21
5188.00046765
 31
0.0
  0
TEXT
  5
162D
330
2
100
AcDbEntity
  8
YKK_N1
  6
Continuous
100
AcDbText
 10
7426.92644372
 20
5200.00046765
 30
0.0
 40
60.0
  1
15.3
  7
MX_NOTE_STANDARD
 11
7426.92644372
 21
5230.00046765
 31
0.0
100
AcDbText
 73
     2
  0
CIRCLE
  5
162E
330
2
100
AcDbEntity
  8
YKK_N1
  6
Continuous
100
AcDbCircle
 10
8597.5
 20
5407.00000001
 30
0.0
 40
5.0
  0
LINE
  5
162F
330
2
100
AcDbEntity
  8
YKK_N1
  6
Continuous
100
AcDbLine
 10
7753.98458899
 20
5188.00046765
 30
0.0
 11
7738.98458899
 21
5188.00046765
 31
0.0
  0
CIRCLE
  5
1630
330
2
100
AcDbEntity
  8
YKK_N1
  6
Continuous
100
AcDbCircle
 10
7753.98458899
 20
5188.00046765
 30
0.0
 40
5.0
  0
LINE
  5
1631
330
2
100
AcDbEntity
  8
YKK_N1
  6
Continuous
100
AcDbLine
 10
7753.98458899
 20
5188.00046765
 30
0.0
 11
7753.98458899
 21
5313.00046765
 31
0.0
  0
LINE
  5
1632
330
2
100
AcDbEntity
  8
YKK_N1
100
AcDbLine
 10
7731.48458899
 20
5188.00046765
 30
0.0
 11
7747.18435485
 21
5089.81136575
 31
-0.00000002
  0
LINE
  5
1633
330
2
100
AcDbEntity
  8
YKK_N1
100
AcDbLine
 10
7747.18435485
 20
5089.81136575
 30
-0.00000002
 11
7859.15086953
 21
5089.81136575
 31
-0.00000002
  0
TEXT
  5
1634
330
2
100
AcDbEntity
  8
YKK_N1
  6
Continuous
100
AcDbText
 10
7772.84721021
 20
5097.27449815
 30
0.0
 40
60.0
  1
15
  7
MX_NOTE_STANDARD
 11
7772.84721021
 21
5127.27449815
 31
0.0
100
AcDbText
 73
     2
  0
TEXT
  5
1635
330
2
100
AcDbEntity
  8
YKK_N1
  6
Continuous
100
AcDbText
 10
7501.9836881
 20
6176.27843376
 30
0.0
 40
60.0
  1
92
  7
MX_NOTE_STANDARD
 11
7501.9836881
 21
6206.27843376
 31
0.0
100
AcDbText
 73
     2
  0
CIRCLE
  5
1636
330
2
100
AcDbEntity
  8
YKK_N1
  6
Continuous
100
AcDbCircle
 10
7723.9836761
 20
6164.17218376
 30
0.0
 40
5.0
  0
CIRCLE
  5
1637
330
2
100
AcDbEntity
  8
YKK_N1
  6
Continuous
100
AcDbCircle
 10
7631.9836881
 20
6164.27843376
 30
0.0
 40
5.0
  0
LINE
  5
1638
330
2
100
AcDbEntity
  8
YKK_N1
  6
Continuous
100
AcDbLine
 10
7631.9836881
 20
6164.17218376
 30
0.0
 11
7723.9836761
 21
6164.17218376
 31
0.0
  0
LINE
  5
1639
330
2
100
AcDbEntity
  8
YKK_N1
  6
Continuous
100
AcDbLine
 10
7723.9836761
 20
6039.17218376
 30
0.0
 11
7723.9836761
 21
6164.17218376
 31
0.0
  0
LINE
  5
163A
330
2
100
AcDbEntity
  8
YKK_N1
  6
Continuous
100
AcDbLine
 10
7631.9836881
 20
6039.17218376
 30
0.0
 11
7631.9836881
 21
6164.17218376
 31
0.0
  0
LINE
  5
163B
330
2
100
AcDbEntity
  8
YKK_N1
  6
Continuous
100
AcDbLine
 10
5964.49927206
 20
3265.50284239
 30
0.00000001
 11
5964.49927206
 21
3173.50284239
 31
0.00000001
  0
TEXT
  5
163C
330
2
100
AcDbEntity
  8
YKK_N1
  6
Continuous
100
AcDbText
 10
5952.49926906
 20
3288.53812713
 30
0.00000001
 40
60.0
  1
92
 50
90.0
  7
MX_NOTE_STANDARD
100
AcDbText
  0
CIRCLE
  5
163D
330
2
100
AcDbEntity
  8
YKK_N1
  6
Continuous
100
AcDbCircle
 10
5964.49927206
 20
3265.50284239
 30
0.00000001
 40
5.0
  0
TEXT
  5
163E
330
2
100
AcDbEntity
  8
YKK_N1
  6
Continuous
100
AcDbText
 10
5952.49926906
 20
3057.26637439
 30
0.00000001
 40
60.0
  1
15
 50
90.0
  7
MX_NOTE_STANDARD
100
AcDbText
  0
CIRCLE
  5
163F
330
2
100
AcDbEntity
  8
YKK_N1
  6
Continuous
100
AcDbCircle
 10
5964.49927206
 20
3158.50284239
 30
0.00000001
 40
5.0
  0
CIRCLE
  5
1640
330
2
100
AcDbEntity
  8
YKK_N1
  6
Continuous
100
AcDbCircle
 10
5964.49927206
 20
3173.50284239
 30
0.00000001
 40
5.0
  0
LINE
  5
1641
330
2
100
AcDbEntity
  8
YKK_N1
  6
Continuous
100
AcDbLine
 10
5964.49927206
 20
3173.50284239
 30
0.00000001
 11
5964.49927206
 21
3158.50284239
 31
0.00000001
  0
TEXT
  5
1642
330
2
100
AcDbEntity
  8
YKK_N1
  6
Continuous
100
AcDbText
 10
5166.00019178
 20
2722.0
 30
0.00000001
 40
40.0
  1
新設窓W=642
  7
MX_NOTE_STANDARD
 11
5166.00019178
 21
2742.0
 31
0.00000001
100
AcDbText
 73
     2
  0
TEXT
  5
1643
330
2
100
AcDbEntity
  8
YKK_N1
  6
Continuous
100
AcDbText
 10
5699.4998581
 20
2712.000003
 30
0.00000001
 40
60.0
  1
25
  7
MX_NOTE_STANDARD
100
AcDbText
  0
LINE
  5
1644
330
2
100
AcDbEntity
  8
YKK_N1
  6
Continuous
100
AcDbLine
 10
5674.4998581
 20
3025.0
 30
0.00000001
 11
5674.4998581
 21
2500.0
 31
0.00000001
  0
LINE
  5
1645
330
2
100
AcDbEntity
  8
YKK_N1
  6
Continuous
100
AcDbLine
 10
5649.4998581
 20
3025.0
 30
0.00000001
 11
5649.4998581
 21
2700.0
 31
0.00000001
  0
LINE
  5
1646
330
2
100
AcDbEntity
  8
YKK_N1
  6
Continuous
100
AcDbLine
 10
5649.4998581
 20
2700.0
 30
0.00000001
 11
5674.4998581
 21
2700.0
 31
0.00000001
  0
CIRCLE
  5
1647
330
2
100
AcDbEntity
  8
YKK_N1
  6
Continuous
100
AcDbCircle
 10
5674.4998581
 20
2700.0
 30
0.00000001
 40
5.0
  0
LINE
  5
1648
330
2
100
AcDbEntity
  8
YKK_N1
  6
Continuous
100
AcDbLine
 10
5649.4998581
 20
2900.0
 30
0.00000001
 11
5629.4998581
 21
2900.0
 31
0.00000001
  0
LINE
  5
1649
330
2
100
AcDbEntity
  8
YKK_N1
  6
Continuous
100
AcDbLine
 10
5629.4998581
 20
3025.0
 30
0.00000001
 11
5629.4998581
 21
2900.0
 31
0.00000001
  0
CIRCLE
  5
164A
330
2
100
AcDbEntity
  8
YKK_N1
  6
Continuous
100
AcDbCircle
 10
5629.4998581
 20
2900.0
 30
0.00000001
 40
5.0
  0
CIRCLE
  5
164B
330
2
100
AcDbEntity
  8
YKK_N1
  6
Continuous
100
AcDbCircle
 10
5649.4998581
 20
2900.0
 30
0.00000001
 40
5.0
  0
LINE
  5
164C
330
2
100
AcDbEntity
  8
YKK_N1
  6
Continuous
100
AcDbLine
 10
5562.8973181
 20
2750.0
 30
0.00000001
 11
5562.8973181
 21
2650.0
 31
0.00000001
  0
LINE
  5
164D
330
2
100
AcDbEntity
  8
YKK_N1
  6
Continuous
100
AcDbLine
 10
5562.8973181
 20
2750.0
 30
0.00000001
 11
5649.4998581
 21
2700.0
 31
0.00000001
  0
LINE
  5
164E
330
2
100
AcDbEntity
  8
YKK_N1
  6
Continuous
100
AcDbLine
 10
5649.4998581
 20
2700.0
 30
0.00000001
 11
5562.8973181
 21
2650.0
 31
0.00000001
  0
TEXT
  5
164F
330
2
100
AcDbEntity
  8
YKK_N1
  6
Continuous
100
AcDbText
 10
5509.65033598
 20
2912.78324834
 30
0.00000001
 40
60.0
  1
20
  7
MX_NOTE_STANDARD
 11
5509.65033598
 21
2942.78324834
 31
0.00000001
100
AcDbText
 73
     2
  0
LINE
  5
1650
330
2
100
AcDbEntity
  8
YKK_N1
  6
Continuous
100
AcDbLine
 10
5094.1023981
 20
2750.0
 30
0.00000001
 11
5007.4998581
 21
2700.0
 31
0.00000001
  0
LINE
  5
1651
330
2
100
AcDbEntity
  8
YKK_N1
  6
Continuous
100
AcDbLine
 10
5007.4998581
 20
2700.0
 30
0.00000001
 11
5094.1023981
 21
2650.0
 31
0.00000001
  0
TEXT
  5
1652
330
2
100
AcDbEntity
  8
YKK_N1
  6
Continuous
100
AcDbText
 10
5041.91836923
 20
2912.78324834
 30
0.00000001
 40
60.0
  1
20
  7
MX_NOTE_STANDARD
 11
5041.91836923
 21
2942.78324834
 31
0.00000001
100
AcDbText
 73
     2
  0
CIRCLE
  5
1653
330
2
100
AcDbEntity
  8
YKK_N1
  6
Continuous
100
AcDbCircle
 10
4982.4998581
 20
2700.0
 30
0.00000001
 40
5.0
  0
LINE
  5
1654
330
2
100
AcDbEntity
  8
YKK_N1
  6
Continuous
100
AcDbLine
 10
4982.4998581
 20
2700.0
 30
0.00000001
 11
5007.4998581
 21
2700.0
 31
0.00000001
  0
CIRCLE
  5
1655
330
2
100
AcDbEntity
  8
YKK_N1
  6
Continuous
100
AcDbCircle
 10
5027.4998581
 20
2900.0
 30
0.00000001
 40
5.0
  0
CIRCLE
  5
1656
330
2
100
AcDbEntity
  8
YKK_N1
  6
Continuous
100
AcDbCircle
 10
5007.4998581
 20
2900.0
 30
0.00000001
 40
5.0
  0
LINE
  5
1657
330
2
100
AcDbEntity
  8
YKK_N1
  6
Continuous
100
AcDbLine
 10
5007.4998581
 20
2900.0
 30
0.00000001
 11
5027.4998581
 21
2900.0
 31
0.00000001
  0
LINE
  5
1658
330
2
100
AcDbEntity
  8
YKK_N1
  6
Continuous
100
AcDbLine
 10
5094.1023981
 20
2750.0
 30
0.00000001
 11
5094.1023981
 21
2650.0
 31
0.00000001
  0
TEXT
  5
1659
330
2
100
AcDbEntity
  8
YKK_N1
  6
Continuous
100
AcDbText
 10
4857.4998581
 20
2712.000003
 30
0.00000001
 40
60.0
  1
25
  7
MX_NOTE_STANDARD
100
AcDbText
  0
LINE
  5
165A
330
2
100
AcDbEntity
  8
YKK_N1
  6
Continuous
100
AcDbLine
 10
5649.4998581
 20
2700.0
 30
0.00000001
 11
5007.4998581
 21
2700.0
 31
0.00000001
  0
LINE
  5
165B
330
2
100
AcDbEntity
  8
YKK_N1
  6
Continuous
100
AcDbLine
 10
5027.4998581
 20
3025.0
 30
0.00000001
 11
5027.4998581
 21
2900.0
 31
0.00000001
  0
LINE
  5
165C
330
2
100
AcDbEntity
  8
YKK_N1
  6
Continuous
100
AcDbLine
 10
5007.4998581
 20
3025.0
 30
0.00000001
 11
5007.4998581
 21
2700.0
 31
0.00000001
  0
LINE
  5
165D
330
2
100
AcDbEntity
  8
YKK_N1
  6
Continuous
100
AcDbLine
 10
4982.4998581
 20
3025.0
 30
0.00000001
 11
4982.4998581
 21
2500.0
 31
0.00000001
  0
LINE
  5
165E
330
2
100
AcDbEntity
  8
YKK_N1
  6
Continuous
100
AcDbLine
 10
5839.49927206
 20
3158.50284239
 30
0.00000001
 11
5964.49927206
 21
3158.50284239
 31
0.00000001
  0
LINE
  5
165F
330
2
100
AcDbEntity
  8
YKK_N1
  6
Continuous
100
AcDbLine
 10
5839.49927206
 20
3173.50284239
 30
0.00000001
 11
5964.49927206
 21
3173.50284239
 31
0.00000001
  0
LINE
  5
1660
330
2
100
AcDbEntity
  8
YKK_N1
  6
Continuous
100
AcDbLine
 10
5839.49927206
 20
3265.50284239
 30
0.00000001
 11
5964.49927206
 21
3265.50284239
 31
0.00000001
  0
LINE
  5
1661
330
2
100
AcDbEntity
  8
YKK_N1
  6
Continuous
100
AcDbLine
 10
5674.4998581
 20
2500.0
 30
0.00000001
 11
4982.4998581
 21
2500.0
 31
0.00000001
  0
LINE
  5
1662
330
2
100
AcDbEntity
  8
YKK_N1
  6
Continuous
100
AcDbLine
 10
5679.4998581
 20
2300.0
 30
0.00000001
 11
4977.4998581
 21
2300.0
 31
0.00000001
  0
LINE
  5
1663
330
2
100
AcDbEntity
  8
YKK_N1
  6
Continuous
100
AcDbLine
 10
4977.4998581
 20
3025.0
 30
0.00000001
 11
4977.4998581
 21
2300.0
 31
0.00000001
  0
LINE
  5
1664
330
2
100
AcDbEntity
  8
YKK_N1
  6
Continuous
100
AcDbLine
 10
5679.4998581
 20
3025.0
 30
0.00000001
 11
5679.4998581
 21
2300.0
 31
0.00000001
  0
LINE
  5
1665
330
2
100
AcDbEntity
  8
YKK_N1
100
AcDbLine
 10
4982.4998581
 20
2500.0
 30
0.00000001
 11
4977.4998581
 21
2500.0
 31
0.00000001
  0
LINE
  5
1666
330
2
100
AcDbEntity
  8
YKK_N1
100
AcDbLine
 10
5674.4998581
 20
2500.0
 30
0.00000001
 11
5679.4998581
 21
2500.0
 31
0.00000001
  0
LINE
  5
1667
330
2
100
AcDbEntity
  8
YKK_N1
  6
Continuous
100
AcDbLine
 10
4941.4998581
 20
3025.0
 30
0.00000001
 11
4941.4998581
 21
2300.0
 31
0.00000001
  0
LINE
  5
1668
330
2
100
AcDbEntity
  8
YKK_N1
  6
Continuous
100
AcDbLine
 10
5715.4998581
 20
3025.0
 30
0.00000001
 11
5715.4998581
 21
2300.0
 31
0.00000001
  0
LINE
  5
1669
330
2
100
AcDbEntity
  8
YKK_N1
100
AcDbLine
 10
4977.4998581
 20
2300.0
 30
0.00000001
 11
4941.4998581
 21
2300.0
 31
0.00000001
  0
LINE
  5
166A
330
2
100
AcDbEntity
  8
YKK_N1
100
AcDbLine
 10
5679.4998581
 20
2300.0
 30
0.00000001
 11
5715.4998581
 21
2300.0
 31
0.00000001
  0
LINE
  5
166B
330
2
100
AcDbEntity
  8
YKK_N1
  6
Continuous
100
AcDbLine
 10
5069.1023981
 20
2550.0
 30
0.00000001
 11
4982.4998581
 21
2500.0
 31
0.00000001
  0
LINE
  5
166C
330
2
100
AcDbEntity
  8
YKK_N1
  6
Continuous
100
AcDbLine
 10
4982.4998581
 20
2500.0
 30
0.00000001
 11
5069.1023981
 21
2450.0
 31
0.00000001
  0
LINE
  5
166D
330
2
100
AcDbEntity
  8
YKK_N1
  6
Continuous
100
AcDbLine
 10
5069.1023981
 20
2550.0
 30
0.00000001
 11
5069.1023981
 21
2450.0
 31
0.00000001
  0
LINE
  5
166E
330
2
100
AcDbEntity
  8
YKK_N1
  6
Continuous
100
AcDbLine
 10
5064.1023981
 20
2350.0
 30
0.00000001
 11
4977.4998581
 21
2300.0
 31
0.00000001
  0
LINE
  5
166F
330
2
100
AcDbEntity
  8
YKK_N1
  6
Continuous
100
AcDbLine
 10
4977.4998581
 20
2300.0
 30
0.00000001
 11
5064.1023981
 21
2250.0
 31
0.00000001
  0
LINE
  5
1670
330
2
100
AcDbEntity
  8
YKK_N1
  6
Continuous
100
AcDbLine
 10
5064.1023981
 20
2350.0
 30
0.00000001
 11
5064.1023981
 21
2250.0
 31
0.00000001
  0
LINE
  5
1671
330
2
100
AcDbEntity
  8
YKK_N1
  6
Continuous
100
AcDbLine
 10
5587.8973181
 20
2550.0
 30
0.00000001
 11
5587.8973181
 21
2450.0
 31
0.00000001
  0
LINE
  5
1672
330
2
100
AcDbEntity
  8
YKK_N1
  6
Continuous
100
AcDbLine
 10
5587.8973181
 20
2550.0
 30
0.00000001
 11
5674.4998581
 21
2500.0
 31
0.00000001
  0
LINE
  5
1673
330
2
100
AcDbEntity
  8
YKK_N1
  6
Continuous
100
AcDbLine
 10
5674.4998581
 20
2500.0
 30
0.00000001
 11
5587.8973181
 21
2450.0
 31
0.00000001
  0
LINE
  5
1674
330
2
100
AcDbEntity
  8
YKK_N1
  6
Continuous
100
AcDbLine
 10
5592.8973181
 20
2350.0
 30
0.00000001
 11
5592.8973181
 21
2250.0
 31
0.00000001
  0
LINE
  5
1675
330
2
100
AcDbEntity
  8
YKK_N1
  6
Continuous
100
AcDbLine
 10
5592.8973181
 20
2350.0
 30
0.00000001
 11
5679.4998581
 21
2300.0
 31
0.00000001
  0
LINE
  5
1676
330
2
100
AcDbEntity
  8
YKK_N1
  6
Continuous
100
AcDbLine
 10
5679.4998581
 20
2300.0
 30
0.00000001
 11
5592.8973181
 21
2250.0
 31
0.00000001
  0
CIRCLE
  5
1677
330
2
100
AcDbEntity
  8
YKK_N1
  6
Continuous
100
AcDbCircle
 10
4977.4998581
 20
2500.0
 30
0.00000001
 40
5.0
  0
CIRCLE
  5
1678
330
2
100
AcDbEntity
  8
YKK_N1
  6
Continuous
100
AcDbCircle
 10
4941.4998581
 20
2300.0
 30
0.00000001
 40
5.0
  0
CIRCLE
  5
1679
330
2
100
AcDbEntity
  8
YKK_N1
  6
Continuous
100
AcDbCircle
 10
5679.4998581
 20
2500.0
 30
0.00000001
 40
5.0
  0
CIRCLE
  5
167A
330
2
100
AcDbEntity
  8
YKK_N1
  6
Continuous
100
AcDbCircle
 10
5715.4998581
 20
2300.0
 30
0.00000001
 40
5.0
  0
TEXT
  5
167B
330
2
100
AcDbEntity
  8
YKK_N1
  6
Continuous
100
AcDbText
 10
5076.25979854
 20
2527.0
 30
0.00000001
 40
30.0
  1
ジョイント枠出来幅JW=692
  7
MX_NOTE_STANDARD
 11
5076.25979854
 21
2542.0
 31
0.00000001
100
AcDbText
 73
     2
  0
TEXT
  5
167C
330
2
100
AcDbEntity
  8
YKK_N1
  6
Continuous
100
AcDbText
 10
5115.53212355
 20
2327.0
 30
0.00000001
 40
30.0
  1
既設窓枠開口幅KW=702
  7
MX_NOTE_STANDARD
 11
5115.53212355
 21
2342.0
 31
0.00000001
100
AcDbText
 73
     2
  0
TEXT
  5
167D
330
2
100
AcDbEntity
  8
YKK_N1
  6
Continuous
100
AcDbText
 10
5714.09248422
 20
2512.000003
 30
0.00000001
 40
60.0
  1
5
  7
MX_NOTE_STANDARD
100
AcDbText
  0
TEXT
  5
167E
330
2
100
AcDbEntity
  8
YKK_N1
  6
Continuous
100
AcDbText
 10
4906.39789864
 20
2512.000003
 30
0.00000001
 40
60.0
  1
5
  7
MX_NOTE_STANDARD
100
AcDbText
  0
TEXT
  5
167F
330
2
100
AcDbEntity
  8
YKK_N1
  6
Continuous
100
AcDbText
 10
5747.09248422
 20
2312.000003
 30
0.00000001
 40
60.0
  1
36
  7
MX_NOTE_STANDARD
100
AcDbText
  0
TEXT
  5
1680
330
2
100
AcDbEntity
  8
YKK_N1
  6
Continuous
100
AcDbText
 10
4827.129011
 20
2312.000003
 30
0.00000001
 40
60.0
  1
36
  7
MX_NOTE_STANDARD
100
AcDbText
  0
TEXT
  5
1681
330
2
100
AcDbEntity
  8
YKK_N1
  6
Continuous
100
AcDbText
 10
5483.78345656
 20
3312.99585709
 30
0.00000001
 40
60.0
  1
92
 50
90.0
  7
MX_NOTE_STANDARD
 11
5453.78345656
 21
3312.99585709
 31
0.00000001
100
AcDbText
 73
     2
  0
CIRCLE
  5
1682
330
2
100
AcDbEntity
  8
YKK_N1
  6
Continuous
100
AcDbCircle
 10
5495.88970656
 20
3265.50284253
 30
0.00000001
 40
5.0
  0
CIRCLE
  5
1683
330
2
100
AcDbEntity
  8
YKK_N1
  6
Continuous
100
AcDbCircle
 10
5495.78345656
 20
3173.50285453
 30
0.00000001
 40
5.0
  0
LINE
  5
1684
330
2
100
AcDbEntity
  8
YKK_N1
  6
Continuous
100
AcDbLine
 10
5495.88970656
 20
3173.50285453
 30
0.00000001
 11
5495.88970656
 21
3265.50284253
 31
0.00000001
  0
LINE
  5
1685
330
2
100
AcDbEntity
  8
YKK_N1
  6
Continuous
100
AcDbLine
 10
5370.88970656
 20
3265.50284253
 30
0.00000001
 11
5495.88970656
 21
3265.50284253
 31
0.00000001
  0
LINE
  5
1686
330
2
100
AcDbEntity
  8
YKK_N1
  6
Continuous
100
AcDbLine
 10
5370.88970656
 20
3173.50285453
 30
0.00000001
 11
5495.88970656
 21
3173.50285453
 31
0.00000001
  0
LINE
  5
1687
330
2
100
AcDbEntity
  8
YKK_A1
100
AcDbLine
 10
4959.49985593
 20
6698.5000009
 30
0.0
 11
5697.5
 21
6698.5000009
 31
0.0
  0
LINE
  5
1688
330
2
100
AcDbEntity
  8
YKK_A1
100
AcDbLine
 10
5015.49985593
 20
6642.50000126
 30
0.0
 11
5641.5
 21
6642.50000126
 31
0.0
  0
LINE
  5
1689
330
2
100
AcDbEntity
  8
YKK_A1
100
AcDbLine
 10
5019.49985583
 20
6631.00000013
 30
0.0
 11
5637.5000001
 21
6631.00000013
 31
0.0
  0
LINE
  5
168A
330
2
100
AcDbEntity
  8
YKK_A1
100
AcDbLine
 10
5029.49985593
 20
6621.00000003
 30
0.0
 11
5627.5
 21
6621.00000003
 31
0.0
  0
LINE
  5
168B
330
2
100
AcDbEntity
  8
YKK_A1
100
AcDbLine
 10
5095.4998559
 20
6555.00000005
 30
0.0
 11
5561.50000002
 21
6555.00000005
 31
0.0
  0
LINE
  5
168C
330
2
100
AcDbEntity
  8
YKK_A1
100
AcDbLine
 10
5561.50000002
 20
5560.99999998
 30
0.0
 11
5095.4998559
 21
5560.99999998
 31
0.0
  0
LINE
  5
168D
330
2
100
AcDbEntity
  8
YKK_A1
100
AcDbLine
 10
5627.5
 20
5495.0
 30
0.0
 11
5029.49985593
 21
5495.0
 31
0.0
  0
LINE
  5
168E
330
2
100
AcDbEntity
  8
YKK_A1
100
AcDbLine
 10
5637.5000001
 20
5485.00000004
 30
0.0
 11
5019.49985583
 21
5485.00000004
 31
0.0
  0
LINE
  5
168F
330
2
100
AcDbEntity
  8
YKK_A1
100
AcDbLine
 10
5641.5
 20
5473.00000001
 30
0.0
 11
5015.49985593
 21
5473.00000001
 31
0.0
  0
LINE
  5
1690
330
2
100
AcDbEntity
  8
YKK_A1
100
AcDbLine
 10
5697.5
 20
5400.0
 30
0.0
 11
4959.49985593
 21
5400.0
 31
0.0
  0
LINE
  5
1691
330
2
100
AcDbEntity
  8
YKK_A1
100
AcDbLine
 10
4959.49985593
 20
6698.5000009
 30
0.00000001
 11
4959.49985593
 21
5400.0
 31
0.00000001
  0
LINE
  5
1692
330
2
100
AcDbEntity
  8
YKK_A1
100
AcDbLine
 10
5015.49985593
 20
6642.50000126
 30
0.00000001
 11
5015.49985593
 21
5473.00000001
 31
0.00000001
  0
LINE
  5
1693
330
2
100
AcDbEntity
  8
YKK_A1
100
AcDbLine
 10
5019.49985583
 20
6631.00000013
 30
0.00000001
 11
5019.49985583
 21
5485.00000004
 31
0.00000001
  0
LINE
  5
1694
330
2
100
AcDbEntity
  8
YKK_A1
100
AcDbLine
 10
5029.49985593
 20
6621.00000003
 30
0.00000001
 11
5029.49985593
 21
5495.0
 31
0.00000001
  0
LINE
  5
1695
330
2
100
AcDbEntity
  8
YKK_A1
100
AcDbLine
 10
5095.4998559
 20
6555.00000005
 30
0.00000001
 11
5095.4998559
 21
5560.99999998
 31
0.00000001
  0
LINE
  5
1696
330
2
100
AcDbEntity
  8
YKK_A1
100
AcDbLine
 10
5561.50000002
 20
6555.00000005
 30
0.00000001
 11
5561.50000002
 21
5560.99999998
 31
0.00000001
  0
LINE
  5
1697
330
2
100
AcDbEntity
  8
YKK_A1
100
AcDbLine
 10
5627.5
 20
6621.00000003
 30
0.00000001
 11
5627.5
 21
5495.0
 31
0.00000001
  0
LINE
  5
1698
330
2
100
AcDbEntity
  8
YKK_A1
100
AcDbLine
 10
5637.5000001
 20
6631.00000013
 30
0.00000001
 11
5637.5000001
 21
5485.00000004
 31
0.00000001
  0
LINE
  5
1699
330
2
100
AcDbEntity
  8
YKK_A1
100
AcDbLine
 10
5641.5
 20
6642.50000126
 30
0.00000001
 11
5641.5
 21
5473.00000001
 31
0.00000001
  0
LINE
  5
169A
330
2
100
AcDbEntity
  8
YKK_A1
100
AcDbLine
 10
5697.5
 20
6698.5000009
 30
0.00000001
 11
5697.5
 21
5400.0
 31
0.00000001
  0
TEXT
  5
169B
330
2
100
AcDbEntity
  8
YKK_N1
  6
Continuous
100
AcDbText
 10
5885.5
 20
5810.16261493
 30
0.0
 40
60.0
  1
新設窓H=1170
 50
90.0
 41
1.122581
  7
MX_NOTE_STANDARD
 11
5855.5
 21
5810.16261493
 31
0.0
100
AcDbText
 73
     2
  0
TEXT
  5
169C
330
2
100
AcDbEntity
  8
YKK_N1
  6
Continuous
100
AcDbText
 10
5885.5
 20
6698.87792719
 30
0.0
 40
60.0
  1
17
 50
90.0
  7
MX_NOTE_STANDARD
 11
5855.5
 21
6698.87792719
 31
0.0
100
AcDbText
 73
     2
  0
LINE
  5
169D
330
2
100
AcDbEntity
  8
YKK_N1
  6
Continuous
100
AcDbLine
 10
5847.5
 20
6556.39745901
 30
0.0
 11
5947.5
 21
6556.39745901
 31
0.0
  0
LINE
  5
169E
330
2
100
AcDbEntity
  8
YKK_N1
  6
Continuous
100
AcDbLine
 10
5847.5
 20
6556.39745901
 30
0.0
 11
5897.5
 21
6643.00000001
 31
0.0
  0
LINE
  5
169F
330
2
100
AcDbEntity
  8
YKK_N1
  6
Continuous
100
AcDbLine
 10
5897.5
 20
6660.00000001
 30
0.0
 11
5897.5
 21
6643.00000001
 31
0.0
  0
CIRCLE
  5
16A0
330
2
100
AcDbEntity
  8
YKK_N1
  6
Continuous
100
AcDbCircle
 10
5897.5
 20
6660.00000001
 30
0.0
 40
5.0
  0
LINE
  5
16A1
330
2
100
AcDbEntity
  8
YKK_N1
  6
Continuous
100
AcDbLine
 10
5947.5
 20
6556.39745901
 30
0.0
 11
5897.5
 21
6643.00000001
 31
0.0
  0
LINE
  5
16A2
330
2
100
AcDbEntity
  8
YKK_N1
  6
Continuous
100
AcDbLine
 10
5847.5
 20
5559.60294001
 30
0.0
 11
5947.5
 21
5559.60294001
 31
0.0
  0
LINE
  5
16A3
330
2
100
AcDbEntity
  8
YKK_N1
  6
Continuous
100
AcDbLine
 10
5847.5
 20
5559.60294001
 30
0.0
 11
5897.5
 21
5473.00040001
 31
0.0
  0
LINE
  5
16A4
330
2
100
AcDbEntity
  8
YKK_N1
  6
Continuous
100
AcDbLine
 10
5947.5
 20
5559.60294001
 30
0.0
 11
5897.5
 21
5473.00040001
 31
0.0
  0
CIRCLE
  5
16A5
330
2
100
AcDbEntity
  8
YKK_N1
  6
Continuous
100
AcDbCircle
 10
5897.5
 20
5468.00000001
 30
0.0
 40
5.0
  0
LINE
  5
16A6
330
2
100
AcDbEntity
  8
YKK_N1
  6
Continuous
100
AcDbLine
 10
5897.5
 20
5473.00000001
 30
0.0
 11
5897.5
 21
5468.00000001
 31
0.0
  0
LINE
  5
16A7
330
2
100
AcDbEntity
  8
YKK_N1
  6
Continuous
100
AcDbLine
 10
5897.5
 20
6643.00000001
 30
0.0
 11
5897.5
 21
5473.00000001
 31
0.0
  0
LINE
  5
16A8
330
2
100
AcDbEntity
  8
YKK_N1
  6
Continuous
100
AcDbLine
 10
5772.5
 20
5473.00000001
 30
0.0
 11
5897.5
 21
5473.00000001
 31
0.0
  0
LINE
  5
16A9
330
2
100
AcDbEntity
  8
YKK_N1
  6
Continuous
100
AcDbLine
 10
5772.5
 20
5468.00000001
 30
0.0
 11
6097.5
 21
5468.00000001
 31
0.0
  0
LINE
  5
16AA
330
2
100
AcDbEntity
  8
YKK_N1
  6
Continuous
100
AcDbLine
 10
5772.5
 20
6660.00000001
 30
0.0
 11
6097.5
 21
6660.00000001
 31
0.0
  0
LINE
  5
16AB
330
2
100
AcDbEntity
  8
YKK_N1
  6
Continuous
100
AcDbLine
 10
5772.5
 20
6643.00000001
 30
0.0
 11
5897.5
 21
6643.00000001
 31
0.0
  0
TEXT
  5
16AC
330
2
100
AcDbEntity
  8
YKK_N1
  6
Continuous
100
AcDbText
 10
5890.50816407
 20
5415.09323395
 30
0.0
 40
60.0
  1
5
 50
90.0
  7
MX_NOTE_STANDARD
 11
5860.50816407
 21
5415.09323395
 31
0.0
100
AcDbText
 73
     2
  0
LINE
  5
16AD
330
2
100
AcDbEntity
  8
YKK_N1
  6
Continuous
100
AcDbLine
 10
6097.5
 20
6660.00000001
 30
0.0
 11
6097.5
 21
5468.00000001
 31
0.0
  0
LINE
  5
16AE
330
2
100
AcDbEntity
  8
YKK_N1
  6
Continuous
100
AcDbLine
 10
6047.5
 20
6573.39745901
 30
0.0
 11
6147.5
 21
6573.39745901
 31
0.0
  0
LINE
  5
16AF
330
2
100
AcDbEntity
  8
YKK_N1
  6
Continuous
100
AcDbLine
 10
6047.5
 20
6573.39745901
 30
0.0
 11
6097.5
 21
6660.00000001
 31
0.0
  0
LINE
  5
16B0
330
2
100
AcDbEntity
  8
YKK_N1
  6
Continuous
100
AcDbLine
 10
6147.5
 20
6573.39745901
 30
0.0
 11
6097.5
 21
6660.00000001
 31
0.0
  0
LINE
  5
16B1
330
2
100
AcDbEntity
  8
YKK_N1
  6
Continuous
100
AcDbLine
 10
6047.5
 20
5554.60254001
 30
0.0
 11
6147.5
 21
5554.60254001
 31
0.0
  0
LINE
  5
16B2
330
2
100
AcDbEntity
  8
YKK_N1
  6
Continuous
100
AcDbLine
 10
6047.5
 20
5554.60254001
 30
0.0
 11
6097.5
 21
5468.00000001
 31
0.0
  0
LINE
  5
16B3
330
2
100
AcDbEntity
  8
YKK_N1
  6
Continuous
100
AcDbLine
 10
6147.5
 20
5554.60254001
 30
0.0
 11
6097.5
 21
5468.00000001
 31
0.0
  0
TEXT
  5
16B4
330
2
100
AcDbEntity
  8
YKK_N1
  6
Continuous
100
AcDbText
 10
6080.5
 20
5587.10558116
 30
0.0
 40
50.0
  1
ジョイント枠出来高JH=1192
 50
90.0
 41
1.122581
  7
MX_NOTE_STANDARD
 11
6055.5
 21
5587.10558116
 31
0.0
100
AcDbText
 73
     2
  0
TEXT
  5
16B5
330
2
100
AcDbEntity
  8
YKK_N1
  6
Continuous
100
AcDbText
 10
5166.00019178
 20
5022.0
 30
0.00000001
 40
40.0
  1
新設窓W=642
  7
MX_NOTE_STANDARD
 11
5166.00019178
 21
5042.0
 31
0.00000001
100
AcDbText
 73
     2
  0
TEXT
  5
16B6
330
2
100
AcDbEntity
  8
YKK_N1
  6
Continuous
100
AcDbText
 10
5699.4998581
 20
5012.000003
 30
0.00000001
 40
60.0
  1
25
  7
MX_NOTE_STANDARD
100
AcDbText
  0
LINE
  5
16B7
330
2
100
AcDbEntity
  8
YKK_N1
  6
Continuous
100
AcDbLine
 10
5674.4998581
 20
5325.0
 30
0.00000001
 11
5674.4998581
 21
4800.0
 31
0.00000001
  0
LINE
  5
16B8
330
2
100
AcDbEntity
  8
YKK_N1
  6
Continuous
100
AcDbLine
 10
5649.4998581
 20
5325.0
 30
0.00000001
 11
5649.4998581
 21
5000.0
 31
0.00000001
  0
LINE
  5
16B9
330
2
100
AcDbEntity
  8
YKK_N1
  6
Continuous
100
AcDbLine
 10
5649.4998581
 20
5000.0
 30
0.00000001
 11
5674.4998581
 21
5000.0
 31
0.00000001
  0
CIRCLE
  5
16BA
330
2
100
AcDbEntity
  8
YKK_N1
  6
Continuous
100
AcDbCircle
 10
5674.4998581
 20
5000.0
 30
0.00000001
 40
5.0
  0
LINE
  5
16BB
330
2
100
AcDbEntity
  8
YKK_N1
  6
Continuous
100
AcDbLine
 10
5649.4998581
 20
5200.0
 30
0.00000001
 11
5629.4998581
 21
5200.0
 31
0.00000001
  0
LINE
  5
16BC
330
2
100
AcDbEntity
  8
YKK_N1
  6
Continuous
100
AcDbLine
 10
5629.4998581
 20
5325.0
 30
0.00000001
 11
5629.4998581
 21
5200.0
 31
0.00000001
  0
CIRCLE
  5
16BD
330
2
100
AcDbEntity
  8
YKK_N1
  6
Continuous
100
AcDbCircle
 10
5629.4998581
 20
5200.0
 30
0.00000001
 40
5.0
  0
CIRCLE
  5
16BE
330
2
100
AcDbEntity
  8
YKK_N1
  6
Continuous
100
AcDbCircle
 10
5649.4998581
 20
5200.0
 30
0.00000001
 40
5.0
  0
LINE
  5
16BF
330
2
100
AcDbEntity
  8
YKK_N1
  6
Continuous
100
AcDbLine
 10
5562.8973181
 20
5050.0
 30
0.00000001
 11
5562.8973181
 21
4950.0
 31
0.00000001
  0
LINE
  5
16C0
330
2
100
AcDbEntity
  8
YKK_N1
  6
Continuous
100
AcDbLine
 10
5562.8973181
 20
5050.0
 30
0.00000001
 11
5649.4998581
 21
5000.0
 31
0.00000001
  0
LINE
  5
16C1
330
2
100
AcDbEntity
  8
YKK_N1
  6
Continuous
100
AcDbLine
 10
5649.4998581
 20
5000.0
 30
0.00000001
 11
5562.8973181
 21
4950.0
 31
0.00000001
  0
TEXT
  5
16C2
330
2
100
AcDbEntity
  8
YKK_N1
  6
Continuous
100
AcDbText
 10
5509.65033598
 20
5212.78324834
 30
0.00000001
 40
60.0
  1
20
  7
MX_NOTE_STANDARD
 11
5509.65033598
 21
5242.78324834
 31
0.00000001
100
AcDbText
 73
     2
  0
LINE
  5
16C3
330
2
100
AcDbEntity
  8
YKK_N1
  6
Continuous
100
AcDbLine
 10
5094.1023981
 20
5050.0
 30
0.00000001
 11
5007.4998581
 21
5000.0
 31
0.00000001
  0
LINE
  5
16C4
330
2
100
AcDbEntity
  8
YKK_N1
  6
Continuous
100
AcDbLine
 10
5007.4998581
 20
5000.0
 30
0.00000001
 11
5094.1023981
 21
4950.0
 31
0.00000001
  0
TEXT
  5
16C5
330
2
100
AcDbEntity
  8
YKK_N1
  6
Continuous
100
AcDbText
 10
5041.91836923
 20
5212.78324834
 30
0.00000001
 40
60.0
  1
20
  7
MX_NOTE_STANDARD
 11
5041.91836923
 21
5242.78324834
 31
0.00000001
100
AcDbText
 73
     2
  0
CIRCLE
  5
16C6
330
2
100
AcDbEntity
  8
YKK_N1
  6
Continuous
100
AcDbCircle
 10
4982.4998581
 20
5000.0
 30
0.00000001
 40
5.0
  0
LINE
  5
16C7
330
2
100
AcDbEntity
  8
YKK_N1
  6
Continuous
100
AcDbLine
 10
4982.4998581
 20
5000.0
 30
0.00000001
 11
5007.4998581
 21
5000.0
 31
0.00000001
  0
CIRCLE
  5
16C8
330
2
100
AcDbEntity
  8
YKK_N1
  6
Continuous
100
AcDbCircle
 10
5027.4998581
 20
5200.0
 30
0.00000001
 40
5.0
  0
CIRCLE
  5
16C9
330
2
100
AcDbEntity
  8
YKK_N1
  6
Continuous
100
AcDbCircle
 10
5007.4998581
 20
5200.0
 30
0.00000001
 40
5.0
  0
LINE
  5
16CA
330
2
100
AcDbEntity
  8
YKK_N1
  6
Continuous
100
AcDbLine
 10
5007.4998581
 20
5200.0
 30
0.00000001
 11
5027.4998581
 21
5200.0
 31
0.00000001
  0
LINE
  5
16CB
330
2
100
AcDbEntity
  8
YKK_N1
  6
Continuous
100
AcDbLine
 10
5094.1023981
 20
5050.0
 30
0.00000001
 11
5094.1023981
 21
4950.0
 31
0.00000001
  0
TEXT
  5
16CC
330
2
100
AcDbEntity
  8
YKK_N1
  6
Continuous
100
AcDbText
 10
4857.4998581
 20
5012.000003
 30
0.00000001
 40
60.0
  1
25
  7
MX_NOTE_STANDARD
100
AcDbText
  0
LINE
  5
16CD
330
2
100
AcDbEntity
  8
YKK_N1
  6
Continuous
100
AcDbLine
 10
5649.4998581
 20
5000.0
 30
0.00000001
 11
5007.4998581
 21
5000.0
 31
0.00000001
  0
LINE
  5
16CE
330
2
100
AcDbEntity
  8
YKK_N1
  6
Continuous
100
AcDbLine
 10
5027.4998581
 20
5325.0
 30
0.00000001
 11
5027.4998581
 21
5200.0
 31
0.00000001
  0
LINE
  5
16CF
330
2
100
AcDbEntity
  8
YKK_N1
  6
Continuous
100
AcDbLine
 10
5007.4998581
 20
5325.0
 30
0.00000001
 11
5007.4998581
 21
5000.0
 31
0.00000001
  0
LINE
  5
16D0
330
2
100
AcDbEntity
  8
YKK_N1
  6
Continuous
100
AcDbLine
 10
4982.4998581
 20
5325.0
 30
0.00000001
 11
4982.4998581
 21
4800.0
 31
0.00000001
  0
LINE
  5
16D1
330
2
100
AcDbEntity
  8
YKK_N1
  6
Continuous
100
AcDbLine
 10
5674.4998581
 20
4800.0
 30
0.00000001
 11
4982.4998581
 21
4800.0
 31
0.00000001
  0
LINE
  5
16D2
330
2
100
AcDbEntity
  8
YKK_N1
  6
Continuous
100
AcDbLine
 10
5069.1023981
 20
4850.0
 30
0.00000001
 11
4982.4998581
 21
4800.0
 31
0.00000001
  0
LINE
  5
16D3
330
2
100
AcDbEntity
  8
YKK_N1
  6
Continuous
100
AcDbLine
 10
4982.4998581
 20
4800.0
 30
0.00000001
 11
5069.1023981
 21
4750.0
 31
0.00000001
  0
LINE
  5
16D4
330
2
100
AcDbEntity
  8
YKK_N1
  6
Continuous
100
AcDbLine
 10
5069.1023981
 20
4850.0
 30
0.00000001
 11
5069.1023981
 21
4750.0
 31
0.00000001
  0
LINE
  5
16D5
330
2
100
AcDbEntity
  8
YKK_N1
  6
Continuous
100
AcDbLine
 10
5587.8973181
 20
4850.0
 30
0.00000001
 11
5587.8973181
 21
4750.0
 31
0.00000001
  0
LINE
  5
16D6
330
2
100
AcDbEntity
  8
YKK_N1
  6
Continuous
100
AcDbLine
 10
5587.8973181
 20
4850.0
 30
0.00000001
 11
5674.4998581
 21
4800.0
 31
0.00000001
  0
LINE
  5
16D7
330
2
100
AcDbEntity
  8
YKK_N1
  6
Continuous
100
AcDbLine
 10
5674.4998581
 20
4800.0
 30
0.00000001
 11
5587.8973181
 21
4750.0
 31
0.00000001
  0
TEXT
  5
16D8
330
2
100
AcDbEntity
  8
YKK_N1
  6
Continuous
100
AcDbText
 10
5076.25979854
 20
4827.0
 30
0.00000001
 40
30.0
  1
ジョイント枠出来幅JW=692
  7
MX_NOTE_STANDARD
 11
5076.25979854
 21
4842.0
 31
0.00000001
100
AcDbText
 73
     2
  0
LINE
  5
16D9
330
2
100
AcDbEntity
  8
YKK_A1
  6
PHANTOM
100
AcDbLine
 10
5627.5
 20
6621.00000003
 30
0.0
 11
5029.49985593
 21
5495.0
 31
0.0
  0
LINE
  5
16DA
330
2
100
AcDbEntity
  8
YKK_A1
  6
PHANTOM
100
AcDbLine
 10
5627.5
 20
5495.0
 30
0.0
 11
5328.49992796
 21
6058.00000001
 31
0.0
  0
ENDSEC
  0
SECTION
  2
OBJECTS
  0
DICTIONARY
  5
1E
330
0
100
AcDbDictionary
281
     1
  3
ACAD_BACKGROUND
350
6EF
  3
ACAD_CIP_PREVIOUS_PRODUCT_INFO
350
9D
  3
ACAD_COLOR
350
7B
  3
ACAD_DETAILVIEWSTYLE
350
95
  3
ACAD_GROUP
350
1C
  3
ACAD_LAYOUT
350
7C
  3
ACAD_MATERIAL
350
49
  3
ACAD_MLEADERSTYLE
350
91
  3
ACAD_MLINESTYLE
350
1D
  3
ACAD_PLOTSETTINGS
350
97
  3
ACAD_PLOTSTYLENAME
350
47
  3
ACAD_RENDER_ACTIVE_RAPIDRT_SETTINGS
350
A7
  3
ACAD_RENDER_ACTIVE_SETTINGS
350
744
  3
ACAD_SCALELIST
350
7F
  3
ACAD_SECTIONVIEWSTYLE
350
93
  3
ACAD_TABLESTYLE
350
7D
  3
ACAD_VISUALSTYLE
350
62
  3
ACDB_RECOMPOSE_DATA
350
1740
  3
AcDbVariableDictionary
350
74B
  0
DICTIONARY
  5
705
330
16
100
AcDbDictionary
280
     1
281
     1
  0
DICTIONARY
  5
116
330
E
100
AcDbDictionary
280
     1
281
     1
  3
ACAD_LAYERSTATES
360
117
  0
DICTIONARY
  5
B2
330
6
100
AcDbDictionary
280
     1
281
     1
  3
ADSK_XREC_LAYER_RECONCILED
360
B3
  0
DICTIONARY
  5
B4
330
24
100
AcDbDictionary
280
     1
281
     1
  3
ADSK_XREC_LAYER_RECONCILED
360
B5
  0
DICTIONARY
  5
105
330
104
100
AcDbDictionary
280
     1
281
     1
  0
DICTIONARY
  5
107
330
106
100
AcDbDictionary
280
     1
281
     1
  0
DICTIONARY
  5
109
330
108
100
AcDbDictionary
280
     1
281
     1
  0
DICTIONARY
  5
10B
330
10A
100
AcDbDictionary
280
     1
281
     1
  0
DICTIONARY
  5
10D
330
10C
100
AcDbDictionary
280
     1
281
     1
  0
DICTIONARY
  5
10F
330
10E
100
AcDbDictionary
280
     1
281
     1
  0
DICTIONARY
  5
3
330
2
100
AcDbDictionary
280
     1
281
     1
  3
ACAD_LAYOUTSELFREF
360
4
  0
DICTIONARY
  5
A
330
9
100
AcDbDictionary
280
     1
281
     1
  3
ACAD_LAYOUTSELFREF
360
B
  0
DICTIONARY
  5
6EF
102
{ACAD_REACTORS
330
1E
102
}
330
1E
100
AcDbDictionary
281
     1
  0
XRECORD
  5
9D
102
{ACAD_REACTORS
330
1E
102
}
330
1E
100
AcDbXrecord
280
     1
300
ACD
300
2018
300
86830ACD_2018_0F
  0
DICTIONARY
  5
7B
102
{ACAD_REACTORS
330
1E
102
}
330
1E
100
AcDbDictionary
281
     1
  0
DICTIONARY
  5
95
102
{ACAD_REACTORS
330
1E
102
}
330
1E
100
AcDbDictionary
281
     1
  3
Imperial24
350
96
  3
Metric50
350
119
  0
DICTIONARY
  5
1C
102
{ACAD_REACTORS
330
1E
102
}
330
1E
100
AcDbDictionary
281
     1
  0
DICTIONARY
  5
7C
102
{ACAD_REACTORS
330
1E
102
}
330
1E
100
AcDbDictionary
281
     1
  3
Model
350
98
  3
レイアウト1
350
99
  0
DICTIONARY
  5
49
102
{ACAD_REACTORS
330
1E
102
}
330
1E
100
AcDbDictionary
281
     1
  3
ByBlock
350
52
  3
ByLayer
350
4A
  3
Global
350
5A
  0
DICTIONARY
  5
91
102
{ACAD_REACTORS
330
1E
102
}
330
1E
100
AcDbDictionary
281
     1
  3
Standard
350
92
  0
DICTIONARY
  5
1D
102
{ACAD_REACTORS
330
1E
102
}
330
1E
100
AcDbDictionary
281
     1
  3
STANDARD
350
1F
  0
DICTIONARY
  5
97
102
{ACAD_REACTORS
330
1E
102
}
330
1E
100
AcDbDictionary
281
     1
  0
ACDBDICTIONARYWDFLT
  5
47
102
{ACAD_REACTORS
330
1E
102
}
330
1E
100
AcDbDictionary
281
     1
  3
Normal
350
48
100
AcDbDictionaryWithDefault
340
48
  0
RAPIDRTRENDERSETTINGS
  5
A7
102
{ACAD_REACTORS
330
1E
102
}
330
1E
100
AcDbRenderSettings
 90
        2
  1
中
290
     1
290
     0
290
     1
290
     1
  1

  1
5 レンダリング レベルを適用
 90
        0
100
AcDbRapidRTRenderSettings
 90
        3
 70
     0
 90
        5
 90
        1
 70
     1
 70
     2
 40
3.0
 40
3.0
290
     1
  0
MENTALRAYRENDERSETTINGS
  5
744
102
{ACAD_XDICTIONARY
360
745
102
}
102
{ACAD_REACTORS
330
1E
102
}
330
1E
100
AcDbRenderSettings
 90
        2
  1
中間
290
     1
290
     1
290
     1
290
     1
  1

  1

 90
        0
100
AcDbMentalRayRenderSettings
 90
        2
 90
        0
 90
        1
 70
     2
 40
3.0
 40
3.0
 40
0.05
 40
0.05
 40
0.05
 40
0.05
 70
     0
290
     0
290
     1
 90
        5
 90
        5
 90
        5
290
     0
 90
      500
290
     0
 40
1.0
 90
    10000
 90
        5
 90
        5
 90
        5
290
     0
 90
      200
290
     0
290
     0
290
     0
 40
1.0
 40
1.0
 40
1500.0
 70
     0
 70
     0
 40
10.0
 70
     0
 70
     0
290
     0
  1

 90
       32
 70
     0
 90
     1048
290
     0
 40
1.0
  0
DICTIONARY
  5
7F
102
{ACAD_REACTORS
330
1E
102
}
330
1E
100
AcDbDictionary
281
     1
  3
A0
350
80
  3
A1
350
81
  3
A2
350
82
  3
A3
350
83
  3
A4
350
84
  3
A5
350
85
  3
A6
350
86
  3
A7
350
87
  3
A8
350
88
  3
A9
350
89
  3
B0
350
8A
  3
B1
350
8B
  3
B2
350
8C
  3
B3
350
8D
  3
B4
350
8E
  3
B5
350
8F
  3
B6
350
90
  0
DICTIONARY
  5
93
102
{ACAD_REACTORS
330
1E
102
}
330
1E
100
AcDbDictionary
281
     1
  3
Imperial24
350
94
  3
Metric50
350
118
  0
DICTIONARY
  5
7D
102
{ACAD_REACTORS
330
1E
102
}
330
1E
100
AcDbDictionary
281
     1
  3
Standard
350
7E
  0
DICTIONARY
  5
62
102
{ACAD_REACTORS
330
1E
102
}
330
1E
100
AcDbDictionary
281
     1
  3
2dWireframe
350
68
  3
Basic
350
67
  3
Brighten
350
6E
  3
ColorChange
350
72
  3
Conceptual
350
6B
  3
Dim
350
6D
  3
EdgeColorOff
350
7A
  3
Facepattern
350
71
  3
Flat
350
63
  3
FlatWithEdges
350
64
  3
Gouraud
350
65
  3
GouraudWithEdges
350
66
  3
Hidden
350
6A
  3
JitterOff
350
78
  3
Linepattern
350
70
  3
OverhangOff
350
79
  3
Realistic
350
6C
  3
Shaded
350
77
  3
Shaded with edges
350
76
  3
Shades of Gray
350
73
  3
Sketchy
350
74
  3
Thicken
350
6F
  3
Wireframe
350
69
  3
X-Ray
350
75
  0
XRECORD
  5
1740
102
{ACAD_REACTORS
330
1E
102
}
330
1E
100
AcDbXrecord
280
     1
 90
        1
330
7E
  0
DICTIONARY
  5
74B
102
{ACAD_REACTORS
330
1E
102
}
330
1E
100
AcDbDictionary
281
     1
  3
CANNOSCALE
350
750
  3
CMLEADERSTYLE
350
74D
  3
CTABLESTYLE
350
74C
  3
CVIEWDETAILSTYLE
350
74E
  3
CVIEWSECTIONSTYLE
350
74F
  3
XCLIPFRAME
350
173E
  0
DICTIONARY
  5
117
102
{ACAD_REACTORS
330
116
102
}
330
116
100
AcDbDictionary
281
     1
  0
XRECORD
  5
B3
102
{ACAD_REACTORS
330
B2
102
}
330
B2
100
AcDbXrecord
280
     1
290
     1
  0
XRECORD
  5
B5
102
{ACAD_REACTORS
330
B4
102
}
330
B4
100
AcDbXrecord
280
     1
290
     1
  0
XRECORD
  5
4
102
{ACAD_REACTORS
330
3
102
}
330
3
100
AcDbXrecord
280
     1
340
2
  0
XRECORD
  5
B
102
{ACAD_REACTORS
330
A
102
}
330
A
100
AcDbXrecord
280
     1
340
9
  0
ACDBDETAILVIEWSTYLE
  5
96
102
{ACAD_XDICTIONARY
360
1779
102
}
102
{ACAD_REACTORS
330
95
102
}
330
95
100
AcDbModelDocViewStyle
 70
     0
  3
Imperial24
290
     0
100
AcDbDetailViewStyle
 70
     0
 71
     0
 90
        3
 71
     1
340
10
 62
   256
 40
0.24
340
0
 62
   256
 40
0.24
300

 40
0.36
280
     3
 71
     2
340
7
 90
       25
 62
   256
 71
     3
340
10
 62
   256
 40
0.24
 90
        1
 40
0.75
 90
        1
300
%<\AcVar ViewType \f "%tc1">% %<\AcVar ViewDetailId>%\PSCALE %<\AcVar ViewScale \f "%sn">%
 71
     4
340
7
 90
       25
 62
   256
340
7
 90
       25
 62
   256
280
     0
  0
ACDBDETAILVIEWSTYLE
  5
119
102
{ACAD_XDICTIONARY
360
177D
102
}
102
{ACAD_REACTORS
330
95
102
}
330
95
100
AcDbModelDocViewStyle
 70
     0
  3
Metric50
290
     0
100
AcDbDetailViewStyle
 70
     0
 71
     0
 90
        3
 71
     1
340
10
 62
   256
 40
5.0
340
0
 62
   256
 40
5.0
300

 40
0.0
280
     1
 71
     2
340
7
 90
       25
 62
   256
 71
     3
340
10
 62
   256
 40
5.0
 90
        0
 40
15.0
 90
        1
300
%<\AcVar ViewDetailId>% (%<\AcVar ViewScale \f "%sn">%)
 71
     4
340
7
 90
       25
 62
   256
340
7
 90
       25
 62
   256
280
     0
  0
LAYOUT
  5
98
102
{ACAD_XDICTIONARY
360
742
102
}
102
{ACAD_REACTORS
330
7C
102
}
330
7C
100
AcDbPlotSettings
  1

  2
FX ApeosPort-V C7776
  4
A4
  6

 40
4.90008307
 41
4.90005493
 42
4.90008545
 43
4.90008545
 44
210.01567078
 45
297.01065063
 46
0.0
 47
0.0
 48
0.0
 49
0.0
140
0.0
141
0.0
142
1.0
143
6240.87038063
 70
  1712
 72
     0
 73
     0
 74
     0
  7
monochrome.ctb
 75
     0
147
0.00016023
 76
     0
 77
     2
 78
   300
148
38988.52545419
149
1987.59756046
100
AcDbLayout
  1
Model
 70
     1
 71
     0
 10
0.0
 20
0.0
 11
12.0
 21
9.0
 12
0.0
 22
0.0
 32
0.0
 14
0.0
 24
0.0
 34
0.0
 15
0.0
 25
0.0
 35
0.0
146
0.0
 13
0.0
 23
0.0
 33
0.0
 16
1.0
 26
0.0
 36
0.0
 17
0.0
 27
1.0
 37
0.0
 76
     0
330
2
331
45
  0
LAYOUT
  5
99
102
{ACAD_REACTORS
330
7C
102
}
330
7C
100
AcDbPlotSettings
  1

  2
FX ApeosPort-V C7776
  4
A4
  6

 40
4.90008307
 41
4.90005493
 42
4.90008545
 43
4.90008545
 44
210.01567078
 45
297.01065063
 46
0.0
 47
0.0
 48
0.0
 49
0.0
140
0.0
141
0.0
142
1.0
143
1.0
 70
   688
 72
     0
 73
     0
 74
     5
  7
monochrome.ctb
 75
    16
147
1.0
 76
     0
 77
     2
 78
   300
148
0.0
149
0.0
100
AcDbLayout
  1
レイアウト1
 70
     0
 71
     1
 10
0.0
 20
0.0
 11
12.0
 21
9.0
 12
0.0
 22
0.0
 32
0.0
 14
1.00000000E+20
 24
1.00000000E+20
 34
1.00000000E+20
 15
-1.00000000E+20
 25
-1.00000000E+20
 35
-1.00000000E+20
146
0.0
 13
0.0
 23
0.0
 33
0.0
 16
1.0
 26
0.0
 36
0.0
 17
0.0
 27
1.0
 37
0.0
 76
     0
330
9
  0
MATERIAL
  5
52
102
{ACAD_XDICTIONARY
360
53
102
}
102
{ACAD_REACTORS
330
49
102
}
330
49
100
AcDbMaterial
  1
ByBlock
 72
     0
 43
0.02083333
 43
0.0
 43
0.0
 43
0.0
 43
0.0
 43
0.02083333
 43
0.0
 43
0.0
 43
0.0
 43
0.0
 43
1.0
 43
0.0
 43
0.0
 43
0.0
 43
0.0
 43
1.0
 77
     0
 47
0.02083333
 47
0.0
 47
0.0
 47
0.0
 47
0.0
 47
0.02083333
 47
0.0
 47
0.0
 47
0.0
 47
0.0
 47
1.0
 47
0.0
 47
0.0
 47
0.0
 47
0.0
 47
1.0
171
     0
 49
0.02083333
 49
0.0
 49
0.0
 49
0.0
 49
0.0
 49
0.02083333
 49
0.0
 49
0.0
 49
0.0
 49
0.0
 49
1.0
 49
0.0
 49
0.0
 49
0.0
 49
0.0
 49
1.0
175
     0
142
0.02083333
142
0.0
142
0.0
142
0.0
142
0.0
142
0.02083333
142
0.0
142
0.0
142
0.0
142
0.0
142
1.0
142
0.0
142
0.0
142
0.0
142
0.0
142
1.0
179
     0
144
0.02083333
144
0.0
144
0.0
144
0.0
144
0.0
144
0.02083333
144
0.0
144
0.0
144
0.0
144
0.0
144
1.0
144
0.0
144
0.0
144
0.0
144
0.0
144
1.0
147
0.02083333
147
0.0
147
0.0
147
0.0
147
0.0
147
0.02083333
147
0.0
147
0.0
147
0.0
147
0.0
147
1.0
147
0.0
147
0.0
147
0.0
147
0.0
147
1.0
  0
MATERIAL
  5
4A
102
{ACAD_XDICTIONARY
360
4B
102
}
102
{ACAD_REACTORS
330
49
102
}
330
49
100
AcDbMaterial
  1
ByLayer
 72
     0
 43
0.02083333
 43
0.0
 43
0.0
 43
0.0
 43
0.0
 43
0.02083333
 43
0.0
 43
0.0
 43
0.0
 43
0.0
 43
1.0
 43
0.0
 43
0.0
 43
0.0
 43
0.0
 43
1.0
 77
     0
 47
0.02083333
 47
0.0
 47
0.0
 47
0.0
 47
0.0
 47
0.02083333
 47
0.0
 47
0.0
 47
0.0
 47
0.0
 47
1.0
 47
0.0
 47
0.0
 47
0.0
 47
0.0
 47
1.0
171
     0
 49
0.02083333
 49
0.0
 49
0.0
 49
0.0
 49
0.0
 49
0.02083333
 49
0.0
 49
0.0
 49
0.0
 49
0.0
 49
1.0
 49
0.0
 49
0.0
 49
0.0
 49
0.0
 49
1.0
175
     0
142
0.02083333
142
0.0
142
0.0
142
0.0
142
0.0
142
0.02083333
142
0.0
142
0.0
142
0.0
142
0.0
142
1.0
142
0.0
142
0.0
142
0.0
142
0.0
142
1.0
179
     0
144
0.02083333
144
0.0
144
0.0
144
0.0
144
0.0
144
0.02083333
144
0.0
144
0.0
144
0.0
144
0.0
144
1.0
144
0.0
144
0.0
144
0.0
144
0.0
144
1.0
147
0.02083333
147
0.0
147
0.0
147
0.0
147
0.0
147
0.02083333
147
0.0
147
0.0
147
0.0
147
0.0
147
1.0
147
0.0
147
0.0
147
0.0
147
0.0
147
1.0
  0
MATERIAL
  5
5A
102
{ACAD_XDICTIONARY
360
5B
102
}
102
{ACAD_REACTORS
330
49
102
}
330
49
100
AcDbMaterial
  1
Global
 72
     0
 43
0.02083333
 43
0.0
 43
0.0
 43
0.0
 43
0.0
 43
0.02083333
 43
0.0
 43
0.0
 43
0.0
 43
0.0
 43
1.0
 43
0.0
 43
0.0
 43
0.0
 43
0.0
 43
1.0
 77
     0
 47
0.02083333
 47
0.0
 47
0.0
 47
0.0
 47
0.0
 47
0.02083333
 47
0.0
 47
0.0
 47
0.0
 47
0.0
 47
1.0
 47
0.0
 47
0.0
 47
0.0
 47
0.0
 47
1.0
171
     0
 49
0.02083333
 49
0.0
 49
0.0
 49
0.0
 49
0.0
 49
0.02083333
 49
0.0
 49
0.0
 49
0.0
 49
0.0
 49
1.0
 49
0.0
 49
0.0
 49
0.0
 49
0.0
 49
1.0
175
     0
142
0.02083333
142
0.0
142
0.0
142
0.0
142
0.0
142
0.02083333
142
0.0
142
0.0
142
0.0
142
0.0
142
1.0
142
0.0
142
0.0
142
0.0
142
0.0
142
1.0
179
     0
144
0.02083333
144
0.0
144
0.0
144
0.0
144
0.0
144
0.02083333
144
0.0
144
0.0
144
0.0
144
0.0
144
1.0
144
0.0
144
0.0
144
0.0
144
0.0
144
1.0
147
0.02083333
147
0.0
147
0.0
147
0.0
147
0.0
147
0.02083333
147
0.0
147
0.0
147
0.0
147
0.0
147
1.0
147
0.0
147
0.0
147
0.0
147
0.0
147
1.0
  0
MLEADERSTYLE
  5
92
102
{ACAD_XDICTIONARY
360
1775
102
}
102
{ACAD_REACTORS
330
91
102
}
330
91
100
AcDbMLeaderStyle
170
     2
171
     1
172
     0
 90
        2
 40
0.0
 41
0.0
173
     1
 91
-1056964608
340
12
 92
       -2
290
     1
 42
0.09
291
     1
 43
0.36
  3
Standard
 44
0.18
300

342
10
174
     1
178
     6
175
     1
176
     0
 93
-1056964608
 45
0.18
292
     0
297
     0
 46
0.18
 94
-1056964608
 47
1.0
 49
1.0
140
1.0
293
     1
141
0.0
294
     1
177
     0
142
1.0
295
     0
296
     0
143
0.125
1001
ACAD_MLEADERVER
1070
     2
  0
MLINESTYLE
  5
1F
102
{ACAD_REACTORS
330
1D
102
}
330
1D
100
AcDbMlineStyle
  2
STANDARD
 70
     0
  3

 62
   256
 51
90.0
 52
90.0
 71
     2
 49
0.5
 62
   256
  6
BYLAYER
 49
-0.5
 62
   256
  6
BYLAYER
  0
ACDBPLACEHOLDER
  5
48
102
{ACAD_REACTORS
330
47
102
}
330
47
  0
DICTIONARY
  5
745
330
744
100
AcDbDictionary
280
     1
281
     1
  3
ADSK_XREC_MENTALRAYSETTINGSINFO
360
746
  0
SCALE
  5
80
102
{ACAD_REACTORS
330
7F
102
}
330
7F
100
AcDbScale
 70
     0
300
1:1
140
1.0
141
1.0
290
     1
  0
SCALE
  5
81
102
{ACAD_REACTORS
330
7F
102
}
330
7F
100
AcDbScale
 70
     0
300
1/128" = 1'-0"
140
0.0078125
141
12.0
290
     0
  0
SCALE
  5
82
102
{ACAD_REACTORS
330
7F
102
}
330
7F
100
AcDbScale
 70
     0
300
1/64" = 1'-0"
140
0.015625
141
12.0
290
     0
  0
SCALE
  5
83
102
{ACAD_REACTORS
330
7F
102
}
330
7F
100
AcDbScale
 70
     0
300
1/32" = 1'-0"
140
0.03125
141
12.0
290
     0
  0
SCALE
  5
84
102
{ACAD_REACTORS
330
7F
102
}
330
7F
100
AcDbScale
 70
     0
300
1/16" = 1'-0"
140
0.0625
141
12.0
290
     0
  0
SCALE
  5
85
102
{ACAD_REACTORS
330
7F
102
}
330
7F
100
AcDbScale
 70
     0
300
3/32" = 1'-0"
140
0.09375
141
12.0
290
     0
  0
SCALE
  5
86
102
{ACAD_REACTORS
330
7F
102
}
330
7F
100
AcDbScale
 70
     0
300
1/8" = 1'-0"
140
0.125
141
12.0
290
     0
  0
SCALE
  5
87
102
{ACAD_REACTORS
330
7F
102
}
330
7F
100
AcDbScale
 70
     0
300
3/16" = 1'-0"
140
0.1875
141
12.0
290
     0
  0
SCALE
  5
88
102
{ACAD_REACTORS
330
7F
102
}
330
7F
100
AcDbScale
 70
     0
300
1/4" = 1'-0"
140
0.25
141
12.0
290
     0
  0
SCALE
  5
89
102
{ACAD_REACTORS
330
7F
102
}
330
7F
100
AcDbScale
 70
     0
300
3/8" = 1'-0"
140
0.375
141
12.0
290
     0
  0
SCALE
  5
8A
102
{ACAD_REACTORS
330
7F
102
}
330
7F
100
AcDbScale
 70
     0
300
1/2" = 1'-0"
140
0.5
141
12.0
290
     0
  0
SCALE
  5
8B
102
{ACAD_REACTORS
330
7F
102
}
330
7F
100
AcDbScale
 70
     0
300
3/4" = 1'-0"
140
0.75
141
12.0
290
     0
  0
SCALE
  5
8C
102
{ACAD_REACTORS
330
7F
102
}
330
7F
100
AcDbScale
 70
     0
300
1" = 1'-0"
140
1.0
141
12.0
290
     0
  0
SCALE
  5
8D
102
{ACAD_REACTORS
330
7F
102
}
330
7F
100
AcDbScale
 70
     0
300
1-1/2" = 1'-0"
140
1.5
141
12.0
290
     0
  0
SCALE
  5
8E
102
{ACAD_REACTORS
330
7F
102
}
330
7F
100
AcDbScale
 70
     0
300
3" = 1'-0"
140
3.0
141
12.0
290
     0
  0
SCALE
  5
8F
102
{ACAD_REACTORS
330
7F
102
}
330
7F
100
AcDbScale
 70
     0
300
6" = 1'-0"
140
6.0
141
12.0
290
     0
  0
SCALE
  5
90
102
{ACAD_REACTORS
330
7F
102
}
330
7F
100
AcDbScale
 70
     0
300
1'-0" = 1'-0"
140
12.0
141
12.0
290
     0
  0
ACDBSECTIONVIEWSTYLE
  5
94
102
{ACAD_XDICTIONARY
360
1777
102
}
102
{ACAD_REACTORS
330
93
102
}
330
93
100
AcDbModelDocViewStyle
 70
     0
  3
Imperial24
290
     0
100
AcDbSectionViewStyle
 70
     0
 71
     0
 90
       78
 71
     1
340
10
 62
   256
 40
0.24
340
0
340
0
 62
   256
 40
0.24
300
I, O, Q, S, X, Z
 40
0.48
 90
        3
 40
0.18
 90
        1
 71
     2
340
7
 90
       25
 62
   256
340
7
 90
       50
 62
   256
 40
0.24
 40
0.0
 40
0.24
 71
     3
340
10
 62
   256
 40
0.24
 90
        1
 40
0.75
 90
        1
300
%<\AcVar ViewType \f "%tc1">% %<\AcVar ViewSectionStartId>%-%<\AcVar ViewSectionEndId>%\PSCALE %<\AcVar ViewScale \f "%sn">%
 71
     4
 62
   256
 62
   257
300
ANSI31
 40
1.0
 90
        0
290
     0
290
     0
 90
        6
 40
0.0
 40
1.57079633
 40
0.26179939
 40
1.30899694
 40
-0.26179939
 40
1.83259571
  0
ACDBSECTIONVIEWSTYLE
  5
118
102
{ACAD_XDICTIONARY
360
177B
102
}
102
{ACAD_REACTORS
330
93
102
}
330
93
100
AcDbModelDocViewStyle
 70
     0
  3
Metric50
290
     0
100
AcDbSectionViewStyle
 70
     0
 71
     0
 90
      102
 71
     1
340
10
 62
   256
 40
5.0
340
0
340
0
 62
   256
 40
5.0
300
I, O, Q, S, X, Z
 40
10.0
 90
        0
 40
2.5
 90
        0
 71
     2
340
7
 90
       25
 62
   256
340
7
 90
       50
 62
   256
 40
5.0
 40
2.5
 40
5.0
 71
     3
340
10
 62
   256
 40
5.0
 90
        0
 40
15.0
 90
        1
300
%<\AcVar ViewSectionStartId>%-%<\AcVar ViewSectionEndId>% (%<\AcVar ViewScale \f "%sn">%)
 71
     4
 62
   256
 62
   257
300
ANSI31
 40
1.0
 90
        0
290
     0
290
     0
 90
        6
 40
0.0
 40
1.57079633
 40
0.26179939
 40
1.30899694
 40
-0.26179939
 40
1.83259571
  0
TABLESTYLE
  5
7E
102
{ACAD_XDICTIONARY
360
6FA
102
}
102
{ACAD_REACTORS
330
7D
102
}
330
7D
100
AcDbTableStyle
  3
Standard
 70
     0
 71
     0
 40
0.06
 41
0.06
280
     0
281
     0
  7
STANDARD
140
0.18
170
     2
 62
     0
 63
     7
283
     0
274
    -2
284
     1
 64
     0
275
    -2
285
     1
 65
     0
276
    -2
286
     1
 66
     0
277
    -2
287
     1
 67
     0
278
    -2
288
     1
 68
     0
279
    -2
289
     1
 69
     0
  7
STANDARD
140
0.25
170
     5
 62
     0
 63
     7
283
     0
274
    -2
284
     1
 64
     0
275
    -2
285
     1
 65
     0
276
    -2
286
     1
 66
     0
277
    -2
287
     1
 67
     0
278
    -2
288
     1
 68
     0
279
    -2
289
     1
 69
     0
  7
STANDARD
140
0.18
170
     5
 62
     0
 63
     7
283
     0
274
    -2
284
     1
 64
     0
275
    -2
285
     1
 65
     0
276
    -2
286
     1
 66
     0
277
    -2
287
     1
 67
     0
278
    -2
288
     1
 68
     0
279
    -2
289
     1
 69
     0
  0
VISUALSTYLE
  5
68
102
{ACAD_XDICTIONARY
360
174E
102
}
102
{ACAD_REACTORS
330
62
102
}
330
62
100
AcDbVisualStyle
  2
2dWireframe
 70
     4
 71
     0
 72
     2
 73
     0
 90
        0
 40
-0.6
 41
-30.0
 62
     5
 63
     7
421
 16777215
 74
     1
 91
        4
 64
     7
 65
   257
 75
     1
175
     1
 42
1.0
 92
        0
 66
   257
 43
1.0
 76
     1
 77
     6
 78
     2
 67
     7
 79
     5
170
     0
171
     0
290
     0
174
     0
 93
        1
 44
0.0
173
     0
291
     0
 45
0.0
1001
ACAD
1000
AcDbSavedByObjectVersion
1070
     0
  0
VISUALSTYLE
  5
67
102
{ACAD_XDICTIONARY
360
174C
102
}
102
{ACAD_REACTORS
330
62
102
}
330
62
100
AcDbVisualStyle
  2
Basic
 70
     7
 71
     1
 72
     0
 73
     1
 90
        0
 40
-0.6
 41
-30.0
 62
     5
 63
     7
421
 16777215
 74
     0
 91
        4
 64
     7
 65
   257
 75
     1
175
     1
 42
1.0
 92
        8
 66
     7
 43
1.0
 76
     1
 77
     6
 78
     2
 67
     7
 79
     5
170
     0
171
     0
290
     0
174
     0
 93
        1
 44
0.0
173
     0
291
     1
 45
0.0
1001
ACAD
1000
AcDbSavedByObjectVersion
1070
     0
  0
VISUALSTYLE
  5
6E
102
{ACAD_XDICTIONARY
360
175A
102
}
102
{ACAD_REACTORS
330
62
102
}
330
62
100
AcDbVisualStyle
  2
Brighten
 70
    12
 71
     2
 72
     2
 73
     0
 90
        0
 40
-0.6
 41
-30.0
 62
     5
 63
     7
421
 16777215
 74
     1
 91
        4
 64
     7
 65
   257
 75
     1
175
     1
 42
1.0
 92
        8
 66
     7
 43
1.0
 76
     1
 77
     6
 78
     2
 67
     7
 79
     5
170
     0
171
     0
290
     0
174
     0
 93
        1
 44
50.0
173
     0
291
     1
 45
0.0
1001
ACAD
1000
AcDbSavedByObjectVersion
1070
     0
  0
VISUALSTYLE
  5
72
102
{ACAD_XDICTIONARY
360
1762
102
}
102
{ACAD_REACTORS
330
62
102
}
330
62
100
AcDbVisualStyle
  2
ColorChange
 70
    16
 71
     2
 72
     2
 73
     3
 90
        0
 40
-0.6
 41
-30.0
 62
     5
 63
     8
421
  8421504
 74
     1
 91
        4
 64
     7
 65
   257
 75
     1
175
     1
 42
1.0
 92
        8
 66
     8
424
  8421504
 43
1.0
 76
     1
 77
     6
 78
     2
 67
     7
 79
     5
170
     0
171
     0
290
     0
174
     0
 93
        1
 44
0.0
173
     0
291
     1
 45
0.0
1001
ACAD
1000
AcDbSavedByObjectVersion
1070
     0
  0
VISUALSTYLE
  5
6B
102
{ACAD_XDICTIONARY
360
1754
102
}
102
{ACAD_REACTORS
330
62
102
}
330
62
100
AcDbVisualStyle
  2
Conceptual
 70
     9
 71
     3
 72
     2
 73
     0
 90
        0
 40
-0.6
 41
-30.0
 62
     5
 63
     7
421
 16777215
 74
     2
 91
        2
 64
     7
 65
   257
 75
     1
175
     1
 42
179.0
 92
        8
 66
     7
 43
1.0
 76
     1
 77
     6
 78
     2
 67
     7
 79
     3
170
     0
171
     0
290
     0
174
     0
 93
        1
 44
0.0
173
     0
291
     0
 45
0.0
1001
ACAD
1000
AcDbSavedByObjectVersion
1070
     0
  0
VISUALSTYLE
  5
6D
102
{ACAD_XDICTIONARY
360
1758
102
}
102
{ACAD_REACTORS
330
62
102
}
330
62
100
AcDbVisualStyle
  2
Dim
 70
    11
 71
     2
 72
     2
 73
     0
 90
        0
 40
-0.6
 41
-30.0
 62
     5
 63
     7
421
 16777215
 74
     1
 91
        4
 64
     7
 65
   257
 75
     1
175
     1
 42
1.0
 92
        8
 66
     7
 43
1.0
 76
     1
 77
     6
 78
     2
 67
     7
 79
     5
170
     0
171
     0
290
     0
174
     0
 93
        1
 44
-50.0
173
     0
291
     1
 45
0.0
1001
ACAD
1000
AcDbSavedByObjectVersion
1070
     0
  0
VISUALSTYLE
  5
7A
102
{ACAD_XDICTIONARY
360
1772
102
}
102
{ACAD_REACTORS
330
62
102
}
330
62
100
AcDbVisualStyle
  2
EdgeColorOff
 70
    22
 71
     2
 72
     2
 73
     0
 90
        0
 40
-0.6
 41
-30.0
 62
     5
 63
     7
421
 16777215
 74
     1
 91
        4
 64
     7
 65
   257
 75
     1
175
     1
 42
1.0
 92
        8
 66
     7
 43
1.0
 76
     1
 77
     6
 78
     2
 67
     7
 79
     5
170
     0
171
     0
290
     0
174
     0
 93
        1
 44
0.0
173
     0
291
     1
 45
0.0
1001
ACAD
1000
AcDbSavedByObjectVersion
1070
     0
  0
VISUALSTYLE
  5
71
102
{ACAD_XDICTIONARY
360
1760
102
}
102
{ACAD_REACTORS
330
62
102
}
330
62
100
AcDbVisualStyle
  2
Facepattern
 70
    15
 71
     2
 72
     2
 73
     0
 90
        0
 40
-0.6
 41
-30.0
 62
     5
 63
     7
421
 16777215
 74
     1
 91
        4
 64
     7
 65
   257
 75
     1
175
     1
 42
1.0
 92
        8
 66
     7
 43
1.0
 76
     1
 77
     6
 78
     2
 67
     7
 79
     5
170
     0
171
     0
290
     0
174
     0
 93
        1
 44
0.0
173
     0
291
     1
 45
0.0
1001
ACAD
1000
AcDbSavedByObjectVersion
1070
     0
  0
VISUALSTYLE
  5
63
102
{ACAD_XDICTIONARY
360
1744
102
}
102
{ACAD_REACTORS
330
62
102
}
330
62
100
AcDbVisualStyle
  2
Flat
 70
     0
 71
     2
 72
     1
 73
     1
 90
        2
 40
-0.6
 41
30.0
 62
     5
 63
     7
421
 16777215
 74
     0
 91
        0
 64
     7
 65
   257
 75
     1
175
     1
 42
1.0
 92
        8
 66
     7
 43
1.0
 76
     1
 77
     6
 78
     2
 67
     7
 79
     5
170
     0
171
     0
290
     0
174
     0
 93
       13
 44
0.0
173
     0
291
     1
 45
0.0
1001
ACAD
1000
AcDbSavedByObjectVersion
1070
     0
  0
VISUALSTYLE
  5
64
102
{ACAD_XDICTIONARY
360
1746
102
}
102
{ACAD_REACTORS
330
62
102
}
330
62
100
AcDbVisualStyle
  2
FlatWithEdges
 70
     1
 71
     2
 72
     1
 73
     1
 90
        2
 40
-0.6
 41
30.0
 62
     5
 63
     7
421
 16777215
 74
     1
 91
        0
 64
     7
 65
   257
 75
     1
175
     1
 42
1.0
 92
        0
 66
   257
 43
1.0
 76
     1
 77
     6
 78
     2
 67
     7
 79
     5
170
     0
171
     0
290
     0
174
     0
 93
       13
 44
0.0
173
     0
291
     1
 45
0.0
1001
ACAD
1000
AcDbSavedByObjectVersion
1070
     0
  0
VISUALSTYLE
  5
65
102
{ACAD_XDICTIONARY
360
1748
102
}
102
{ACAD_REACTORS
330
62
102
}
330
62
100
AcDbVisualStyle
  2
Gouraud
 70
     2
 71
     2
 72
     2
 73
     1
 90
        2
 40
-0.6
 41
30.0
 62
     5
 63
     7
421
 16777215
 74
     0
 91
        0
 64
     7
 65
   257
 75
     1
175
     1
 42
1.0
 92
        0
 66
     7
 43
1.0
 76
     1
 77
     6
 78
     2
 67
     7
 79
     5
170
     0
171
     0
290
     0
174
     0
 93
       13
 44
0.0
173
     0
291
     1
 45
0.0
1001
ACAD
1000
AcDbSavedByObjectVersion
1070
     0
  0
VISUALSTYLE
  5
66
102
{ACAD_XDICTIONARY
360
174A
102
}
102
{ACAD_REACTORS
330
62
102
}
330
62
100
AcDbVisualStyle
  2
GouraudWithEdges
 70
     3
 71
     2
 72
     2
 73
     1
 90
        2
 40
-0.6
 41
30.0
 62
     5
 63
     7
421
 16777215
 74
     1
 91
        0
 64
     7
 65
   257
 75
     1
175
     1
 42
1.0
 92
        0
 66
   257
 43
1.0
 76
     1
 77
     6
 78
     2
 67
     7
 79
     5
170
     0
171
     0
290
     0
174
     0
 93
       13
 44
0.0
173
     0
291
     1
 45
0.0
1001
ACAD
1000
AcDbSavedByObjectVersion
1070
     0
  0
VISUALSTYLE
  5
6A
102
{ACAD_XDICTIONARY
360
1752
102
}
102
{ACAD_REACTORS
330
62
102
}
330
62
100
AcDbVisualStyle
  2
Hidden
 70
     6
 71
     1
 72
     2
 73
     2
 90
        0
 40
-0.6
 41
-30.0
 62
     5
 63
     7
421
 16777215
 74
     2
 91
        2
 64
     7
 65
   257
 75
     2
175
     1
 42
40.0
 92
        0
 66
   257
 43
1.0
 76
     1
 77
     6
 78
     2
 67
     7
 79
     3
170
     0
171
     0
290
     0
174
     0
 93
        1
 44
0.0
173
     0
291
     0
 45
0.0
1001
ACAD
1000
AcDbSavedByObjectVersion
1070
     0
  0
VISUALSTYLE
  5
78
102
{ACAD_XDICTIONARY
360
176E
102
}
102
{ACAD_REACTORS
330
62
102
}
330
62
100
AcDbVisualStyle
  2
JitterOff
 70
    20
 71
     2
 72
     2
 73
     0
 90
        0
 40
-0.6
 41
-30.0
 62
     5
 63
     7
421
 16777215
 74
     1
 91
        4
 64
     7
 65
   257
 75
     1
175
     1
 42
1.0
 92
       10
 66
     7
 43
1.0
 76
     1
 77
     6
 78
     2
 67
     7
 79
     5
170
     0
171
     0
290
     0
174
     0
 93
        1
 44
0.0
173
     0
291
     1
 45
0.0
1001
ACAD
1000
AcDbSavedByObjectVersion
1070
     0
  0
VISUALSTYLE
  5
70
102
{ACAD_XDICTIONARY
360
175E
102
}
102
{ACAD_REACTORS
330
62
102
}
330
62
100
AcDbVisualStyle
  2
Linepattern
 70
    14
 71
     2
 72
     2
 73
     0
 90
        0
 40
-0.6
 41
-30.0
 62
     5
 63
     7
421
 16777215
 74
     1
 91
        4
 64
     7
 65
   257
 75
     7
175
     7
 42
1.0
 92
        8
 66
     7
 43
1.0
 76
     1
 77
     6
 78
     2
 67
     7
 79
     5
170
     0
171
     0
290
     0
174
     0
 93
        1
 44
0.0
173
     0
291
     1
 45
0.0
1001
ACAD
1000
AcDbSavedByObjectVersion
1070
     0
  0
VISUALSTYLE
  5
79
102
{ACAD_XDICTIONARY
360
1770
102
}
102
{ACAD_REACTORS
330
62
102
}
330
62
100
AcDbVisualStyle
  2
OverhangOff
 70
    21
 71
     2
 72
     2
 73
     0
 90
        0
 40
-0.6
 41
-30.0
 62
     5
 63
     7
421
 16777215
 74
     1
 91
        4
 64
     7
 65
   257
 75
     1
175
     1
 42
1.0
 92
        9
 66
     7
 43
1.0
 76
     1
 77
     6
 78
     2
 67
     7
 79
     5
170
     0
171
     0
290
     0
174
     0
 93
        1
 44
0.0
173
     0
291
     1
 45
0.0
1001
ACAD
1000
AcDbSavedByObjectVersion
1070
     0
  0
VISUALSTYLE
  5
6C
102
{ACAD_XDICTIONARY
360
1756
102
}
102
{ACAD_REACTORS
330
62
102
}
330
62
100
AcDbVisualStyle
  2
Realistic
 70
     8
 71
     2
 72
     2
 73
     0
 90
        2
 40
-0.6
 41
30.0
 62
     5
 63
     7
421
 16777215
 74
     0
 91
        0
 64
     7
 65
   257
 75
     1
175
     1
 42
1.0
 92
        8
 66
   257
 43
1.0
 76
     1
 77
     6
 78
     2
 67
     7
 79
     3
170
     0
171
     0
290
     0
174
     0
 93
       13
 44
0.0
173
     0
291
     0
 45
0.0
1001
ACAD
1000
AcDbSavedByObjectVersion
1070
     0
  0
VISUALSTYLE
  5
77
102
{ACAD_XDICTIONARY
360
176C
102
}
102
{ACAD_REACTORS
330
62
102
}
330
62
100
AcDbVisualStyle
  2
Shaded
 70
    27
 71
     2
 72
     2
 73
     1
 90
        2
 40
-0.6
 41
30.0
 62
     5
 63
     7
421
 16777215
 74
     0
 91
        4
 64
     7
 65
   257
 75
     1
175
     1
 42
1.0
 92
        8
 66
   257
 43
1.0
 76
     1
 77
     6
 78
     2
 67
     8
425
  7895160
 79
     3
170
     0
171
     0
290
     0
174
     0
 93
        5
 44
0.0
173
     0
291
     0
 45
0.0
1001
ACAD
1000
AcDbSavedByObjectVersion
1070
     0
  0
VISUALSTYLE
  5
76
102
{ACAD_XDICTIONARY
360
176A
102
}
102
{ACAD_REACTORS
330
62
102
}
330
62
100
AcDbVisualStyle
  2
Shaded with edges
 70
    26
 71
     2
 72
     2
 73
     1
 90
        2
 40
-0.6
 41
30.0
 62
     5
 63
     7
421
 16777215
 74
     1
 91
        2
 64
     7
 65
   257
 75
     2
175
     1
 42
1.0
 92
        8
 66
   257
 43
1.0
 76
     1
 77
     6
 78
     2
 67
     7
 79
     3
170
     0
171
     0
290
     0
174
     0
 93
        5
 44
0.0
173
     0
291
     0
 45
0.0
1001
ACAD
1000
AcDbSavedByObjectVersion
1070
     0
  0
VISUALSTYLE
  5
73
102
{ACAD_XDICTIONARY
360
1764
102
}
102
{ACAD_REACTORS
330
62
102
}
330
62
100
AcDbVisualStyle
  2
Shades of Gray
 70
    23
 71
     2
 72
     2
 73
     3
 90
        0
 40
-0.6
 41
-30.0
 62
     5
 63
     7
421
 16777215
 74
     2
 91
        2
 64
     7
 65
     7
 75
     1
175
     1
 42
40.0
 92
        8
 66
     7
 43
1.0
 76
     1
 77
     6
 78
     2
 67
     7
 79
     3
170
     0
171
     0
290
     0
174
     0
 93
        1
 44
0.0
173
     0
291
     0
 45
0.0
1001
ACAD
1000
AcDbSavedByObjectVersion
1070
     0
  0
VISUALSTYLE
  5
74
102
{ACAD_XDICTIONARY
360
1766
102
}
102
{ACAD_REACTORS
330
62
102
}
330
62
100
AcDbVisualStyle
  2
Sketchy
 70
    24
 71
     1
 72
     2
 73
     2
 90
        0
 40
-0.6
 41
-30.0
 62
     5
 63
     7
421
 16777215
 74
     2
 91
        2
 64
     7
 65
     7
 75
     1
175
     1
 42
40.0
 92
       11
 66
     7
 43
1.0
 76
     1
 77
     6
 78
     2
 67
     7
 79
     6
170
     0
171
     0
290
     0
174
     0
 93
        1
 44
0.0
173
     0
291
     0
 45
0.0
1001
ACAD
1000
AcDbSavedByObjectVersion
1070
     0
  0
VISUALSTYLE
  5
6F
102
{ACAD_XDICTIONARY
360
175C
102
}
102
{ACAD_REACTORS
330
62
102
}
330
62
100
AcDbVisualStyle
  2
Thicken
 70
    13
 71
     2
 72
     2
 73
     0
 90
        0
 40
-0.6
 41
-30.0
 62
     5
 63
     7
421
 16777215
 74
     1
 91
        4
 64
     7
 65
   257
 75
     1
175
     1
 42
1.0
 92
       12
 66
     7
 43
1.0
 76
     1
 77
     6
 78
     2
 67
     7
 79
     5
170
     0
171
     0
290
     0
174
     0
 93
        1
 44
0.0
173
     0
291
     1
 45
0.0
1001
ACAD
1000
AcDbSavedByObjectVersion
1070
     0
  0
VISUALSTYLE
  5
69
102
{ACAD_XDICTIONARY
360
1750
102
}
102
{ACAD_REACTORS
330
62
102
}
330
62
100
AcDbVisualStyle
  2
Wireframe
 70
     5
 71
     0
 72
     2
 73
     0
 90
        0
 40
-0.6
 41
-30.0
 62
     5
 63
     7
421
 16777215
 74
     1
 91
        4
 64
     7
 65
   257
 75
     1
175
     1
 42
1.0
 92
        0
 66
   257
 43
1.0
 76
     1
 77
     6
 78
     2
 67
     7
 79
     3
170
     0
171
     0
290
     0
174
     0
 93
        1
 44
0.0
173
     0
291
     0
 45
0.0
1001
ACAD
1000
AcDbSavedByObjectVersion
1070
     0
  0
VISUALSTYLE
  5
75
102
{ACAD_XDICTIONARY
360
1768
102
}
102
{ACAD_REACTORS
330
62
102
}
330
62
100
AcDbVisualStyle
  2
X-Ray
 70
    25
 71
     2
 72
     2
 73
     1
 90
        1
 40
0.5
 41
-30.0
 62
     5
 63
     7
421
 16777215
 74
     1
 91
        0
 64
     7
 65
   257
 75
     1
175
     1
 42
1.0
 92
        8
 66
     7
 43
1.0
 76
     1
 77
     6
 78
     2
 67
     7
 79
     3
170
     0
171
     0
290
     0
174
     0
 93
       13
 44
0.0
173
     0
291
     0
 45
0.0
1001
ACAD
1000
AcDbSavedByObjectVersion
1070
     0
  0
DICTIONARYVAR
  5
750
102
{ACAD_REACTORS
330
74B
102
}
330
74B
100
DictionaryVariables
280
     0
  1
1:1
  0
DICTIONARYVAR
  5
74D
102
{ACAD_REACTORS
330
74B
102
}
330
74B
100
DictionaryVariables
280
     0
  1
STANDARD
  0
DICTIONARYVAR
  5
74C
102
{ACAD_REACTORS
330
74B
102
}
330
74B
100
DictionaryVariables
280
     0
  1
STANDARD
  0
DICTIONARYVAR
  5
74E
102
{ACAD_REACTORS
330
74B
102
}
330
74B
100
DictionaryVariables
280
     0
  1
Imperial24
  0
DICTIONARYVAR
  5
74F
102
{ACAD_REACTORS
330
74B
102
}
330
74B
100
DictionaryVariables
280
     0
  1
Imperial24
  0
DICTIONARYVAR
  5
173E
102
{ACAD_REACTORS
330
74B
102
}
330
74B
100
DictionaryVariables
280
     0
  1
2
  0
DICTIONARY
  5
1779
330
96
100
AcDbDictionary
280
     1
281
     1
  3
ACAD_XREC_ROUNDTRIP
360
177A
  0
DICTIONARY
  5
177D
330
119
100
AcDbDictionary
280
     1
281
     1
  3
ACAD_XREC_ROUNDTRIP
360
177E
  0
DICTIONARY
  5
742
330
98
100
AcDbDictionary
280
     1
281
     1
  3
ADSK_XREC_LAYOUTTHUMBNAIL
360
743
  0
DICTIONARY
  5
53
330
52
100
AcDbDictionary
280
     1
281
     1
  3
ACAD_XREC_ROUNDTRIP
360
1742
  3
BUMPTILE
360
55
  3
DIFFUSETILE
360
54
  3
OPACITYTILE
360
58
  3
REFLECTIONTILE
360
57
  3
REFRACTIONTILE
360
59
  3
SPECULARTILE
360
56
  0
DICTIONARY
  5
4B
330
4A
100
AcDbDictionary
280
     1
281
     1
  3
ACAD_XREC_ROUNDTRIP
360
1741
  3
BUMPTILE
360
4D
  3
DIFFUSETILE
360
4C
  3
OPACITYTILE
360
50
  3
REFLECTIONTILE
360
4F
  3
REFRACTIONTILE
360
51
  3
SPECULARTILE
360
4E
  0
DICTIONARY
  5
5B
330
5A
100
AcDbDictionary
280
     1
281
     1
  3
ACAD_XREC_ROUNDTRIP
360
1743
  3
BUMPTILE
360
5D
  3
DIFFUSETILE
360
5C
  3
OPACITYTILE
360
60
  3
REFLECTIONTILE
360
5F
  3
REFRACTIONTILE
360
61
  3
SPECULARTILE
360
5E
  0
DICTIONARY
  5
1775
330
92
100
AcDbDictionary
280
     1
281
     1
  3
ACAD_XREC_ROUNDTRIP
360
1776
  0
XRECORD
  5
746
102
{ACAD_REACTORS
330
745
102
}
330
745
100
AcDbXrecord
280
     1
 70
     2
 71
     3
 72
     0
  0
DICTIONARY
  5
1777
330
94
100
AcDbDictionary
280
     1
281
     1
  3
ACAD_XREC_ROUNDTRIP
360
1778
  0
DICTIONARY
  5
177B
330
118
100
AcDbDictionary
280
     1
281
     1
  3
ACAD_XREC_ROUNDTRIP
360
177C
  0
DICTIONARY
  5
6FA
330
7E
100
AcDbDictionary
280
     1
281
     1
  3
ACAD_ROUNDTRIP_2008_TABLESTYLE_CELLSTYLEMAP
360
173F
  3
ACAD_XREC_ROUNDTRIP
360
1774
  0
DICTIONARY
  5
174E
330
68
100
AcDbDictionary
280
     1
281
     1
  3
ACAD_XREC_ROUNDTRIP
360
174F
  0
DICTIONARY
  5
174C
330
67
100
AcDbDictionary
280
     1
281
     1
  3
ACAD_XREC_ROUNDTRIP
360
174D
  0
DICTIONARY
  5
175A
330
6E
100
AcDbDictionary
280
     1
281
     1
  3
ACAD_XREC_ROUNDTRIP
360
175B
  0
DICTIONARY
  5
1762
330
72
100
AcDbDictionary
280
     1
281
     1
  3
ACAD_XREC_ROUNDTRIP
360
1763
  0
DICTIONARY
  5
1754
330
6B
100
AcDbDictionary
280
     1
281
     1
  3
ACAD_XREC_ROUNDTRIP
360
1755
  0
DICTIONARY
  5
1758
330
6D
100
AcDbDictionary
280
     1
281
     1
  3
ACAD_XREC_ROUNDTRIP
360
1759
  0
DICTIONARY
  5
1772
330
7A
100
AcDbDictionary
280
     1
281
     1
  3
ACAD_XREC_ROUNDTRIP
360
1773
  0
DICTIONARY
  5
1760
330
71
100
AcDbDictionary
280
     1
281
     1
  3
ACAD_XREC_ROUNDTRIP
360
1761
  0
DICTIONARY
  5
1744
330
63
100
AcDbDictionary
280
     1
281
     1
  3
ACAD_XREC_ROUNDTRIP
360
1745
  0
DICTIONARY
  5
1746
330
64
100
AcDbDictionary
280
     1
281
     1
  3
ACAD_XREC_ROUNDTRIP
360
1747
  0
DICTIONARY
  5
1748
330
65
100
AcDbDictionary
280
     1
281
     1
  3
ACAD_XREC_ROUNDTRIP
360
1749
  0
DICTIONARY
  5
174A
330
66
100
AcDbDictionary
280
     1
281
     1
  3
ACAD_XREC_ROUNDTRIP
360
174B
  0
DICTIONARY
  5
1752
330
6A
100
AcDbDictionary
280
     1
281
     1
  3
ACAD_XREC_ROUNDTRIP
360
1753
  0
DICTIONARY
  5
176E
330
78
100
AcDbDictionary
280
     1
281
     1
  3
ACAD_XREC_ROUNDTRIP
360
176F
  0
DICTIONARY
  5
175E
330
70
100
AcDbDictionary
280
     1
281
     1
  3
ACAD_XREC_ROUNDTRIP
360
175F
  0
DICTIONARY
  5
1770
330
79
100
AcDbDictionary
280
     1
281
     1
  3
ACAD_XREC_ROUNDTRIP
360
1771
  0
DICTIONARY
  5
1756
330
6C
100
AcDbDictionary
280
     1
281
     1
  3
ACAD_XREC_ROUNDTRIP
360
1757
  0
DICTIONARY
  5
176C
330
77
100
AcDbDictionary
280
     1
281
     1
  3
ACAD_XREC_ROUNDTRIP
360
176D
  0
DICTIONARY
  5
176A
330
76
100
AcDbDictionary
280
     1
281
     1
  3
ACAD_XREC_ROUNDTRIP
360
176B
  0
DICTIONARY
  5
1764
330
73
100
AcDbDictionary
280
     1
281
     1
  3
ACAD_XREC_ROUNDTRIP
360
1765
  0
DICTIONARY
  5
1766
330
74
100
AcDbDictionary
280
     1
281
     1
  3
ACAD_XREC_ROUNDTRIP
360
1767
  0
DICTIONARY
  5
175C
330
6F
100
AcDbDictionary
280
     1
281
     1
  3
ACAD_XREC_ROUNDTRIP
360
175D
  0
DICTIONARY
  5
1750
330
69
100
AcDbDictionary
280
     1
281
     1
  3
ACAD_XREC_ROUNDTRIP
360
1751
  0
DICTIONARY
  5
1768
330
75
100
AcDbDictionary
280
     1
281
     1
  3
ACAD_XREC_ROUNDTRIP
360
1769
  0
XRECORD
  5
177A
102
{ACAD_REACTORS
330
1779
102
}
330
1779
100
AcDbXrecord
280
     1
102
DISPLAYNAME
  1
Imperial24
102
FLAGS
 90
        0
  0
XRECORD
  5
177E
102
{ACAD_REACTORS
330
177D
102
}
330
177D
100
AcDbXrecord
280
     1
102
DISPLAYNAME
  1
Metric50
102
FLAGS
 90
        0
  0
XRECORD
  5
743
102
{ACAD_REACTORS
330
742
102
}
330
742
100
AcDbXrecord
280
     1
310
2800000000010000630000000100080000000000006300000100000001000000000100000000000000000000FFFFFF52000000FF000000FF000000FF000000FF000000FF000000FF000000FF000000FF000000FF330000FF660000FF990000FFCC0000FFFF0000FF003300FF333300FF663300FF993300FFCC3300FFFF3300
310
FF006600FF336600FF666600FF996600FFCC6600FFFF6600FF009900FF339900FF669900FF999900FFCC9900FFFF9900FF00CC00FF33CC00FF66CC00FF99CC00FFCCCC00FFFFCC00FF00FF00FF33FF00FF66FF00FF99FF00FFCCFF00FFFFFF00FF000033FF330033FF660033FF990033FFCC0033FFFF0033FF003333FF3333
310
33FF663333FF993333FFCC3333FFFF3333FF006633FF336633FF666633FF996633FFCC6633FFFF6633FF009933FF339933FF669933FF999933FFCC9933FFFF9933FF00CC33FF33CC33FF66CC33FF99CC33FFCCCC33FFFFCC33FF00FF33FF33FF33FF66FF33FF99FF33FFCCFF33FFFFFF33FF000066FF330066FF660066FF99
310
0066FFCC0066FFFF0066FF003366FF333366FF663366FF993366FFCC3366FFFF3366FF006666FF336666FF666666FF996666FFCC6666FFFF6666FF009966FF339966FF669966FF999966FFCC9966FFFF9966FF00CC66FF33CC66FF66CC66FF99CC66FFCCCC66FFFFCC66FF00FF66FF33FF66FF66FF66FF99FF66FFCCFF66FF
310
FFFF66FF000099FF330099FF660099FF990099FFCC0099FFFF0099FF003399FF333399FF663399FF993399FFCC3399FFFF3399FF006699FF336699FF666699FF996699FFCC6699FFFF6699FF009999FF339999FF669999FF999999FFCC9999FFFF9999FF00CC99FF33CC99FF66CC99FF99CC99FFCCCC99FFFFCC99FF00FF99
310
FF33FF99FF66FF99FF99FF99FFCCFF99FFFFFF99FF0000CCFF3300CCFF6600CCFF9900CCFFCC00CCFFFF00CCFF0033CCFF3333CCFF6633CCFF9933CCFFCC33CCFFFF33CCFF0066CCFF3366CCFF6666CCFF9966CCFFCC66CCFFFF66CCFF0099CCFF3399CCFF6699CCFF9999CCFFCC99CCFFFF99CCFF00CCCCFF33CCCCFF66CC
310
CCFF99CCCCFFCCCCCCFFFFCCCCFF00FFCCFF33FFCCFF66FFCCFF99FFCCFFCCFFCCFFFFFFCCFF0000FFFF3300FFFF6600FFFF9900FFFFCC00FFFFFF00FFFF0033FFFF3333FFFF6633FFFF9933FFFFCC33FFFFFF33FFFF0066FFFF3366FFFF6666FFFF9966FFFFCC66FFFFFF66FFFF0099FFFF3399FFFF6699FFFF9999FFFFCC
310
99FFFFFF99FFFF00CCFFFF33CCFFFF66CCFFFF99CCFFFFCCCCFFFFFFCCFFFF00FFFFFF33FFFFFF66FFFFFF99FFFFFFCCFFFFFFFFFFFFFF000000FF0D0D0DFF1A1A1AFF282828FF353535FF434343FF505050FF5D5D5DFF6B6B6BFF787878FF868686FF939393FFA1A1A1FFAEAEAEFFBBBBBBFFC9C9C9FFD6D6D6FFE4E4E4FF
310
F1F1F1FFFFFFFFFF000000FF000000FF000000FF000000FF000000FF000000FF000000FF000000FF000000FF000000FF00000000000000000000000000000000000000000000000000000000000000000000000000000000000000000000000000000000000000000000000000000000000000000000000000000000000000
310
00000000000000000000000000000000000000000000000000000000000000000000000000000000000000000000000000000000000000000000000000000000000000000000000000000000000000000000000000000000000000000000000000000000000000000000000000000000000000000000000000000000000000
310
0000000000000000000000000000000000000000000000000000000000000000000000000000000000000000000000000000000000000000000000000000000000000000000000000000000000000000000000000000000000000000000000000000000000000000000000000000F5F5F5F5F5F5F5F5F5F5F5F5F5F5F5F5F5
310
F5F5F5F5F5F5F5F5F5F5F5F5F5F5F5F5F5F5F5F5F5F5F5F5F5F5F5F5F5F5F5F5F5F5F5F5F5F5F5F5F5F5F5F5F5F5F5F5F5F5F5F5F5F5F5F5F5F5F5F5F5F5F5F5F5F5F5F5F5F5F5F5F5F5F5F5F5F5F5F5F5F5F5F5F5F5F5F5F5F5F5F5F5F5F5F5F5F5F5F5F5F5F5F5F5F5F5F5F5F5F5F5F5F5F5F5F5F5F50000000000000000
310
00000000000000000000000000000000000000000000000000000000000000000000000000000000000000000000000000000000000000000000000000000000000000000000000000000000000000000000000000000000000000000000000000000000000000000000000000000000F50000000000000000000000000000
310
000000000000000000000000000000000000000000000000000000000000000000000000000000000000000000000000000000000000000000000000000000000000000000000000000000000000000000000000000000000000000000000000000000000000000000000000000000000000000000F50000F5000000000000
310
000000000000000000000000000000000000000000000000000000000000000000000000000000000000000000000000000000000000000000000000000000000000000000000000000000000000000000000000000000000000000000000000000000000000000000000000000000000000F5000000000000000000000000
310
0000000000000000000000000000000000000000000000000000000000000000000000000000000000000000000000000000000000000000000000000000000000000000000000000000000000000000000000000000000000000000000000000000000000000000000000000000000000000000000000F50000F500000000
310
0000000000000000000000000000000000000000000000000000000000000000000000000000000000000000000000000000000000000000000000000000000000000000000000000000000000000000000000000000000000000000000000000000000000000000000000000000000000000000F500000000000000000000
310
00000000000000000000000000000000000000000000000000000000000000000000000000000000000000000000000000000000000000000000000000000000000000000000000000000000000000000000000000000000000000000000000000000000000000000000000000000000000000000000000000F50000F50000
310
00000000000000000000000000000000000000000000000000000000000000000000000000000000000000000000000000000000000000000000000000000000000000000000000000000000000000000000000000000000000000000000000000000000000000000000000000000000000000000000F50000000000000000
310
000000000000000000000000000000000000000000000000000000000000000000000000000000000000000000000000000000000000000000000000000000000000000000000000000000000000000000000000000000000000000000000000000000000000000000000000000000000000000000000000000000F50000F5
310
000000000000000000000000000000000000000000000000000000000000000000000000000000000000000000000000000000000000000000000000000000000000000000000000000000000000000000000000000000000000000000000000000000000000000000000000000000000000000000000000F5000000000000
310
0000000000000000000000000000000000000000000000000000000000000000000000000000000000000000000000000000000000000000000000000000000000000000000000000000000000000000000000000000000000000000000000000000000000000000000000000000000000000000000000000000000000F500
310
00F5000000000000000000000000000000000000000000000000000000000000000000000000000000000000000000000000000000000000000000000000000000000000000000000000000000000000000000000000000000000000000000000000000000000000000000000000000000000000000000000000F500000000
310
00000000000000000000000000000000000000000000000000000000000000000000000000000000000000000000000000000000000000000000000000000000000000000000000000000000000000000000000000000000000000000000000000000000000000000000000000000000000000000000000000000000000000
310
F50000F5000000000000000000000000000000000000000000000000000000000000000000000000000000000000000000000000000000000000000000000000000000000000000000000000000000000000000000000000000000000000000000000000000000000000000000000000000000000000000000000000F50000
310
00000000000000000000000000000000000000000000000000000000000000000000000000000000000000000000000000000000000000000000000000000000000000000000000000000000000000000000000000000000000000000000000000000000000000000000000000000000000000000000000000000000000000
310
0000F50000F5000000000000000000000000000000000000000000000000000000000000000000000000000000000000000000000000000000000000000000000000000000000000000000000000000000000000000000000000000000000000000000000000000000000000000000000000000000000000000000000000F5
310
00000000000000000000000000000000000000000000000000000000000000000000000000000000000000000000000000000000000000000000000000000000000000000000000000000000000000000000000000000000000000000000000000000000000000000000000000000000000000000000000000000000000000
310
00000000F50000F50000000000000000000000000000000000000000000000000000000000000000000000000000000000000000000000000000000000000000000000000000000000000000000000000000000000000000000000000000000000000000000000000000000000000000000000000000000000000000000000
310
00F50000000000000000000000000000000000000000000000000000000000000000000000000000000000000000000000000000000000000000000000000000000000000000000000000000000000000000000000000000000000000000000000000000000000000000000000000000000000000000000000000000000000
310
000000000000F50000F5000000000000000000000000000000000000000000000000000000000000000000000000000000000000000000000000000000000000000000000000000000000000000000000000000000000000000000000000000000000000000000000000000000000000000000000000000000000000000000
310
000000F5000000000000000000000000000000000000000000000000000000000000000000000000000000000000000000000000000000000000000000000000000000000000000000000000000000000000000000000000000000000000000000000000000000000000000000000000000000000000000000000000000000
310
0000000000000000F50000F500000000000000000000000000000000000000000000000000000000000000000000000000000000000000000000000000000000000000000000000000000000000000000000000000000000000000000000000000000000000000000000000000000000000000000000000000000000000000
310
0000000000F500000000000000000000000000000000000000000000000000000000000000000000000000000000000000000000000000000000000000000000000000000000000000000000000000000000000000000000000000000000000000000000000000000000000000000000000000000000000000000000000000
310
00000000000000000000F50000F50000000000000000000000000000000000000000000000000000000000000000000000000000000000000000000000000000000000000000000000000000000000000000000000000000000000000000000000000000000000000000000000000000000000000000000000000000000000
310
00000000000000F50000000000000000000000000000000000000000000000000000000000000000000000000000000000000000000000000000000000000000000000000000000000000000000000000000000000000000000000000000000000000000000000000000000000000000000000000000000000000000000000
310
000000000000000000000000F50000F5000000000000000000000000000000000000000000000000000000000000000000000000000000000000000000000000000000000000000000000000000000000000000000000000000000000000000000000000000000000000000000000000000000000000000000000000000000
310
000000000000000000F5000000000000000000000000000000000000000000000000000000000000000000000000000000000000000000000000000000000000000000000000000000000000000000000000000000000000000000000000000000000000000000000000000000000000000000000000000000000000000000
310
0000000000000000000000000000F50000F500000000000000000000000000000000000000000000000000000000000000000000000000000000000000000000000000000000000000000000000000000000000000000000000000000000000000000000000000000000000000000000000000000000000000000000000000
310
0000000000000000000000F500000000000000000000000000000000000000000000000000000000000000000000000000000000000000000000000000000000000000000000000000000000000000000000000000000000000000000000000000000000000000000000000000000000000000000000000000000000000000
310
00000000000000000000000000000000F50000F50000000000000000000000000000000000000000000000000000000000000000000000000000000000000000000000000000000000000000000000000000000000000000000000000000000000000000000000000000000000000000000000000000000000000000000000
310
00000000000000000000000000F50000000000000000000000000000000000000000000000000000000000000000000000000000000000000000000000000000000000000000000000000000000000000000000000000000000000000000000000000000000000000000000000000000000000000000000000000000000000
310
000000000000000000000000000000000000F50000F5000000000000000000000000000000000000000000000000000000000000000000000000000000000000000000000000000000000000000000000000000000000000000000000000000000000000000000000000000000000000000000000000000000000000000000
310
000000000000000000000000000000F5000000000000000000000000000000000000000000000000000000000000000000000000000000000000000000000000000000000000000000000000000000000000000000000000000000000000000000000000000000000000000000000000000000000000000000000000000000
310
0000000000000000000000000000000000000000F50000F500000000000000000000000000000000000000000000000000000000000000000000000000000000000000000000000000000000000000000000000000000000000000000000000000000000000000000000000000000000000000000000000000000000000000
310
0000000000000000000000000000000000F500000000000000000000000000000000000000000000000000000000000000000000000000000000000000000000000000000000000000000000000000000000000000000000000000000000000000000000000000000000000000000000000000000000000000000000000000
310
00000000000000000000000000000000000000000000F50000F50000000000000000000000000000000000000000000000000000000000000000000000000000000000000000000000000000000000000000000000000000000000000000000000000000000000000000000000000000000000000000000000000000000000
310
00000000000000000000000000000000000000F50000000000000000000000000000000000000000000000000000000000000000000000000000000000000000000000000000000000000000000000000000000000000000000000000000000000000000000000000000000000000000000000000000000000000000000000
310
000000000000000000000000000000000000000000000000F50000F5000000000000000000000000000000000000000000000000000000000000000000000000000000000000000000000000000000000000000000000000000000000000000000000000000000000000000000000000000000000000000000000000000000
310
000000000000000000000000000000000000000000F5000000000000000000000000000000000000000000000000000000000000000000000000000000000000000000000000000000000000000000000000000000000000000000000000000000000000000000000000000000000000000000000000000000000000000000
310
0000000000000000000000000000000000000000000000000000F50000F500000000000000000000000000000000000000000000000000000000000000000000000000000000000000000000000000000000000000000000000000000000000000000000000000000000000000000000000000000000000000000000000000
310
0000000000000000000000000000000000000000000000F500000000000000000000000000000000000000000000000000000000000000000000000000000000000000000000000000000000000000000000000000000000000000000000000000000000000000000000000000000000000000000000000000000000000000
310
00000000000000000000000000000000000000000000000000000000F50000F50000000000000000000000000000000000000000000000000000000000000000000000000000000000000000000000000000000000000000000000000000000000000000000000000000000000000000000000000000000000000000000000
310
00000000000000000000000000000000000000000000000000F500000000000000000000000000000000000000000000000000000000000000000000000000000000000000000000000000DC00000000DC00000000000000000000000000000000000000000000000000000000000000000000000000000000000000000000
310
000000000000000000000000000000000000000000000000000000000000F50000F5000000000000000000000000000000000000000000000000000000000000000000000000000000000000000000000000000000000000000000000000000000000000000000000000000000000000000000000000000000000000000000
310
000000000000000000000000000000000000000000000000000000F500000000000000000000000000000000000000000000000000000000000000000000000000000000000000000000DCDCDCDCDCDCDCDCDCDCDC000000000000000000000000000000000000000000000000000000000000000000000000000000000000
310
0000000000000000000000000000000000000000000000000000000000000000F50000F500000000000000000000000000000000000000000000000000000000000000000000000000000000000000000000000000000000000000000000000000000000000000000000000000000000000000000000000000000000000000
310
0000000000000000000000000000000000000000000000000000000000F50000000000000000000000000000000000000000000000000000000000000000000000000000000000000000000000DCDCDC00000000DCDCDC00000000000000000000000000000000000000000000000000000000000000000000000000000000
310
00000000000000000000000000000000000000000000000000000000000000000000F50000F50000000000000000000000000000000000000000000000000000000000000000000000000000000000000000000000000000000000000000000000000000000000000000000000000000000000000000000000000000000000
310
00000000000000000000000000000000000000000000000000000000000000F50000000000000000000000000000000000000000000000000000000000000000000000000000000000000000000000DCDCDCDCDCDCDCDCDCDC0000000000000000000000000000000000000000000000000000000000000000000000000000
310
000000000000000000000000000000000000000000000000000000000000000000000000F50000F5000000000000000000000000000000000000000000000000000000000000000000000000000000000000000000000000000000000000000000000000000000000000000000000000000000000000000000000000000000
310
000000000000000000000000000000000000000000000000000000000000000000F5000000000000000000000000000000000000000000000000000000000000000000000000000000000000000000000000DCDC00000000DCDC00000000000000000000000000000000000000000000000000000000000000000000000000
310
0000000000000000000000000000000000000000000000000000000000000000000000000000F50000F500000000000000000000000000000000000000000000000000000000000000000000000000000000000000000000000000000000000000000000000000000000000000000000000000000000000000000000000000
310
0000000000000000000000000000000000000000000000000000000000000000000000F50000000000000000000000000000000000000000000000000000000000000000000000000000000000000000000000DCDCDCDCDCDCDCDCDCDC00000000000000000000000000000000000000000000000000000000000000000000
310
00000000000000000000000000000000000000000000000000000000000000000000000000000000F50000F50000000000000000000000000000000000000000000000000000000000000000000000000000000000000000000000000000000000000000000000000000000000000000000000000000000000000000000000
310
00000000000000000000000000000000000000000000000000000000000000000000000000F5000000000000000000000000000000000000000000000000000000000000000000000000000000000000000000000000DC000000000000DC000000000000000000000000000000000000000000000000000000000000000000
310
000000000000000000000000000000000000000000000000000000000000000000000000000000000000F50000F5000000000000000000000000000000000000000000000000000000000000000000000000000000000000000000000000000000000000000000000000000000000000000000000000000000000000000000
310
000000000000000000000000000000000000000000000000000000000000000000000000000000F5000000000000000000000000000000000000000000000000000000000000000000000000000000000000000000000000DCDC000000DCDCDC00000000000000000000000000000000000000000000000000000000000000
310
0000000000000000000000000000000000000000000000000000000000000000000000000000000000000000F50000F500000000000000000000000000000000000000000000000000000000000000000000000000000000000000000000000000000000000000000000000000000000000000000000000000000000000000
310
0000000000000000000000000000000000000000000000000000000000000000000000000000000000F5000000000000000000000000000000000000000000000000000000000000000000000000000000000000000000000000DC0000000000DCDC00DC000000000000000000000000000000000000000000000000000000
310
00000000000000000000000000000000000000000000000000000000000000000000000000000000000000000000F50000F50000000000000000000000000000000000000000000000000000000000000000000000000000000000000000000000000000000000000000000000000000000000000000000000000000000000
310
00000000000000000000000000000000000000000000000000000000000000000000000000000000000000F50000000000000000000000000000000000000000000000000000000000000000000000000000000000000000000000F52D2D2D2DDCDC2D2DDCDCDC000000000000000000000000000000000000000000000000
310
000000000000000000000000000000000000000000000000000000000000000000000000000000000000000000000000F50000F5000000000000000000000000000000000000000000000000000000000000000000000000000000000000000000000000000000000000000000000000000000000000000000000000000000
310
000000000000000000000000000000000000000000000000000000000000000000000000000000000000000000F50000000000000000000000000000000000000000000000000000000000000000000000000000000000000000000000F52D2D2D2DDCDC2D2DDCDCDC00000000000000000000000000000000000000000000
310
0000000000000000000000000000000000000000000000000000000000000000000000000000000000000000000000000000F50000F500000000000000000000000000000000000000000000000000000000000000000000000000000000000000000000000000000000000000000000000000000000000000000000000000
310
0000000000000000000000000000000000000000000000000000000000000000000000000000000000000000000000F5000000000000000000000000000000000000000000000000000000000000000000000000000000000000000000000000002D0000DCDC2D0000DC000000000000000000000000000000000000000000
310
00000000000000000000000000000000000000000000000000000000000000000000000000000000000000000000000000000000F50000F50000000000000000000000000000000000000000000000000000000000000000000000000000000000000000000000000000000000000000000000000000000000000000000000
310
00000000000000000000000000000000000000000000000000000000000000000000000000000000000000000000000000F5000000000000000000000000000000000000000000000000000000000000000000000000000000000000000000000000002D0000DCDC2D00000000000000000000000000000000000000000000
310
000000000000000000000000000000000000000000000000000000000000000000000000000000000000000000000000000000000000F50000F5000000000000000000000000000000000000000000000000000000000000000000000000000000000000000000000000000000000000000000000000000000000000000000
310
000000000000000000000000000000000000000000000000000000000000000000000000000000000000000000000000000000F5000000000000000000000000000000000000000000000000000000000000000000000000000000000000000000000000002D0000002D000000000000000000000000000000000000000000
310
0000000000000000000000000000000000000000000000000000000000000000000000000000000000000000000000000000000000000000F50000F500000000000000000000000000000000000000000000000000000000000000000000000000000000000000000000000000000000000000000000000000000000000000
310
0000000000000000000000000000000000000000000000000000000000000000000000000000000000000000000000000000000000F5000000000000000000000000000000000000000000000000000000000000000000000000000000000000000000000000002D0000002D00000000000000000000000000000000000000
310
00000000000000000000000000000000000000000000000000000000000000000000000000000000000000000000000000000000000000000000F50000F50000000000000000000000000000000000000000000000000000000000000000000000000000000000000000000000000000000000000000000000000000000000
310
00000000000000000000000000000000000000000000000000000000000000000000000000000000000000000000000000000000000000F5000000000000000000000000000000000000000000000000000000000000000000000000000000000000000000000000002D002D2D000000000000000000000000000000000000
310
000000000000000000000000000000000000000000000000000000000000000000000000000000000000000000000000000000000000000000000000F50000F5000000000000000000000000000000000000000000000000000000000000000000000000000000000000000000000000000000000000000000000000000000
310
000000000000000000000000000000000000000000000000000000000000000000000000000000000000000000000000000000000000000000F5000000000000000000000000000000000000000000000000000000000000000000000000000000000000000000000000002D2D000000000000000000000000000000000000
310
0000000000000000000000000000000000000000000000000000000000000000000000000000000000000000000000000000000000000000000000000000F50000F500000000000000000000000000000000000000000000000000000000000000000000000000000000000000000000000000000000000000000000000000
310
0000000000000000000000000000000000000000000000000000000000000000000000000000000000000000000000000000000000000000000000F500000000000000000000000000000000000000000000000000000000000000000000000000000000000000000000000000000000000000000000000000000000000000
310
00000000000000000000000000000000000000000000000000000000000000000000000000000000000000000000000000000000000000000000000000000000F50000F50000000000000000000000000000000000000000000000000000000000000000000000000000000000000000000000000000000000000000000000
310
00000000000000000000000000000000000000000000000000000000000000000000000000000000000000000000000000000000000000000000000000F50000000000000000000000000000000000000000000000000000000000000000000000000000000000000000000000000000000000000000000000000000000000
310
000000000000000000000000000000000000000000000000000000000000000000000000000000000000000000000000000000000000000000000000000000000000F50000F5000000000000000000000000000000000000000000000000000000000000000000000000000000000000000000000000000000000000000000
310
000000000000000000000000000000000000000000000000000000000000000000000000000000000000000000000000000000000000000000000000000000F5000000000000000000000000000000000000000000000000000000000000000000000000000000000000000000000000000000000000000000000000000000
310
0000000000000000000000000000000000000000000000000000000000000000000000000000000000000000000000000000000000000000000000000000000000000000F50000F500000000000000000000000000000000000000000000000000000000000000000000000000000000000000000000000000000000000000
310
0000000000000000000000000000000000000000000000000000000000000000000000000000000000000000000000000000000000000000000000000000000000F500000000000000000000000000000000000000000000000000000000000000000000000000000000000000000000000000000000000000000000000000
310
00000000000000000000000000000000000000000000000000000000000000000000000000000000000000000000000000000000000000000000000000000000000000000000F50000F50000000000000000000000000000000000000000000000000000000000000000000000000000000000000000000000000000000000
310
00000000000000000000000000000000000000000000000000000000000000000000000000000000000000000000000000000000000000000000000000000000000000F50000000000000000000000000000000000000000000000000000000000000000000000000000000000000000000000000000000000000000000000
310
000000000000000000000000000000000000000000000000000000000000000000000000000000000000000000000000000000000000000000000000000000000000000000000000F50000F5000000000000000000000000000000000000000000000000000000000000000000000000000000000000000000000000000000
310
000000000000000000000000000000000000000000000000000000000000000000000000000000000000000000000000000000000000000000000000000000000000000000F5000000000000000000000000000000000000000000000000000000000000000000000000000000000000000000000000000000000000000000
310
0000000000000000000000000000000000000000000000000000000000000000000000000000000000000000000000000000000000000000000000000000000000000000000000000000F50000F500000000000000000000000000000000000000000000000000000000000000000000000000000000000000000000000000
310
0000000000000000000000000000000000000000000000000000000000000000000000000000000000000000000000000000000000000000000000000000000000000000000000F500000000000000000000000000000000000000000000000000000000000000000000000000000000000000000000000000000000000000
310
00000000000000000000000000000000000000000000000000000000000000000000000000000000000000000000000000000000000000000000000000000000000000000000000000000000F50000F50000000000000000000000000000000000000000000000000000000000000000000000000000000000000000000000
310
00000000000000000000000000000000000000000000000000000000000000000000000000000000000000000000000000000000000000000000000000000000000000000000000000F50000000000000000000000000000000000000000000000000000000000000000000000000000000000000000000000000000000000
310
000000000000000000000000000000000000000000000000000000000000000000000000000000000000000000000000000000000000000000000000000000000000000000000000000000000000F50000F5000000000000000000000000000000000000000000000000000000000000000000000000000000000000000000
310
000000000000000000000000000000000000000000000000000000000000000000000000000000000000000000000000000000000000000000000000000000000000000000000000000000F5000000000000000000000000000000000000000000000000000000000000000000000000000000000000000000000000DCDCDC
310
DCDCDCDCDC000000000000000000000000000000000000000000000000000000000000000000000000000000000000000000000000000000000000000000000000000000000000000000000000000000F50000F500000000000000000000000000000000000000000000000000000000000000000000000000000000000000
310
0000000000000000000000000000000000000000000000000000000000000000000000000000000000000000000000000000000000000000000000000000000000000000000000000000000000F5000000000000000000000000000000000000000000000000000000000000000000000000000000000000000000000000DC
310
DCDCDCDCDCDCDC000000000000000000000000000000000000000000000000000000000000000000000000000000000000000000000000000000000000000000000000000000000000000000000000000000F50000F50000000000000000000000000000000000000000000000000000000000000000000000000000000000
310
00000000000000000000000000000000000000000000000000000000000000000000000000000000000000000000000000000000000000000000000000000000000000000000000000000000000000F50000000000000000000000000000000000000000000000000000000000000000000000000000000000000000000000
310
DCDCDCDCDCDCDCDCDCDC0000000000000000000000000000000000000000000000000000000000000000000000000000000000000000000000000000000000000000000000000000000000000000000000000000F50000F5000000000000000000000000000000000000000000000000000000000000000000000000000000
310
000000000000000000000000000000000000000000000000000000000000000000000000000000000000000000000000000000000000000000000000000000000000000000000000000000000000000000F5000000000000000000000000000000000000000000000000000000000000000000000000000000000000000000
310
0000DCDC00DCDCDCDC00DCDC0000000000000000000000000000000000DCDCDC000000000000000000000000000000000000000000000000000000000000000000000000000000000000000000000000000000000000F50000F500000000000000000000000000000000000000000000000000000000000000000000000000
310
0000000000000000000000000000000000000000000000000000000000000000000000000000000000000000000000000000000000000000000000000000000000000000000000000000000000000000000000F500000000000000000000000000000000000000000000000000000000000000000000000000000000000000
310
0000000000DCDC000000DCDCDC00000000000000000000000000000000DCDCDCDCDC000000000000000000000000000000000000000000000000000000000000000000000000000000000000000000000000000000000000F50000F50000000000000000000000000000000000000000000000000000000000000000000000
310
00000000000000000000000000000000000000000000000000000000000000000000000000000000000000000000000000000000000000000000000000000000000000000000000000000000000000000000000000F50000000000000000000000000000000000000000000000000000000000000000000000000000000000
310
00000000000000DCDC000000DCDCDC00000000000000000000000000000000DCDCDCDCDC000000000000DC0000000000000000000000000000000000000000000000000000000000000000000000000000000000000000000000F50000F5000000000000000000000000000000000000000000000000000000000000000000
310
000000000000000000000000000000000000000000000000000000000000000000000000000000000000000000000000000000000000000000000000000000000000000000000000000000000000000000000000000000F5000000000000000000000000000000000000000000000000000000000000000000000000000000
310
0000000000000000002D2D2D2D2D2D2D2DDCDC000000000000000000000000000000002DF5DCDCDCDCDCDCDCDC0000000000000000000000000000000000000000000000000000000000000000000000000000000000000000000000F50000F500000000000000000000000000000000000000000000000000000000000000
310
0000000000000000000000000000000000000000000000000000000000000000000000000000000000000000000000000000000000000000000000000000000000000000000000000000000000000000000000000000000000F500000000000000000000000000000000000000000000000000000000000000000000000000
310
00000000000000000000002D2D2D2D2D2D2D2DDCDCDCDC00000000000000000000000000002D2DDCDCDCDCDCDCDCDCDC00000000000000000000000000000000000000000000000000000000000000000000000000000000000000000000F50000F50000000000000000000000000000000000000000000000000000000000
310
00000000000000000000000000000000000000000000000000000000000000000000000000000000000000000000000000000000000000000000000000000000000000000000000000000000000000000000000000000000000000F50000000000000000000000000000000000000000000000000000000000000000000000
310
000000000000000000000000002D2D0000002D2D2D00DCDCDC00000000000000000000000000002D2D0FDC00DC00DC00DC0000000000000000000000000000000000000000000000000000000000000000000000000000000000000000000000F50000F5000000000000000000000000000000000000000000000000000000
310
000000000000000000000000000000000000000000000000000000000000000000000000000000000000000000000000000000000000000000000000000000000000000000000000000000000000000000000000000000000000000000F5000000000000000000000000000000000000000000000000000000000000000000
310
0000000000000000000000000000002D2D0000002D2D2D00DCDCDC00000000000000000000000000002D2D0F0000DC00DC00DC0000000000000000000000000000000000000000000000000000000000000000000000000000000000000000000000F50000F500000000000000000000000000000000000000000000000000
310
0000000000000000000000000000000000000000000000000000000000000000000000000000000000000000000000000000000000000000000000000000000000000000000000000000000000000000000000000000000000000000000000F500000000000000000000000000000000000000000000000000000000000000
310
00000000000000000000000000000000002D2D2D002D002D2DDCDCDCDC00000000000000000000000000002D2D0F0000DC00DC00DC0000000000000000000000000000000000000000000000000000000000000000000000000000000000000000000000F50000F50000000000000000000000000000000000000000000000
310
00000000000000000000000000000000000000000000000000000000000000000000000000000000000000000000000000000000000000000000000000000000000000000000000000000000000000000000000000000000000000000000000000F50000000000000000000000000000000000000000000000000000000000
310
000000000000000000000000000000000000002D2D2D002D002D2DDCDCDCDC00000000000000000000000000002D2D0F0000DC00DC00DC0000000000000000000000000000000000000000000000000000000000000000000000000000000000000000000000F50000F5000000000000000000000000000000000000000000
310
000000000000000000000000000000000000000000000000000000000000000000000000000000000000000000000000000000000000000000000000000000000000000000000000000000000000000000000000000000000000000000000000000000F5000000000000000000000000000000000000000000000000000000
310
0000000000000000000000000000000000000000002D2D002D00002D2DDCDCDCDC0000000000000000000000000000DCDC0F0000DC00DC00DC0000000000000000000000000000000000000000000000000000000000000000000000000000000000000000000000F50000F500000000000000000000000000000000000000
310
0000000000000000000000000000000000000000000000000000000000000000000000000000000000000000000000000000000000000000000000000000000000000000000000000000000000000000000000000000000000000000000000000000000000F500000000000000000000000000000000000000000000000000
310
00000000000000000000000000000000000000000000002D2D002D00002D2DDCDCDCDC00000000000000000000000000DCDCDC0F0000DC00DC00DC0000000000000000000000000000000000000000000000000000000000000000000000000000000000000000000000F50000F50000000000000000000000000000000000
310
00000000000000000000000000000000000000000000000000000000000000000000000000000000000000000000000000000000000000000000000000000000000000000000000000000000000000000000000000000000000000000000000000000000000000F50000000000000000000000000000000000000000000000
310
000000000000000000000000000000000000000000000000002D2D00002D002D2DDCDCDCDC00000000000000000000000000DCDC2D0F0000DC00DC00DC0000000000000000000000000000000000000000000000000000000000000000000000000000000000000000000000F50000F5000000000000000000000000000000
310
000000000000000000000000000000000000000000000000000000000000000000000000000000000000000000000000000000000000000000000000000000000000000000000000000000000000000000000000000000000000000000000000000000000000000000F5000000000000000000000000000000000000000000
310
0000000000000000000000000000000000000000000000000000002D2D00002D002D2DDCDCDCDC00000000000000000000000000002D2D0F0000DC00DC00DC0000000000000000000000000000000000000000000000000000000000000000000000000000000000000000000000F50000F500000000000000000000000000
310
0000000000000000000000000000000000000000000000000000000000000000000000000000000000000000000000000000000000000000000000000000000000000000000000000000000000000000000000000000000000000000000000000000000000000000000000F500000000000000000000000000000000000000
310
00000000000000000000000000000000000000000000000000000000002D2D0000002D2D2D00DCDCDC00000000000000000000000000002D2D0F0000DC00DC00DC0000000000000000000000000000000000000000000000000000000000000000000000000000000000000000000000F50000F50000000000000000000000
310
00000000000000000000000000000000000000000000000000000000000000000000000000000000000000000000000000000000000000000000000000000000000000000000000000000000000000000000000000000000000000000000000000000000000000000000000000F50000000000000000000000000000000000
310
000000000000000000000000000000000000000000000000000000000000002D2D2D2D2D2D2D2DDCDCDCDC00000000000000000000000000002D2D0FDC00DCDCDCDCDCDC00000000000000000000000000000000000000000000000000000000000000000000000000000000000000000000F50000F5000000000000000000
310
000000000000000000000000000000000000000000000000000000000000000000000000000000000000000000000000000000000000000000000000000000000000000000000000000000000000000000000000000000000000000000000000000000000000000000000000000000F5000000000000000000000000000000
310
0000000000000000000000000000000000000000000000000000000000000000002D2D2D2D2D2D2D2DDCDCDCDC00000000000000000000000000002D2DDCDCDCDCDCDCDCDC0000000000000000000000000000000000000000000000000000000000000000000000000000000000000000000000F50000F500000000000000
310
0000000000000000000000000000000000000000000000000000000000000000000000000000000000000000000000000000000000000000000000000000000000000000000000000000000000000000000000000000000000000000000000000000000000000000000000000000000000F500000000000000000000000000
310
00000000000000000000000000000000000000000000000000000000000000000000000000000000000000DCDC00000000000000000000000000000000F50FDCDCDCDCDCDCDCDC0000000000000000000000000000000000000000000000000000000000000000000000000000000000000000000000F50000F50000000000
310
00000000000000000000000000000000000000000000000000000000000000000000000000000000000000000000000000000000000000000000000000000000000000000000000000000000000000000000000000000000000000000000000000000000000000000000000000000000000000F50000000000000000000000
310
000000000000000000000000000000000000000000000000000000000000000000000000000000000000000000000000000000000000000000000000000000000000000000000000DC0000000000000000000000000000000000000000000000000000000000000000000000000000000000000000000000F50000F5000000
310
000000000000000000000000000000000000000000000000000000000000000000000000000000000000000000000000000000000000000000000000000000000000000000000000000000000000000000000000000000000000000000000000000000000000000000000000000000000000000000F5000000000000000000
310
0000000000000000000000000000000000000000000000000000000000000000000000000000000000000000000000000000000000000000000000000000000000000000000000000000000000000000000000000000000000000000000000000000000000000000000000000000000000000000000000000000F50000F500
310
0000000000000000000000000000000000000000000000000000000000000000000000000000000000000000000000000000000000000000000000000000000000000000000000000000000000000000000000000000000000000000000000000000000000000000000000000000000000000000000000F500000000000000
310
00000000000000000000000000000000000000000000000000000000000000000000000000000000000000000000000000000000000000000000000000000000000000000000000000000000000000000000000000000000000000000000000000000000000000000000000000000000000000000000000000000000F50000
310
F5000000000000000000000000000000000000000000000000000000000000000000000000000000000000000000000000000000000000000000000000000000000000000000000000000000000000000000000000000000000000000000000000000000000000000000000000000000000000000000000000F50000000000
310
000000000000000000000000000000000000000000000000000000000000000000000000000000000000000000000000000000000000000000000000000000000000000000000000000000000000000000000000000000000000000000000000000000000000000000000000000000000000000000000000000000000000F5
310
0000F5000000000000000000000000000000000000000000000000000000000000000000000000000000000000000000000000000000000000000000000000000000000000000000000000000000000000000000000000000000000000000000000000000000000000000000000000000000000000000000000000F5000000
310
00000000000000000000000000000000000000000000000000000000000000000000000000000000000000000000000000000000000000000000000000000000000000000000000000000000000000000000000000000000000000000000000000000000000000000000000000000000000000000000000000000000000000
310
00F50000F5000000000000000000000000000000000000000000000000000000000000000000000000000000000000000000000000000000000000000000000000000000000000000000000000000000000000000000000000000000000000000000000000000000000000000000000000000000000000000000000000F500
310
00000000000000000000000000000000000000000000000000000000000000000000000000000000000000000000000000000000000000000000000000000000000000000000000000000000000000000000000000000000000000000000000000000000000000000000000000000000000000000000000000000000000000
310
000000F50000F5000000000000000000000000000000000000000000000000000000000000000000000000000000000000000000000000000000000000000000000000000000000000000000000000000000000000000000000000000000000000000000000000000000000000000000000000000000000000000000000000
310
F5000000000000000000000000000000000000000000000000000000000000000000000000000000000000000000000000000000000000000000000000000000000000000000000000000000000000000000000000000000000000000000000000000000000000000000000000000000000000000000000000000000000000
310
0000000000F50000F500000000000000000000000000000000000000000000000000000000000000000000000000000000000000000000000000000000000000000000000000000000000000000000000000000000000000000000000000000000000000000000000000000000000000000000000000000000000000000000
310
0000F500000000000000000000000000000000000000000000000000000000000000000000000000000000000000000000000000000000000000000000000000000000000000000000000000000000000000000000000000000000000000000000000000000000000000000000000000000000000000000000000000000000
310
00000000000000F50000F50000000000000000000000000000000000000000000000000000000000000000000000000000000000000000000000000000000000000000000000000000000000000000000000000000000000000000000000000000000000000000000000000000000000000000000000000000000000000000
310
00000000F50000000000000000000000000000000000000000000000000000000000000000000000000000000000000000000000000000000000000000000000000000000000000000000000000000000000000000000000000000000000000000000000000000000000000000000000000000000000000000000000000000
310
000000000000000000F50000F5000000000000000000000000000000000000000000000000000000000000000000000000000000000000000000000000000000000000000000000000000000000000000000000000000000000000000000000000000000000000000000000000000000000000000000000000000000000000
310
000000000000F5000000000000000000000000000000000000000000000000000000000000000000000000000000000000000000000000000000000000000000000000000000000000000000000000000000000000000000000000000000000000000000000000000000000000000000000000000000000000000000000000
310
0000000000000000000000F50000F500000000000000000000000000000000000000000000000000000000000000000000000000000000000000000000000000000000000000000000000000000000000000000000000000000000000000000000000000000000000000000000000000000000000000000000000000000000
310
0000000000000000F500000000000000000000000000000000000000000000000000000000000000000000000000000000000000000000000000000000000000000000000000000000000000000000000000000000000000000000000000000000000000000000000000000000000000000000000000000000000000000000
310
00000000000000000000000000F50000F50000000000000000000000000000000000000000000000000000000000000000000000000000000000000000000000000000000000000000000000000000000000000000000000000000000000000000000000000000000000000000000000000000000000000000000000000000
310
00000000000000000000F50000000000000000000000000000000000000000000000000000000000000000000000000000000000000000000000000000000000000000000000000000000000000000000000000000000000000000000000000000000000000000000000000000000000000000000000000000000000000000
310
000000000000000000000000000000F50000F5000000000000000000000000000000000000000000000000000000000000000000000000000000000000000000000000000000000000000000000000000000000000000000000000000000000000000000000000000000000000000000000000000000000000000000000000
310
000000000000000000000000F5000000000000000000000000000000000000000000000000000000000000000000000000000000000000000000000000000000000000000000000000000000000000000000000000000000000000000000000000000000000000000000000000000000000000000000000000000000000000
310
0000000000000000000000000000000000F50000F500000000000000000000000000000000000000000000000000000000000000000000000000000000000000000000000000000000000000000000000000000000000000000000000000000000000000000000000000000000000000000000000000000000000000000000
310
0000000000000000000000000000F500000000000000000000000000000000000000000000000000000000000000000000000000000000000000000000000000000000000000000000000000000000000000000000000000000000000000000000000000000000000000000000000000000000000000000000000000000000
310
00000000000000000000000000000000000000F50000F50000000000000000000000000000000000000000000000000000000000000000000000000000000000000000000000000000000000000000000000000000000000000000000000000000000000000000000000000000000000000000000000000000000000000000
310
00000000000000000000000000000000F50000000000000000000000000000000000000000000000000000000000000000000000000000000000000000000000000000000000000000000000000000000000000000000000000000000000000000000000000000000000000000000000000000000000000000000000000000
310
000000000000000000000000000000000000000000F50000F5000000000000000000000000000000000000000000000000000000000000000000000000000000000000000000000000000000000000000000000000000000000000000000000000000000000000000000000000000000000000000000000000000000000000
310
000000000000000000000000000000000000F5000000000000000000000000000000000000000000000000000000000000000000000000000000000000000000000000000000000000000000000000000000000000000000000000000000000000000000000000000000000000000000000000000000000000000000000000
310
0000000000000000000000000000000000000000000000F50000F500000000000000000000000000000000000000000000000000000000000000000000000000000000000000000000000000000000000000000000000000000000000000000000000000000000000000000000000000000000000000000000000000000000
310
0000000000000000000000000000000000000000F500000000000000000000000000000000000000000000000000000000000000000000000000000000000000000000000000000000000000000000000000000000000000000000000000000000000000000000000000000000000000000000000000000000000000000000
310
00000000000000000000000000000000000000000000000000F50000F50000000000000000000000000000000000000000000000000000000000000000000000000000000000000000000000000000000000000000000000000000000000000000000000000000000000000000000000000000000000000000000000000000
310
00000000000000000000000000000000000000000000F50000000000000000000000000000000000000000000000000000000000000000000000000000000000000000000000000000000000000000000000000000000000000000000000000000000000000000000000000000000000000000000000000000000000000000
310
000000000000000000000000000000000000000000000000000000F50000F5000000000000000000000000000000000000000000000000000000000000000000000000000000000000000000000000000000000000000000000000000000000000000000000000000000000000000000000000000000000000000000000000
310
000000000000000000000000000000000000000000000000F5000000000000000000000000000000000000000000000000000000000000000000000000000000000000000000000000000000000000000000000000000000000000000000000000000000000000000000000000000000000000000000000000000000000000
310
0000000000000000000000000000000000000000000000000000000000F50000F500000000000000000000000000000000000000000000000000000000000000000000000000000000000000000000000000000000000000000000000000000000000000000000000000000000000000000000000000000000000000000000
310
0000000000000000000000000000000000000000000000000000F500000000000000000000000000000000000000000000000000000000000000000000000000000000000000000000000000000000000000000000000000000000000000000000000000000000000000000000000000000000000000000000000000000000
310
00000000000000000000000000000000000000000000000000000000000000F50000F50000000000000000000000000000000000000000000000000000000000000000000000000000000000000000000000000000000000000000000000000000000000000000000000000000000000000000000000000000000000000000
310
00000000000000000000000000000000000000000000000000000000F50000000000000000000000000000000000000000000000000000000000000000000000000000000000000000000000000000000000000000000000000000000000000000000000000000000000000000000000000000000000000000000000000000
310
000000000000000000000000000000000000000000000000000000000000000000F50000F5000000000000000000000000000000000000000000000000000000000000000000000000000000000000000000000000000000000000000000000000000000000000000000000000000000000000000000000000000000000000
310
000000000000000000000000000000000000000000000000000000000000F5000000000000000000000000000000000000000000000000000000000000000000000000000000000000000000000000000000000000000000000000000000000000000000000000000000000000000000000000000000000000000000000000
310
0000000000000000000000000000000000000000000000000000000000000000000000F50000F500000000000000000000000000000000000000000000000000000000000000000000000000000000000000000000000000000000000000000000000000000000000000000000000000000000000000000000000000000000
310
0000000000000000000000000000000000000000000000000000000000000000F500000000000000000000000000000000000000000000000000000000000000000000000000000000000000000000000000000000000000000000000000000000000000000000000000000000000000000000000000000000000000000000
310
00000000000000000000000000000000000000000000000000000000000000000000000000F50000F50000000000000000000000000000000000000000000000000000000000000000000000000000000000000000000000000000000000000000000000000000000000000000000000000000000000000000000000000000
310
00000000000000000000000000000000000000000000000000000000000000000000F50000000000000000000000000000000000000000000000000000000000000000000000000000000000000000000000000000000000000000000000000000000000000000000000000000000000000000000000000000000000000000
310
000000000000000000000000000000000000000000000000000000000000000000000000000000F50000F5000000000000000000000000000000000000000000000000000000000000000000000000000000000000000000000000000000000000000000000000000000000000000000000000000000000000000000000000
310
000000000000000000000000000000000000000000000000000000000000000000000000F5F5F5F5F5F5F5F5F5F5F5F5F5F5F5F5F5F5F5F5F5F5F5F5F5F5F5F5F5F5F5F5F5F5F5F5F5F5F5F5F5F5F5F5F5F5F5F5F5F5F5F5F5F5F5F5F5F5F5F5F5F5F5F5F5F5F5F5F5F5F5F5F5F5F5F5F5F5F5F5F5F5F5F5F5F5F5F5F5F5F5
310
F5F5F5F5F5F5F5F5F5F5F5F5F5F5F5F5F5F5F5F5F5F5F5F5F5F5F5F5F5F5F5F5F5F5F5F5F5F5F5F5F5F50000F500000000000000000000000000000000000000000000000000000000000000000000000000000000000000000000000000000000000000000000000000000000000000000000000000000000000000000000
310
0000000000000000000000000000000000000000000000000000000000000000000000000000F5F5F5F5F5F5F5F5F5F5F5F5F5F5000000000000000000000000000000000000000000000000000000000000000000000000000000000000000000000000000000000000000000000000000000000000000000000000000000
310
00000000000000000000000000000000000000000000000000000000000000000000000000000000000000F50000F50000000000000000000000000000000000000000000000000000000000000000000000000000000000000000000000000000000000000000000000000000000000000000000000000000000000000000
310
00000000000000000000000000000000000000000000000000000000000000000000000000000000F5F5F5F5F5F5F5F5F5F5F5F5F5F5F5F5F5F5F5F5F5F5F5F5F5F5F5F5F5F5F5F5F5F5F5F5F5F5F5F5F5F5F5F5F5F5F5F5F5F5F5F5F5F5F5F5F5F5F5F5F5F5F5F5F5F5F5F5F5F5F5F5F5F5F5F5F5F5F5F5F5F5F5F5F5F5F5
310
F5F5F5F5F5F5F5F5F5F5F5F5F5F5F5F5F5F5F5F5F5F5F5F5F5F5F5F5F5F5F5F5F5F5F5F5F5F5F5F5F5F5F5F5F5F50000F5000000000000000000000000000000000000000000000000000000000000000000000000000000000000000000000000000000000000000000000000000000000000000000000000000000000000
310
000000000000000000000000000000000000000000000000000000000000000000000000000000000000F5F5F5F5F5F5F5F5F5F5F5F5F5F5F5F5F5F5F5F5F5F5F5F500F5F5F5F5F5F5F5F5F5F5F5F5F5F5F5F5F5F5000000000000000000000000000000000000000000000000000000000000000000000000000000000000
310
0000000000000000000000000000000000000000000000000000000000000000000000000000000000000000000000F50000F500000000000000000000000000000000000000000000000000000000000000000000000000000000000000000000000000000000000000000000000000000000000000000000000000000000
310
0000000000000000000000000000000000000000000000000000000000000000000000000000000000000000F5F5F5F5F5F5F5F5F5F5F5F5F5F5F5F5F5F5F5F5F5F5F5F5F5F5F5F5F5F5F5F5F5F5F5F5F5F5F5F5F5F5F5F5F5F5F5F5F5F5F5F5F5F5F5F5F5F5F5F5F5F5F5F5F5F5F5F5F5F5F5F5F5F5F5F5F5F5F5F5F5F5F5
310
F5F5F5F5F5F5F5F5F5F5F5F5F5F5F5F5F5F5F5F5F5F5F5F5F5F5F5F5F5F5F5F5F5F5F5F5F5F5F5F5F5F5F5F5F5F5F5F5F5F50000F50000000000000000000000000000000000000000000000000000000000000000000000000000000000000000000000000000000000000000000000000000000000000000000000000000
310
00000000000000000000000000000000000000000000000000000000000000000000000000000000000000000000F50000F5F5F5F5F5F5F5F5F5F500F5F5F5F5F5F5F5F5F5F5F5F5F500F5F5F5F5F500F5F5F5F5F5000000000000000000000000000000000000000000000000000000000000000000000000000000000000
310
000000F5F5F5F5F5F5F5F5F5F5F5F5F5F5F5F5F5F5F5F5F5F5F5F5F5F5F5F5F5F5F5F5F5F5F5F5F5F5F5F5F5F5F5F5F5F5F5F5F50000F5000000000000000000000000000000000000000000000000000000000000000000000000000000000000000000000000000000000000000000000000000000000000000000000000
310
000000000000000000000000000000000000000000000000000000000000000000000000000000000000000000000000F5F5F5F5F5F5F5F5F5F5F5F5F5F5F5F5F5F5F5F5F5F5F5F5F5F5F5F5F5F5F5F5F5F5F5F5F5F5F5F5F5F5F5F5F5F5F5F5F5F5F5F5F5F5F5F5F5F5F5F5F5F5F5F5F5F5F5F5F5F5F5F5F5F5F5F5F5F5F5
310
F5F5F5F5F5F5F5F5F5F5F5F5F5F5F5F5F5F5F5F5F5F5F5F5F5F5F5F5F5F5F5F5F5F5F5F5F5F5F5F5F5F5F5F5F5F5F5F5F5F5F5F5F5F5F5F5F500000000000000000000000000000000000000000000000000000000000000000000000000000000000000000000000000000000000000000000000000000000000000000000
310
00000000000000000000000000000000000000000000000000000000000000000000000000000000000000000000000000000000000000000000000000000000000000000000000000000000000000000000000000000000000000000000000000000000000000000000000000000000000000000000000000000000000000
310
0000000000000000000000000000000000000000000000000000000000000000000000000000000000000000000000000000000000000000000000000000000000000000000000000000000000000000000000000000000000000000000000000000000000000000000000000000000000000000000000
  0
XRECORD
  5
1742
102
{ACAD_REACTORS
330
53
102
}
330
53
100
AcDbXrecord
280
     1
102
MATERIAL
148
0.0
149
0.0
149
0.0
 93
        0
 94
      127
282
     0
 72
     0
 77
     0
171
     0
175
     0
179
     0
273
     0
  0
XRECORD
  5
55
102
{ACAD_REACTORS
330
53
102
}
330
53
100
AcDbXrecord
280
     1
270
     1
271
     1
  0
XRECORD
  5
54
102
{ACAD_REACTORS
330
53
102
}
330
53
100
AcDbXrecord
280
     1
270
     1
271
     1
  0
XRECORD
  5
58
102
{ACAD_REACTORS
330
53
102
}
330
53
100
AcDbXrecord
280
     1
270
     1
271
     1
  0
XRECORD
  5
57
102
{ACAD_REACTORS
330
53
102
}
330
53
100
AcDbXrecord
280
     1
270
     1
271
     1
  0
XRECORD
  5
59
102
{ACAD_REACTORS
330
53
102
}
330
53
100
AcDbXrecord
280
     1
270
     1
271
     1
  0
XRECORD
  5
56
102
{ACAD_REACTORS
330
53
102
}
330
53
100
AcDbXrecord
280
     1
270
     1
271
     1
  0
XRECORD
  5
1741
102
{ACAD_REACTORS
330
4B
102
}
330
4B
100
AcDbXrecord
280
     1
102
MATERIAL
148
0.0
149
0.0
149
0.0
 93
        0
 94
      127
282
     0
 72
     0
 77
     0
171
     0
175
     0
179
     0
273
     0
  0
XRECORD
  5
4D
102
{ACAD_REACTORS
330
4B
102
}
330
4B
100
AcDbXrecord
280
     1
270
     1
271
     1
  0
XRECORD
  5
4C
102
{ACAD_REACTORS
330
4B
102
}
330
4B
100
AcDbXrecord
280
     1
270
     1
271
     1
  0
XRECORD
  5
50
102
{ACAD_REACTORS
330
4B
102
}
330
4B
100
AcDbXrecord
280
     1
270
     1
271
     1
  0
XRECORD
  5
4F
102
{ACAD_REACTORS
330
4B
102
}
330
4B
100
AcDbXrecord
280
     1
270
     1
271
     1
  0
XRECORD
  5
51
102
{ACAD_REACTORS
330
4B
102
}
330
4B
100
AcDbXrecord
280
     1
270
     1
271
     1
  0
XRECORD
  5
4E
102
{ACAD_REACTORS
330
4B
102
}
330
4B
100
AcDbXrecord
280
     1
270
     1
271
     1
  0
XRECORD
  5
1743
102
{ACAD_REACTORS
330
5B
102
}
330
5B
100
AcDbXrecord
280
     1
102
MATERIAL
148
0.0
149
0.0
149
0.0
 93
        0
 94
      127
282
     0
 72
     0
 77
     0
171
     0
175
     0
179
     0
273
     0
  0
XRECORD
  5
5D
102
{ACAD_REACTORS
330
5B
102
}
330
5B
100
AcDbXrecord
280
     1
270
     1
271
     1
  0
XRECORD
  5
5C
102
{ACAD_REACTORS
330
5B
102
}
330
5B
100
AcDbXrecord
280
     1
270
     1
271
     1
  0
XRECORD
  5
60
102
{ACAD_REACTORS
330
5B
102
}
330
5B
100
AcDbXrecord
280
     1
270
     1
271
     1
  0
XRECORD
  5
5F
102
{ACAD_REACTORS
330
5B
102
}
330
5B
100
AcDbXrecord
280
     1
270
     1
271
     1
  0
XRECORD
  5
61
102
{ACAD_REACTORS
330
5B
102
}
330
5B
100
AcDbXrecord
280
     1
270
     1
271
     1
  0
XRECORD
  5
5E
102
{ACAD_REACTORS
330
5B
102
}
330
5B
100
AcDbXrecord
280
     1
270
     1
271
     1
  0
XRECORD
  5
1776
102
{ACAD_REACTORS
330
1775
102
}
330
1775
100
AcDbXrecord
280
     1
102
ACAD_ROUNDTRIP_2012_MLEADER_STYLE
298
     1
  0
XRECORD
  5
1778
102
{ACAD_REACTORS
330
1777
102
}
330
1777
100
AcDbXrecord
280
     1
102
DISPLAYNAME
  1
Imperial24
102
FLAGS
 90
        0
  0
XRECORD
  5
177C
102
{ACAD_REACTORS
330
177B
102
}
330
177B
100
AcDbXrecord
280
     1
102
DISPLAYNAME
  1
Metric50
102
FLAGS
 90
        0
  0
CELLSTYLEMAP
  5
173F
102
{ACAD_REACTORS
330
6FA
102
}
330
6FA
100
AcDbCellStyleMap
 90
        3
300
CELLSTYLE
  1
TABLEFORMAT_BEGIN
 90
        5
170
     1
 91
        0
 92
    32768
 62
   257
 93
        1
300
CONTENTFORMAT
  1
CONTENTFORMAT_BEGIN
 90
        0
 91
        0
 92
      512
 93
        0
300

 40
0.0
140
1.0
 94
        5
 62
     0
340
10
144
0.25
309
CONTENTFORMAT_END
171
     0
 94
        0
309
TABLEFORMAT_END
  1
CELLSTYLE_BEGIN
 90
        1
 91
        1
300
_TITLE
309
CELLSTYLE_END
300
CELLSTYLE
  1
TABLEFORMAT_BEGIN
 90
        5
170
     1
 91
        0
 92
        0
 62
   257
 93
        1
300
CONTENTFORMAT
  1
CONTENTFORMAT_BEGIN
 90
        0
 91
        0
 92
      512
 93
        0
300

 40
0.0
140
1.0
 94
        5
 62
     0
340
10
144
0.18
309
CONTENTFORMAT_END
171
     0
 94
        0
309
TABLEFORMAT_END
  1
CELLSTYLE_BEGIN
 90
        2
 91
        1
300
_HEADER
309
CELLSTYLE_END
300
CELLSTYLE
  1
TABLEFORMAT_BEGIN
 90
        5
170
     1
 91
        0
 92
        0
 62
   257
 93
        1
300
CONTENTFORMAT
  1
CONTENTFORMAT_BEGIN
 90
        0
 91
        0
 92
      512
 93
        0
300

 40
0.0
140
1.0
 94
        2
 62
     0
340
10
144
0.18
309
CONTENTFORMAT_END
171
     0
 94
        0
309
TABLEFORMAT_END
  1
CELLSTYLE_BEGIN
 90
        3
 91
        2
300
_DATA
309
CELLSTYLE_END
  0
XRECORD
  5
1774
102
{ACAD_REACTORS
330
6FA
102
}
330
6FA
100
AcDbXrecord
280
     1
102
ACAD_ROUNDTRIP_PRE2007_TABLESTYLE
 90
      512
 91
        0
  1

 92
      512
 93
        0
  2

 94
      512
 95
        0
  3

  0
XRECORD
  5
174F
102
{ACAD_REACTORS
330
174E
102
}
330
174E
100
AcDbXrecord
280
     1
102
RTVSPost2010Prop28
280
     1
102
RTVSPost2010PropOp28
 70
     1
102
RTVSPost2010Prop29
280
     1
102
RTVSPost2010PropOp29
 70
     1
102
RTVSPost2010Prop30
280
     0
102
RTVSPost2010PropOp30
 70
     1
102
RTVSPost2010Prop31
280
     0
102
RTVSPost2010PropOp31
 70
     1
102
RTVSPost2010Prop32
280
     0
102
RTVSPost2010PropOp32
 70
     1
102
RTVSPost2010Prop33
280
     0
102
RTVSPost2010PropOp33
 70
     1
102
RTVSPost2010Prop34
280
     0
102
RTVSPost2010PropOp34
 70
     1
102
RTVSPost2010Prop35
280
     0
102
RTVSPost2010PropOp35
 70
     1
102
RTVSPost2010Prop36
280
     0
102
RTVSPost2010PropOp36
 70
     1
102
RTVSPost2010Prop37
 90
       50
102
RTVSPost2010PropOp37
 70
     1
102
RTVSPost2010Prop38
140
0.0
102
RTVSPost2010PropOp38
 70
     1
102
RTVSPost2010Prop39
140
1.0
102
RTVSPost2010PropOp39
 70
     1
102
RTVSPost2010Prop40
 90
        0
102
RTVSPost2010PropOp40
 70
     1
102
RTVSPost2010Prop41ColorIndex
 90
       18
102
RTVSPost2010Prop41ColorRGB
 90
        0
102
RTVSPost2010PropOp41
 70
     1
102
RTVSPost2010Prop42
 90
       50
102
RTVSPost2010PropOp42
 70
     1
102
RTVSPost2010Prop43
 90
        3
102
RTVSPost2010PropOp43
 70
     1
102
RTVSPost2010Prop44ColorIndex
 90
        5
102
RTVSPost2010Prop44ColorRGB
 90
      255
102
RTVSPost2010PropOp44
 70
     1
102
RTVSPost2010Prop45
280
     0
102
RTVSPost2010PropOp45
 70
     1
102
RTVSPost2010Prop46
 90
       50
102
RTVSPost2010PropOp46
 70
     1
102
RTVSPost2010Prop47
 90
       50
102
RTVSPost2010PropOp47
 70
     1
102
RTVSPost2010Prop48
 90
       50
102
RTVSPost2010PropOp48
 70
     1
102
RTVSPost2010Prop49
280
     0
102
RTVSPost2010PropOp49
 70
     1
102
RTVSPost2010Prop50
 90
       50
102
RTVSPost2010PropOp50
 70
     1
102
RTVSPost2010Prop51ColorIndex
 90
      256
102
RTVSPost2010Prop51ColorRGB
 90
-16777216
102
RTVSPost2010PropOp51
 70
     0
102
RTVSPost2010Prop52
140
1.0
102
RTVSPost2010PropOp52
 70
     0
102
RTVSPost2010Prop53
 90
        2
102
RTVSPost2010PropOp53
 70
     1
102
RTVSPost2010Prop54
  1
strokes_ogs.tif
102
RTVSPost2010PropOp54
 70
     1
102
RTVSPost2010Prop55
280
     0
102
RTVSPost2010PropOp55
 70
     1
102
RTVSPost2010Prop56
140
1.0
102
RTVSPost2010PropOp56
 70
     1
102
RTVSPost2010Prop57
140
1.0
102
RTVSPost2010PropOp57
 70
     1
102
RTVSPropertyOp0
 70
     1
102
RTVSPropertyOp1
 70
     1
102
RTVSPropertyOp2
 70
     1
102
RTVSPropertyOp3
 70
     1
102
RTVSPropertyOp4
 70
     1
102
RTVSPropertyOp5
 70
     1
102
RTVSPropertyOp6
 70
     1
102
RTVSPropertyOp7
 70
     1
102
RTVSPropertyOp8
 70
     1
102
RTVSPropertyOp9
 70
     1
102
RTVSPropertyOp10
 70
     1
102
RTVSPropertyOp11
 70
     1
102
RTVSPropertyOp12
 70
     1
102
RTVSPropertyOp13
 70
     1
102
RTVSPropertyOp14
 70
     1
102
RTVSPropertyOp15
 70
     1
102
RTVSPropertyOp16
 70
     1
102
RTVSPropertyOp17
 70
     1
102
RTVSPropertyOp18
 70
     1
102
RTVSPropertyOp19
 70
     1
102
RTVSPropertyOp20
 70
     1
102
RTVSPropertyOp21
 70
     1
102
RTVSPropertyOp22
 70
     1
102
RTVSPropertyOp23
 70
     1
102
RTVSPropertyOp24
 70
     1
102
RTVSPropertyOp25
 70
     1
102
RTVSPropertyOp26
 70
     1
102
RTVSPropertyOp27
 70
     1
102
RTVSPropertyOp28
 70
     1
102
RTVSPropertyOp29
 70
     1
102
RTVSPropertyOp30
 70
     1
102
RTVSPropertyOp31
 70
     1
102
RTVSPropertyOp32
 70
     1
102
RTVSPropertyOp33
 70
     1
102
RTVSPropertyOp34
 70
     1
102
RTVSPropertyOp35
 70
     1
102
RTVSPropertyOp36
 70
     1
102
RTVSPropertyOp37
 70
     1
102
RTVSPropertyOp38
 70
     1
102
RTVSPropertyOp39
 70
     1
102
RTVSPropertyOp40
 70
     1
102
RTVSPropertyOp41
 70
     1
102
RTVSPropertyOp42
 70
     1
102
RTVSPropertyOp43
 70
     1
102
RTVSPropertyOp44
 70
     1
102
RTVSPropertyOp45
 70
     1
102
RTVSPropertyOp46
 70
     1
102
RTVSPropertyOp47
 70
     1
102
RTVSPropertyOp48
 70
     1
102
RTVSPropertyOp49
 70
     1
102
RTVSPropertyOp50
 70
     1
102
RTVSPropertyOp51
 70
     0
102
RTVSPropertyOp52
 70
     0
102
RTVSPropertyOp53
 70
     1
102
RTVSPropertyOp54
 70
     1
102
RTVSPropertyOp55
 70
     1
102
RTVSPropertyOp56
 70
     1
102
RTVSPropertyOp57
 70
     1
102
RTVSPropertyOp58
 70
     1
102
RTVSPropertyOp59
 70
     1
102
RTVSPropertyOp60
 70
     1
102
RTVSPropertyOp61
 70
     1
102
RTVSPropertyOp62
 70
     1
  0
XRECORD
  5
174D
102
{ACAD_REACTORS
330
174C
102
}
330
174C
100
AcDbXrecord
280
     1
102
RTVSPost2010Prop28
280
     0
102
RTVSPost2010PropOp28
 70
     1
102
RTVSPost2010Prop29
280
     1
102
RTVSPost2010PropOp29
 70
     1
102
RTVSPost2010Prop30
280
     1
102
RTVSPost2010PropOp30
 70
     1
102
RTVSPost2010Prop31
280
     0
102
RTVSPost2010PropOp31
 70
     1
102
RTVSPost2010Prop32
280
     0
102
RTVSPost2010PropOp32
 70
     1
102
RTVSPost2010Prop33
280
     0
102
RTVSPost2010PropOp33
 70
     1
102
RTVSPost2010Prop34
280
     0
102
RTVSPost2010PropOp34
 70
     1
102
RTVSPost2010Prop35
280
     0
102
RTVSPost2010PropOp35
 70
     1
102
RTVSPost2010Prop36
280
     0
102
RTVSPost2010PropOp36
 70
     1
102
RTVSPost2010Prop37
 90
       50
102
RTVSPost2010PropOp37
 70
     1
102
RTVSPost2010Prop38
140
0.0
102
RTVSPost2010PropOp38
 70
     1
102
RTVSPost2010Prop39
140
1.0
102
RTVSPost2010PropOp39
 70
     1
102
RTVSPost2010Prop40
 90
        0
102
RTVSPost2010PropOp40
 70
     1
102
RTVSPost2010Prop41ColorIndex
 90
       18
102
RTVSPost2010Prop41ColorRGB
 90
        0
102
RTVSPost2010PropOp41
 70
     1
102
RTVSPost2010Prop42
 90
       50
102
RTVSPost2010PropOp42
 70
     1
102
RTVSPost2010Prop43
 90
        3
102
RTVSPost2010PropOp43
 70
     1
102
RTVSPost2010Prop44ColorIndex
 90
        5
102
RTVSPost2010Prop44ColorRGB
 90
      255
102
RTVSPost2010PropOp44
 70
     1
102
RTVSPost2010Prop45
280
     0
102
RTVSPost2010PropOp45
 70
     1
102
RTVSPost2010Prop46
 90
       50
102
RTVSPost2010PropOp46
 70
     1
102
RTVSPost2010Prop47
 90
       50
102
RTVSPost2010PropOp47
 70
     1
102
RTVSPost2010Prop48
 90
       50
102
RTVSPost2010PropOp48
 70
     1
102
RTVSPost2010Prop49
280
     0
102
RTVSPost2010PropOp49
 70
     1
102
RTVSPost2010Prop50
 90
       50
102
RTVSPost2010PropOp50
 70
     1
102
RTVSPost2010Prop51ColorIndex
 90
      256
102
RTVSPost2010Prop51ColorRGB
 90
-16777216
102
RTVSPost2010PropOp51
 70
     0
102
RTVSPost2010Prop52
140
1.0
102
RTVSPost2010PropOp52
 70
     0
102
RTVSPost2010Prop53
 90
        2
102
RTVSPost2010PropOp53
 70
     1
102
RTVSPost2010Prop54
  1
strokes_ogs.tif
102
RTVSPost2010PropOp54
 70
     1
102
RTVSPost2010Prop55
280
     0
102
RTVSPost2010PropOp55
 70
     1
102
RTVSPost2010Prop56
140
1.0
102
RTVSPost2010PropOp56
 70
     1
102
RTVSPost2010Prop57
140
1.0
102
RTVSPost2010PropOp57
 70
     1
102
RTVSPropertyOp0
 70
     1
102
RTVSPropertyOp1
 70
     1
102
RTVSPropertyOp2
 70
     1
102
RTVSPropertyOp3
 70
     1
102
RTVSPropertyOp4
 70
     1
102
RTVSPropertyOp5
 70
     1
102
RTVSPropertyOp6
 70
     1
102
RTVSPropertyOp7
 70
     1
102
RTVSPropertyOp8
 70
     1
102
RTVSPropertyOp9
 70
     1
102
RTVSPropertyOp10
 70
     1
102
RTVSPropertyOp11
 70
     1
102
RTVSPropertyOp12
 70
     1
102
RTVSPropertyOp13
 70
     1
102
RTVSPropertyOp14
 70
     1
102
RTVSPropertyOp15
 70
     1
102
RTVSPropertyOp16
 70
     1
102
RTVSPropertyOp17
 70
     1
102
RTVSPropertyOp18
 70
     1
102
RTVSPropertyOp19
 70
     1
102
RTVSPropertyOp20
 70
     1
102
RTVSPropertyOp21
 70
     1
102
RTVSPropertyOp22
 70
     1
102
RTVSPropertyOp23
 70
     1
102
RTVSPropertyOp24
 70
     1
102
RTVSPropertyOp25
 70
     1
102
RTVSPropertyOp26
 70
     1
102
RTVSPropertyOp27
 70
     1
102
RTVSPropertyOp28
 70
     1
102
RTVSPropertyOp29
 70
     1
102
RTVSPropertyOp30
 70
     1
102
RTVSPropertyOp31
 70
     1
102
RTVSPropertyOp32
 70
     1
102
RTVSPropertyOp33
 70
     1
102
RTVSPropertyOp34
 70
     1
102
RTVSPropertyOp35
 70
     1
102
RTVSPropertyOp36
 70
     1
102
RTVSPropertyOp37
 70
     1
102
RTVSPropertyOp38
 70
     1
102
RTVSPropertyOp39
 70
     1
102
RTVSPropertyOp40
 70
     1
102
RTVSPropertyOp41
 70
     1
102
RTVSPropertyOp42
 70
     1
102
RTVSPropertyOp43
 70
     1
102
RTVSPropertyOp44
 70
     1
102
RTVSPropertyOp45
 70
     1
102
RTVSPropertyOp46
 70
     1
102
RTVSPropertyOp47
 70
     1
102
RTVSPropertyOp48
 70
     1
102
RTVSPropertyOp49
 70
     1
102
RTVSPropertyOp50
 70
     1
102
RTVSPropertyOp51
 70
     0
102
RTVSPropertyOp52
 70
     0
102
RTVSPropertyOp53
 70
     1
102
RTVSPropertyOp54
 70
     1
102
RTVSPropertyOp55
 70
     1
102
RTVSPropertyOp56
 70
     1
102
RTVSPropertyOp57
 70
     1
102
RTVSPropertyOp58
 70
     1
102
RTVSPropertyOp59
 70
     1
102
RTVSPropertyOp60
 70
     1
102
RTVSPropertyOp61
 70
     1
102
RTVSPropertyOp62
 70
     1
  0
XRECORD
  5
175B
102
{ACAD_REACTORS
330
175A
102
}
330
175A
100
AcDbXrecord
280
     1
102
RTVSPost2010Prop28
280
     0
102
RTVSPost2010PropOp28
 70
     1
102
RTVSPost2010Prop29
280
     1
102
RTVSPost2010PropOp29
 70
     1
102
RTVSPost2010Prop30
280
     1
102
RTVSPost2010PropOp30
 70
     1
102
RTVSPost2010Prop31
280
     0
102
RTVSPost2010PropOp31
 70
     1
102
RTVSPost2010Prop32
280
     0
102
RTVSPost2010PropOp32
 70
     1
102
RTVSPost2010Prop33
280
     0
102
RTVSPost2010PropOp33
 70
     1
102
RTVSPost2010Prop34
280
     0
102
RTVSPost2010PropOp34
 70
     1
102
RTVSPost2010Prop35
280
     0
102
RTVSPost2010PropOp35
 70
     1
102
RTVSPost2010Prop36
280
     0
102
RTVSPost2010PropOp36
 70
     1
102
RTVSPost2010Prop37
 90
       50
102
RTVSPost2010PropOp37
 70
     1
102
RTVSPost2010Prop38
140
0.0
102
RTVSPost2010PropOp38
 70
     1
102
RTVSPost2010Prop39
140
1.0
102
RTVSPost2010PropOp39
 70
     1
102
RTVSPost2010Prop40
 90
        0
102
RTVSPost2010PropOp40
 70
     1
102
RTVSPost2010Prop41ColorIndex
 90
       18
102
RTVSPost2010Prop41ColorRGB
 90
        0
102
RTVSPost2010PropOp41
 70
     1
102
RTVSPost2010Prop42
 90
       50
102
RTVSPost2010PropOp42
 70
     1
102
RTVSPost2010Prop43
 90
        3
102
RTVSPost2010PropOp43
 70
     1
102
RTVSPost2010Prop44ColorIndex
 90
        5
102
RTVSPost2010Prop44ColorRGB
 90
      255
102
RTVSPost2010PropOp44
 70
     1
102
RTVSPost2010Prop45
280
     0
102
RTVSPost2010PropOp45
 70
     1
102
RTVSPost2010Prop46
 90
       50
102
RTVSPost2010PropOp46
 70
     1
102
RTVSPost2010Prop47
 90
       50
102
RTVSPost2010PropOp47
 70
     1
102
RTVSPost2010Prop48
 90
       50
102
RTVSPost2010PropOp48
 70
     1
102
RTVSPost2010Prop49
280
     0
102
RTVSPost2010PropOp49
 70
     1
102
RTVSPost2010Prop50
 90
       50
102
RTVSPost2010PropOp50
 70
     1
102
RTVSPost2010Prop51ColorIndex
 90
      256
102
RTVSPost2010Prop51ColorRGB
 90
-16777216
102
RTVSPost2010PropOp51
 70
     0
102
RTVSPost2010Prop52
140
1.0
102
RTVSPost2010PropOp52
 70
     0
102
RTVSPost2010Prop53
 90
        2
102
RTVSPost2010PropOp53
 70
     1
102
RTVSPost2010Prop54
  1
strokes_ogs.tif
102
RTVSPost2010PropOp54
 70
     1
102
RTVSPost2010Prop55
280
     0
102
RTVSPost2010PropOp55
 70
     1
102
RTVSPost2010Prop56
140
1.0
102
RTVSPost2010PropOp56
 70
     1
102
RTVSPost2010Prop57
140
1.0
102
RTVSPost2010PropOp57
 70
     1
102
RTVSPropertyOp0
 70
     1
102
RTVSPropertyOp1
 70
     1
102
RTVSPropertyOp2
 70
     1
102
RTVSPropertyOp3
 70
     1
102
RTVSPropertyOp4
 70
     1
102
RTVSPropertyOp5
 70
     1
102
RTVSPropertyOp6
 70
     1
102
RTVSPropertyOp7
 70
     1
102
RTVSPropertyOp8
 70
     1
102
RTVSPropertyOp9
 70
     1
102
RTVSPropertyOp10
 70
     1
102
RTVSPropertyOp11
 70
     1
102
RTVSPropertyOp12
 70
     1
102
RTVSPropertyOp13
 70
     1
102
RTVSPropertyOp14
 70
     1
102
RTVSPropertyOp15
 70
     1
102
RTVSPropertyOp16
 70
     1
102
RTVSPropertyOp17
 70
     1
102
RTVSPropertyOp18
 70
     1
102
RTVSPropertyOp19
 70
     1
102
RTVSPropertyOp20
 70
     1
102
RTVSPropertyOp21
 70
     1
102
RTVSPropertyOp22
 70
     1
102
RTVSPropertyOp23
 70
     1
102
RTVSPropertyOp24
 70
     1
102
RTVSPropertyOp25
 70
     1
102
RTVSPropertyOp26
 70
     1
102
RTVSPropertyOp27
 70
     1
102
RTVSPropertyOp28
 70
     1
102
RTVSPropertyOp29
 70
     1
102
RTVSPropertyOp30
 70
     1
102
RTVSPropertyOp31
 70
     1
102
RTVSPropertyOp32
 70
     1
102
RTVSPropertyOp33
 70
     1
102
RTVSPropertyOp34
 70
     1
102
RTVSPropertyOp35
 70
     1
102
RTVSPropertyOp36
 70
     1
102
RTVSPropertyOp37
 70
     1
102
RTVSPropertyOp38
 70
     1
102
RTVSPropertyOp39
 70
     1
102
RTVSPropertyOp40
 70
     1
102
RTVSPropertyOp41
 70
     1
102
RTVSPropertyOp42
 70
     1
102
RTVSPropertyOp43
 70
     1
102
RTVSPropertyOp44
 70
     1
102
RTVSPropertyOp45
 70
     1
102
RTVSPropertyOp46
 70
     1
102
RTVSPropertyOp47
 70
     1
102
RTVSPropertyOp48
 70
     1
102
RTVSPropertyOp49
 70
     1
102
RTVSPropertyOp50
 70
     1
102
RTVSPropertyOp51
 70
     0
102
RTVSPropertyOp52
 70
     0
102
RTVSPropertyOp53
 70
     1
102
RTVSPropertyOp54
 70
     1
102
RTVSPropertyOp55
 70
     1
102
RTVSPropertyOp56
 70
     1
102
RTVSPropertyOp57
 70
     1
102
RTVSPropertyOp58
 70
     1
102
RTVSPropertyOp59
 70
     1
102
RTVSPropertyOp60
 70
     1
102
RTVSPropertyOp61
 70
     1
102
RTVSPropertyOp62
 70
     1
  0
XRECORD
  5
1763
102
{ACAD_REACTORS
330
1762
102
}
330
1762
100
AcDbXrecord
280
     1
102
RTVSPost2010Prop28
280
     0
102
RTVSPost2010PropOp28
 70
     1
102
RTVSPost2010Prop29
280
     1
102
RTVSPost2010PropOp29
 70
     1
102
RTVSPost2010Prop30
280
     1
102
RTVSPost2010PropOp30
 70
     1
102
RTVSPost2010Prop31
280
     0
102
RTVSPost2010PropOp31
 70
     1
102
RTVSPost2010Prop32
280
     0
102
RTVSPost2010PropOp32
 70
     1
102
RTVSPost2010Prop33
280
     0
102
RTVSPost2010PropOp33
 70
     1
102
RTVSPost2010Prop34
280
     0
102
RTVSPost2010PropOp34
 70
     1
102
RTVSPost2010Prop35
280
     0
102
RTVSPost2010PropOp35
 70
     1
102
RTVSPost2010Prop36
280
     0
102
RTVSPost2010PropOp36
 70
     1
102
RTVSPost2010Prop37
 90
       50
102
RTVSPost2010PropOp37
 70
     1
102
RTVSPost2010Prop38
140
0.0
102
RTVSPost2010PropOp38
 70
     1
102
RTVSPost2010Prop39
140
1.0
102
RTVSPost2010PropOp39
 70
     1
102
RTVSPost2010Prop40
 90
        0
102
RTVSPost2010PropOp40
 70
     1
102
RTVSPost2010Prop41ColorIndex
 90
       18
102
RTVSPost2010Prop41ColorRGB
 90
        0
102
RTVSPost2010PropOp41
 70
     1
102
RTVSPost2010Prop42
 90
       50
102
RTVSPost2010PropOp42
 70
     1
102
RTVSPost2010Prop43
 90
        3
102
RTVSPost2010PropOp43
 70
     1
102
RTVSPost2010Prop44ColorIndex
 90
        5
102
RTVSPost2010Prop44ColorRGB
 90
      255
102
RTVSPost2010PropOp44
 70
     1
102
RTVSPost2010Prop45
280
     0
102
RTVSPost2010PropOp45
 70
     1
102
RTVSPost2010Prop46
 90
       50
102
RTVSPost2010PropOp46
 70
     1
102
RTVSPost2010Prop47
 90
       50
102
RTVSPost2010PropOp47
 70
     1
102
RTVSPost2010Prop48
 90
       50
102
RTVSPost2010PropOp48
 70
     1
102
RTVSPost2010Prop49
280
     0
102
RTVSPost2010PropOp49
 70
     1
102
RTVSPost2010Prop50
 90
       50
102
RTVSPost2010PropOp50
 70
     1
102
RTVSPost2010Prop51ColorIndex
 90
      256
102
RTVSPost2010Prop51ColorRGB
 90
-16777216
102
RTVSPost2010PropOp51
 70
     0
102
RTVSPost2010Prop52
140
1.0
102
RTVSPost2010PropOp52
 70
     0
102
RTVSPost2010Prop53
 90
        2
102
RTVSPost2010PropOp53
 70
     1
102
RTVSPost2010Prop54
  1
strokes_ogs.tif
102
RTVSPost2010PropOp54
 70
     1
102
RTVSPost2010Prop55
280
     0
102
RTVSPost2010PropOp55
 70
     1
102
RTVSPost2010Prop56
140
1.0
102
RTVSPost2010PropOp56
 70
     1
102
RTVSPost2010Prop57
140
1.0
102
RTVSPost2010PropOp57
 70
     1
102
RTVSPropertyOp0
 70
     1
102
RTVSPropertyOp1
 70
     1
102
RTVSPropertyOp2
 70
     1
102
RTVSPropertyOp3
 70
     1
102
RTVSPropertyOp4
 70
     1
102
RTVSPropertyOp5
 70
     1
102
RTVSPropertyOp6
 70
     1
102
RTVSPropertyOp7
 70
     1
102
RTVSPropertyOp8
 70
     1
102
RTVSPropertyOp9
 70
     1
102
RTVSPropertyOp10
 70
     1
102
RTVSPropertyOp11
 70
     1
102
RTVSPropertyOp12
 70
     1
102
RTVSPropertyOp13
 70
     1
102
RTVSPropertyOp14
 70
     1
102
RTVSPropertyOp15
 70
     1
102
RTVSPropertyOp16
 70
     1
102
RTVSPropertyOp17
 70
     1
102
RTVSPropertyOp18
 70
     1
102
RTVSPropertyOp19
 70
     1
102
RTVSPropertyOp20
 70
     1
102
RTVSPropertyOp21
 70
     1
102
RTVSPropertyOp22
 70
     1
102
RTVSPropertyOp23
 70
     1
102
RTVSPropertyOp24
 70
     1
102
RTVSPropertyOp25
 70
     1
102
RTVSPropertyOp26
 70
     1
102
RTVSPropertyOp27
 70
     1
102
RTVSPropertyOp28
 70
     1
102
RTVSPropertyOp29
 70
     1
102
RTVSPropertyOp30
 70
     1
102
RTVSPropertyOp31
 70
     1
102
RTVSPropertyOp32
 70
     1
102
RTVSPropertyOp33
 70
     1
102
RTVSPropertyOp34
 70
     1
102
RTVSPropertyOp35
 70
     1
102
RTVSPropertyOp36
 70
     1
102
RTVSPropertyOp37
 70
     1
102
RTVSPropertyOp38
 70
     1
102
RTVSPropertyOp39
 70
     1
102
RTVSPropertyOp40
 70
     1
102
RTVSPropertyOp41
 70
     1
102
RTVSPropertyOp42
 70
     1
102
RTVSPropertyOp43
 70
     1
102
RTVSPropertyOp44
 70
     1
102
RTVSPropertyOp45
 70
     1
102
RTVSPropertyOp46
 70
     1
102
RTVSPropertyOp47
 70
     1
102
RTVSPropertyOp48
 70
     1
102
RTVSPropertyOp49
 70
     1
102
RTVSPropertyOp50
 70
     1
102
RTVSPropertyOp51
 70
     0
102
RTVSPropertyOp52
 70
     0
102
RTVSPropertyOp53
 70
     1
102
RTVSPropertyOp54
 70
     1
102
RTVSPropertyOp55
 70
     1
102
RTVSPropertyOp56
 70
     1
102
RTVSPropertyOp57
 70
     1
102
RTVSPropertyOp58
 70
     1
102
RTVSPropertyOp59
 70
     1
102
RTVSPropertyOp60
 70
     1
102
RTVSPropertyOp61
 70
     1
102
RTVSPropertyOp62
 70
     1
  0
XRECORD
  5
1755
102
{ACAD_REACTORS
330
1754
102
}
330
1754
100
AcDbXrecord
280
     1
102
RTVSPost2010Prop28
280
     0
102
RTVSPost2010PropOp28
 70
     1
102
RTVSPost2010Prop29
280
     1
102
RTVSPost2010PropOp29
 70
     1
102
RTVSPost2010Prop30
280
     1
102
RTVSPost2010PropOp30
 70
     1
102
RTVSPost2010Prop31
280
     0
102
RTVSPost2010PropOp31
 70
     1
102
RTVSPost2010Prop32
280
     0
102
RTVSPost2010PropOp32
 70
     1
102
RTVSPost2010Prop33
280
     0
102
RTVSPost2010PropOp33
 70
     1
102
RTVSPost2010Prop34
280
     0
102
RTVSPost2010PropOp34
 70
     1
102
RTVSPost2010Prop35
280
     0
102
RTVSPost2010PropOp35
 70
     1
102
RTVSPost2010Prop36
280
     0
102
RTVSPost2010PropOp36
 70
     1
102
RTVSPost2010Prop37
 90
       50
102
RTVSPost2010PropOp37
 70
     1
102
RTVSPost2010Prop38
140
0.0
102
RTVSPost2010PropOp38
 70
     1
102
RTVSPost2010Prop39
140
1.0
102
RTVSPost2010PropOp39
 70
     1
102
RTVSPost2010Prop40
 90
        0
102
RTVSPost2010PropOp40
 70
     1
102
RTVSPost2010Prop41ColorIndex
 90
       18
102
RTVSPost2010Prop41ColorRGB
 90
        0
102
RTVSPost2010PropOp41
 70
     1
102
RTVSPost2010Prop42
 90
       50
102
RTVSPost2010PropOp42
 70
     1
102
RTVSPost2010Prop43
 90
        3
102
RTVSPost2010PropOp43
 70
     1
102
RTVSPost2010Prop44ColorIndex
 90
        5
102
RTVSPost2010Prop44ColorRGB
 90
      255
102
RTVSPost2010PropOp44
 70
     1
102
RTVSPost2010Prop45
280
     0
102
RTVSPost2010PropOp45
 70
     1
102
RTVSPost2010Prop46
 90
       50
102
RTVSPost2010PropOp46
 70
     1
102
RTVSPost2010Prop47
 90
       50
102
RTVSPost2010PropOp47
 70
     1
102
RTVSPost2010Prop48
 90
       50
102
RTVSPost2010PropOp48
 70
     1
102
RTVSPost2010Prop49
280
     0
102
RTVSPost2010PropOp49
 70
     1
102
RTVSPost2010Prop50
 90
       50
102
RTVSPost2010PropOp50
 70
     1
102
RTVSPost2010Prop51ColorIndex
 90
      256
102
RTVSPost2010Prop51ColorRGB
 90
-16777216
102
RTVSPost2010PropOp51
 70
     0
102
RTVSPost2010Prop52
140
1.0
102
RTVSPost2010PropOp52
 70
     0
102
RTVSPost2010Prop53
 90
        2
102
RTVSPost2010PropOp53
 70
     1
102
RTVSPost2010Prop54
  1
strokes_ogs.tif
102
RTVSPost2010PropOp54
 70
     1
102
RTVSPost2010Prop55
280
     0
102
RTVSPost2010PropOp55
 70
     1
102
RTVSPost2010Prop56
140
1.0
102
RTVSPost2010PropOp56
 70
     1
102
RTVSPost2010Prop57
140
1.0
102
RTVSPost2010PropOp57
 70
     1
102
RTVSPropertyOp0
 70
     1
102
RTVSPropertyOp1
 70
     1
102
RTVSPropertyOp2
 70
     1
102
RTVSPropertyOp3
 70
     1
102
RTVSPropertyOp4
 70
     1
102
RTVSPropertyOp5
 70
     1
102
RTVSPropertyOp6
 70
     1
102
RTVSPropertyOp7
 70
     1
102
RTVSPropertyOp8
 70
     1
102
RTVSPropertyOp9
 70
     1
102
RTVSPropertyOp10
 70
     1
102
RTVSPropertyOp11
 70
     1
102
RTVSPropertyOp12
 70
     1
102
RTVSPropertyOp13
 70
     1
102
RTVSPropertyOp14
 70
     1
102
RTVSPropertyOp15
 70
     1
102
RTVSPropertyOp16
 70
     1
102
RTVSPropertyOp17
 70
     1
102
RTVSPropertyOp18
 70
     1
102
RTVSPropertyOp19
 70
     1
102
RTVSPropertyOp20
 70
     1
102
RTVSPropertyOp21
 70
     1
102
RTVSPropertyOp22
 70
     1
102
RTVSPropertyOp23
 70
     1
102
RTVSPropertyOp24
 70
     1
102
RTVSPropertyOp25
 70
     1
102
RTVSPropertyOp26
 70
     1
102
RTVSPropertyOp27
 70
     1
102
RTVSPropertyOp28
 70
     1
102
RTVSPropertyOp29
 70
     1
102
RTVSPropertyOp30
 70
     1
102
RTVSPropertyOp31
 70
     1
102
RTVSPropertyOp32
 70
     1
102
RTVSPropertyOp33
 70
     1
102
RTVSPropertyOp34
 70
     1
102
RTVSPropertyOp35
 70
     1
102
RTVSPropertyOp36
 70
     1
102
RTVSPropertyOp37
 70
     1
102
RTVSPropertyOp38
 70
     1
102
RTVSPropertyOp39
 70
     1
102
RTVSPropertyOp40
 70
     1
102
RTVSPropertyOp41
 70
     1
102
RTVSPropertyOp42
 70
     1
102
RTVSPropertyOp43
 70
     1
102
RTVSPropertyOp44
 70
     1
102
RTVSPropertyOp45
 70
     1
102
RTVSPropertyOp46
 70
     1
102
RTVSPropertyOp47
 70
     1
102
RTVSPropertyOp48
 70
     1
102
RTVSPropertyOp49
 70
     1
102
RTVSPropertyOp50
 70
     1
102
RTVSPropertyOp51
 70
     0
102
RTVSPropertyOp52
 70
     0
102
RTVSPropertyOp53
 70
     1
102
RTVSPropertyOp54
 70
     1
102
RTVSPropertyOp55
 70
     1
102
RTVSPropertyOp56
 70
     1
102
RTVSPropertyOp57
 70
     1
102
RTVSPropertyOp58
 70
     1
102
RTVSPropertyOp59
 70
     1
102
RTVSPropertyOp60
 70
     1
102
RTVSPropertyOp61
 70
     1
102
RTVSPropertyOp62
 70
     1
  0
XRECORD
  5
1759
102
{ACAD_REACTORS
330
1758
102
}
330
1758
100
AcDbXrecord
280
     1
102
RTVSPost2010Prop28
280
     0
102
RTVSPost2010PropOp28
 70
     1
102
RTVSPost2010Prop29
280
     1
102
RTVSPost2010PropOp29
 70
     1
102
RTVSPost2010Prop30
280
     1
102
RTVSPost2010PropOp30
 70
     1
102
RTVSPost2010Prop31
280
     0
102
RTVSPost2010PropOp31
 70
     1
102
RTVSPost2010Prop32
280
     0
102
RTVSPost2010PropOp32
 70
     1
102
RTVSPost2010Prop33
280
     0
102
RTVSPost2010PropOp33
 70
     1
102
RTVSPost2010Prop34
280
     0
102
RTVSPost2010PropOp34
 70
     1
102
RTVSPost2010Prop35
280
     0
102
RTVSPost2010PropOp35
 70
     1
102
RTVSPost2010Prop36
280
     0
102
RTVSPost2010PropOp36
 70
     1
102
RTVSPost2010Prop37
 90
       50
102
RTVSPost2010PropOp37
 70
     1
102
RTVSPost2010Prop38
140
0.0
102
RTVSPost2010PropOp38
 70
     1
102
RTVSPost2010Prop39
140
1.0
102
RTVSPost2010PropOp39
 70
     1
102
RTVSPost2010Prop40
 90
        0
102
RTVSPost2010PropOp40
 70
     1
102
RTVSPost2010Prop41ColorIndex
 90
       18
102
RTVSPost2010Prop41ColorRGB
 90
        0
102
RTVSPost2010PropOp41
 70
     1
102
RTVSPost2010Prop42
 90
       50
102
RTVSPost2010PropOp42
 70
     1
102
RTVSPost2010Prop43
 90
        3
102
RTVSPost2010PropOp43
 70
     1
102
RTVSPost2010Prop44ColorIndex
 90
        5
102
RTVSPost2010Prop44ColorRGB
 90
      255
102
RTVSPost2010PropOp44
 70
     1
102
RTVSPost2010Prop45
280
     0
102
RTVSPost2010PropOp45
 70
     1
102
RTVSPost2010Prop46
 90
       50
102
RTVSPost2010PropOp46
 70
     1
102
RTVSPost2010Prop47
 90
       50
102
RTVSPost2010PropOp47
 70
     1
102
RTVSPost2010Prop48
 90
       50
102
RTVSPost2010PropOp48
 70
     1
102
RTVSPost2010Prop49
280
     0
102
RTVSPost2010PropOp49
 70
     1
102
RTVSPost2010Prop50
 90
       50
102
RTVSPost2010PropOp50
 70
     1
102
RTVSPost2010Prop51ColorIndex
 90
      256
102
RTVSPost2010Prop51ColorRGB
 90
-16777216
102
RTVSPost2010PropOp51
 70
     0
102
RTVSPost2010Prop52
140
1.0
102
RTVSPost2010PropOp52
 70
     0
102
RTVSPost2010Prop53
 90
        2
102
RTVSPost2010PropOp53
 70
     1
102
RTVSPost2010Prop54
  1
strokes_ogs.tif
102
RTVSPost2010PropOp54
 70
     1
102
RTVSPost2010Prop55
280
     0
102
RTVSPost2010PropOp55
 70
     1
102
RTVSPost2010Prop56
140
1.0
102
RTVSPost2010PropOp56
 70
     1
102
RTVSPost2010Prop57
140
1.0
102
RTVSPost2010PropOp57
 70
     1
102
RTVSPropertyOp0
 70
     1
102
RTVSPropertyOp1
 70
     1
102
RTVSPropertyOp2
 70
     1
102
RTVSPropertyOp3
 70
     1
102
RTVSPropertyOp4
 70
     1
102
RTVSPropertyOp5
 70
     1
102
RTVSPropertyOp6
 70
     1
102
RTVSPropertyOp7
 70
     1
102
RTVSPropertyOp8
 70
     1
102
RTVSPropertyOp9
 70
     1
102
RTVSPropertyOp10
 70
     1
102
RTVSPropertyOp11
 70
     1
102
RTVSPropertyOp12
 70
     1
102
RTVSPropertyOp13
 70
     1
102
RTVSPropertyOp14
 70
     1
102
RTVSPropertyOp15
 70
     1
102
RTVSPropertyOp16
 70
     1
102
RTVSPropertyOp17
 70
     1
102
RTVSPropertyOp18
 70
     1
102
RTVSPropertyOp19
 70
     1
102
RTVSPropertyOp20
 70
     1
102
RTVSPropertyOp21
 70
     1
102
RTVSPropertyOp22
 70
     1
102
RTVSPropertyOp23
 70
     1
102
RTVSPropertyOp24
 70
     1
102
RTVSPropertyOp25
 70
     1
102
RTVSPropertyOp26
 70
     1
102
RTVSPropertyOp27
 70
     1
102
RTVSPropertyOp28
 70
     1
102
RTVSPropertyOp29
 70
     1
102
RTVSPropertyOp30
 70
     1
102
RTVSPropertyOp31
 70
     1
102
RTVSPropertyOp32
 70
     1
102
RTVSPropertyOp33
 70
     1
102
RTVSPropertyOp34
 70
     1
102
RTVSPropertyOp35
 70
     1
102
RTVSPropertyOp36
 70
     1
102
RTVSPropertyOp37
 70
     1
102
RTVSPropertyOp38
 70
     1
102
RTVSPropertyOp39
 70
     1
102
RTVSPropertyOp40
 70
     1
102
RTVSPropertyOp41
 70
     1
102
RTVSPropertyOp42
 70
     1
102
RTVSPropertyOp43
 70
     1
102
RTVSPropertyOp44
 70
     1
102
RTVSPropertyOp45
 70
     1
102
RTVSPropertyOp46
 70
     1
102
RTVSPropertyOp47
 70
     1
102
RTVSPropertyOp48
 70
     1
102
RTVSPropertyOp49
 70
     1
102
RTVSPropertyOp50
 70
     1
102
RTVSPropertyOp51
 70
     0
102
RTVSPropertyOp52
 70
     0
102
RTVSPropertyOp53
 70
     1
102
RTVSPropertyOp54
 70
     1
102
RTVSPropertyOp55
 70
     1
102
RTVSPropertyOp56
 70
     1
102
RTVSPropertyOp57
 70
     1
102
RTVSPropertyOp58
 70
     1
102
RTVSPropertyOp59
 70
     1
102
RTVSPropertyOp60
 70
     1
102
RTVSPropertyOp61
 70
     1
102
RTVSPropertyOp62
 70
     1
  0
XRECORD
  5
1773
102
{ACAD_REACTORS
330
1772
102
}
330
1772
100
AcDbXrecord
280
     1
102
RTVSPost2010Prop28
280
     0
102
RTVSPost2010PropOp28
 70
     0
102
RTVSPost2010Prop29
280
     1
102
RTVSPost2010PropOp29
 70
     0
102
RTVSPost2010Prop30
280
     1
102
RTVSPost2010PropOp30
 70
     0
102
RTVSPost2010Prop31
280
     0
102
RTVSPost2010PropOp31
 70
     0
102
RTVSPost2010Prop32
280
     0
102
RTVSPost2010PropOp32
 70
     0
102
RTVSPost2010Prop33
280
     0
102
RTVSPost2010PropOp33
 70
     0
102
RTVSPost2010Prop34
280
     0
102
RTVSPost2010PropOp34
 70
     0
102
RTVSPost2010Prop35
280
     0
102
RTVSPost2010PropOp35
 70
     0
102
RTVSPost2010Prop36
280
     0
102
RTVSPost2010PropOp36
 70
     0
102
RTVSPost2010Prop37
 90
       50
102
RTVSPost2010PropOp37
 70
     0
102
RTVSPost2010Prop38
140
0.0
102
RTVSPost2010PropOp38
 70
     0
102
RTVSPost2010Prop39
140
1.0
102
RTVSPost2010PropOp39
 70
     0
102
RTVSPost2010Prop40
 90
        0
102
RTVSPost2010PropOp40
 70
     0
102
RTVSPost2010Prop41ColorIndex
 90
       18
102
RTVSPost2010Prop41ColorRGB
 90
        0
102
RTVSPost2010PropOp41
 70
     0
102
RTVSPost2010Prop42
 90
       50
102
RTVSPost2010PropOp42
 70
     0
102
RTVSPost2010Prop43
 90
        3
102
RTVSPost2010PropOp43
 70
     0
102
RTVSPost2010Prop44ColorIndex
 90
        5
102
RTVSPost2010Prop44ColorRGB
 90
      255
102
RTVSPost2010PropOp44
 70
     0
102
RTVSPost2010Prop45
280
     0
102
RTVSPost2010PropOp45
 70
     0
102
RTVSPost2010Prop46
 90
       50
102
RTVSPost2010PropOp46
 70
     0
102
RTVSPost2010Prop47
 90
       50
102
RTVSPost2010PropOp47
 70
     0
102
RTVSPost2010Prop48
 90
       50
102
RTVSPost2010PropOp48
 70
     0
102
RTVSPost2010Prop49
280
     0
102
RTVSPost2010PropOp49
 70
     0
102
RTVSPost2010Prop50
 90
       50
102
RTVSPost2010PropOp50
 70
     0
102
RTVSPost2010Prop51ColorIndex
 90
      256
102
RTVSPost2010Prop51ColorRGB
 90
-16777216
102
RTVSPost2010PropOp51
 70
     0
102
RTVSPost2010Prop52
140
1.0
102
RTVSPost2010PropOp52
 70
     0
102
RTVSPost2010Prop53
 90
        2
102
RTVSPost2010PropOp53
 70
     0
102
RTVSPost2010Prop54
  1
strokes_ogs.tif
102
RTVSPost2010PropOp54
 70
     0
102
RTVSPost2010Prop55
280
     0
102
RTVSPost2010PropOp55
 70
     0
102
RTVSPost2010Prop56
140
1.0
102
RTVSPost2010PropOp56
 70
     0
102
RTVSPost2010Prop57
140
1.0
102
RTVSPost2010PropOp57
 70
     0
102
RTVSPropertyOp0
 70
     0
102
RTVSPropertyOp1
 70
     0
102
RTVSPropertyOp2
 70
     0
102
RTVSPropertyOp3
 70
     0
102
RTVSPropertyOp4
 70
     0
102
RTVSPropertyOp5
 70
     0
102
RTVSPropertyOp6
 70
     0
102
RTVSPropertyOp7
 70
     0
102
RTVSPropertyOp8
 70
     0
102
RTVSPropertyOp9
 70
     0
102
RTVSPropertyOp10
 70
     0
102
RTVSPropertyOp11
 70
     0
102
RTVSPropertyOp12
 70
     0
102
RTVSPropertyOp13
 70
     0
102
RTVSPropertyOp14
 70
     2
102
RTVSPropertyOp15
 70
     0
102
RTVSPropertyOp16
 70
     0
102
RTVSPropertyOp17
 70
     0
102
RTVSPropertyOp18
 70
     0
102
RTVSPropertyOp19
 70
     0
102
RTVSPropertyOp20
 70
     0
102
RTVSPropertyOp21
 70
     0
102
RTVSPropertyOp22
 70
     0
102
RTVSPropertyOp23
 70
     0
102
RTVSPropertyOp24
 70
     0
102
RTVSPropertyOp25
 70
     0
102
RTVSPropertyOp26
 70
     0
102
RTVSPropertyOp27
 70
     0
102
RTVSPropertyOp28
 70
     0
102
RTVSPropertyOp29
 70
     0
102
RTVSPropertyOp30
 70
     0
102
RTVSPropertyOp31
 70
     0
102
RTVSPropertyOp32
 70
     0
102
RTVSPropertyOp33
 70
     0
102
RTVSPropertyOp34
 70
     0
102
RTVSPropertyOp35
 70
     0
102
RTVSPropertyOp36
 70
     0
102
RTVSPropertyOp37
 70
     0
102
RTVSPropertyOp38
 70
     0
102
RTVSPropertyOp39
 70
     0
102
RTVSPropertyOp40
 70
     0
102
RTVSPropertyOp41
 70
     0
102
RTVSPropertyOp42
 70
     0
102
RTVSPropertyOp43
 70
     0
102
RTVSPropertyOp44
 70
     0
102
RTVSPropertyOp45
 70
     0
102
RTVSPropertyOp46
 70
     0
102
RTVSPropertyOp47
 70
     0
102
RTVSPropertyOp48
 70
     0
102
RTVSPropertyOp49
 70
     0
102
RTVSPropertyOp50
 70
     0
102
RTVSPropertyOp51
 70
     0
102
RTVSPropertyOp52
 70
     0
102
RTVSPropertyOp53
 70
     0
102
RTVSPropertyOp54
 70
     0
102
RTVSPropertyOp55
 70
     0
102
RTVSPropertyOp56
 70
     0
102
RTVSPropertyOp57
 70
     0
102
RTVSPropertyOp58
 70
     0
102
RTVSPropertyOp59
 70
     0
102
RTVSPropertyOp60
 70
     0
102
RTVSPropertyOp61
 70
     0
102
RTVSPropertyOp62
 70
     0
  0
XRECORD
  5
1761
102
{ACAD_REACTORS
330
1760
102
}
330
1760
100
AcDbXrecord
280
     1
102
RTVSPost2010Prop28
280
     0
102
RTVSPost2010PropOp28
 70
     1
102
RTVSPost2010Prop29
280
     1
102
RTVSPost2010PropOp29
 70
     1
102
RTVSPost2010Prop30
280
     1
102
RTVSPost2010PropOp30
 70
     1
102
RTVSPost2010Prop31
280
     0
102
RTVSPost2010PropOp31
 70
     1
102
RTVSPost2010Prop32
280
     0
102
RTVSPost2010PropOp32
 70
     1
102
RTVSPost2010Prop33
280
     0
102
RTVSPost2010PropOp33
 70
     1
102
RTVSPost2010Prop34
280
     0
102
RTVSPost2010PropOp34
 70
     1
102
RTVSPost2010Prop35
280
     0
102
RTVSPost2010PropOp35
 70
     1
102
RTVSPost2010Prop36
280
     0
102
RTVSPost2010PropOp36
 70
     1
102
RTVSPost2010Prop37
 90
       50
102
RTVSPost2010PropOp37
 70
     1
102
RTVSPost2010Prop38
140
0.0
102
RTVSPost2010PropOp38
 70
     1
102
RTVSPost2010Prop39
140
1.0
102
RTVSPost2010PropOp39
 70
     1
102
RTVSPost2010Prop40
 90
        0
102
RTVSPost2010PropOp40
 70
     1
102
RTVSPost2010Prop41ColorIndex
 90
       18
102
RTVSPost2010Prop41ColorRGB
 90
        0
102
RTVSPost2010PropOp41
 70
     1
102
RTVSPost2010Prop42
 90
       50
102
RTVSPost2010PropOp42
 70
     1
102
RTVSPost2010Prop43
 90
        3
102
RTVSPost2010PropOp43
 70
     1
102
RTVSPost2010Prop44ColorIndex
 90
        5
102
RTVSPost2010Prop44ColorRGB
 90
      255
102
RTVSPost2010PropOp44
 70
     1
102
RTVSPost2010Prop45
280
     0
102
RTVSPost2010PropOp45
 70
     1
102
RTVSPost2010Prop46
 90
       50
102
RTVSPost2010PropOp46
 70
     1
102
RTVSPost2010Prop47
 90
       50
102
RTVSPost2010PropOp47
 70
     1
102
RTVSPost2010Prop48
 90
       50
102
RTVSPost2010PropOp48
 70
     1
102
RTVSPost2010Prop49
280
     0
102
RTVSPost2010PropOp49
 70
     1
102
RTVSPost2010Prop50
 90
       50
102
RTVSPost2010PropOp50
 70
     1
102
RTVSPost2010Prop51ColorIndex
 90
      256
102
RTVSPost2010Prop51ColorRGB
 90
-16777216
102
RTVSPost2010PropOp51
 70
     0
102
RTVSPost2010Prop52
140
1.0
102
RTVSPost2010PropOp52
 70
     0
102
RTVSPost2010Prop53
 90
        2
102
RTVSPost2010PropOp53
 70
     1
102
RTVSPost2010Prop54
  1
strokes_ogs.tif
102
RTVSPost2010PropOp54
 70
     1
102
RTVSPost2010Prop55
280
     0
102
RTVSPost2010PropOp55
 70
     1
102
RTVSPost2010Prop56
140
1.0
102
RTVSPost2010PropOp56
 70
     1
102
RTVSPost2010Prop57
140
1.0
102
RTVSPost2010PropOp57
 70
     1
102
RTVSPropertyOp0
 70
     1
102
RTVSPropertyOp1
 70
     1
102
RTVSPropertyOp2
 70
     1
102
RTVSPropertyOp3
 70
     1
102
RTVSPropertyOp4
 70
     1
102
RTVSPropertyOp5
 70
     1
102
RTVSPropertyOp6
 70
     1
102
RTVSPropertyOp7
 70
     1
102
RTVSPropertyOp8
 70
     1
102
RTVSPropertyOp9
 70
     1
102
RTVSPropertyOp10
 70
     1
102
RTVSPropertyOp11
 70
     1
102
RTVSPropertyOp12
 70
     1
102
RTVSPropertyOp13
 70
     1
102
RTVSPropertyOp14
 70
     1
102
RTVSPropertyOp15
 70
     1
102
RTVSPropertyOp16
 70
     1
102
RTVSPropertyOp17
 70
     1
102
RTVSPropertyOp18
 70
     1
102
RTVSPropertyOp19
 70
     1
102
RTVSPropertyOp20
 70
     1
102
RTVSPropertyOp21
 70
     1
102
RTVSPropertyOp22
 70
     1
102
RTVSPropertyOp23
 70
     1
102
RTVSPropertyOp24
 70
     1
102
RTVSPropertyOp25
 70
     1
102
RTVSPropertyOp26
 70
     1
102
RTVSPropertyOp27
 70
     1
102
RTVSPropertyOp28
 70
     1
102
RTVSPropertyOp29
 70
     1
102
RTVSPropertyOp30
 70
     1
102
RTVSPropertyOp31
 70
     1
102
RTVSPropertyOp32
 70
     1
102
RTVSPropertyOp33
 70
     1
102
RTVSPropertyOp34
 70
     1
102
RTVSPropertyOp35
 70
     1
102
RTVSPropertyOp36
 70
     1
102
RTVSPropertyOp37
 70
     1
102
RTVSPropertyOp38
 70
     1
102
RTVSPropertyOp39
 70
     1
102
RTVSPropertyOp40
 70
     1
102
RTVSPropertyOp41
 70
     1
102
RTVSPropertyOp42
 70
     1
102
RTVSPropertyOp43
 70
     1
102
RTVSPropertyOp44
 70
     1
102
RTVSPropertyOp45
 70
     1
102
RTVSPropertyOp46
 70
     1
102
RTVSPropertyOp47
 70
     1
102
RTVSPropertyOp48
 70
     1
102
RTVSPropertyOp49
 70
     1
102
RTVSPropertyOp50
 70
     1
102
RTVSPropertyOp51
 70
     0
102
RTVSPropertyOp52
 70
     0
102
RTVSPropertyOp53
 70
     1
102
RTVSPropertyOp54
 70
     1
102
RTVSPropertyOp55
 70
     1
102
RTVSPropertyOp56
 70
     1
102
RTVSPropertyOp57
 70
     1
102
RTVSPropertyOp58
 70
     1
102
RTVSPropertyOp59
 70
     1
102
RTVSPropertyOp60
 70
     1
102
RTVSPropertyOp61
 70
     1
102
RTVSPropertyOp62
 70
     1
  0
XRECORD
  5
1745
102
{ACAD_REACTORS
330
1744
102
}
330
1744
100
AcDbXrecord
280
     1
102
RTVSPost2010Prop28
280
     0
102
RTVSPost2010PropOp28
 70
     1
102
RTVSPost2010Prop29
280
     1
102
RTVSPost2010PropOp29
 70
     1
102
RTVSPost2010Prop30
280
     1
102
RTVSPost2010PropOp30
 70
     1
102
RTVSPost2010Prop31
280
     0
102
RTVSPost2010PropOp31
 70
     1
102
RTVSPost2010Prop32
280
     0
102
RTVSPost2010PropOp32
 70
     1
102
RTVSPost2010Prop33
280
     0
102
RTVSPost2010PropOp33
 70
     1
102
RTVSPost2010Prop34
280
     0
102
RTVSPost2010PropOp34
 70
     1
102
RTVSPost2010Prop35
280
     0
102
RTVSPost2010PropOp35
 70
     1
102
RTVSPost2010Prop36
280
     0
102
RTVSPost2010PropOp36
 70
     1
102
RTVSPost2010Prop37
 90
       50
102
RTVSPost2010PropOp37
 70
     1
102
RTVSPost2010Prop38
140
0.0
102
RTVSPost2010PropOp38
 70
     1
102
RTVSPost2010Prop39
140
1.0
102
RTVSPost2010PropOp39
 70
     1
102
RTVSPost2010Prop40
 90
        0
102
RTVSPost2010PropOp40
 70
     1
102
RTVSPost2010Prop41ColorIndex
 90
       18
102
RTVSPost2010Prop41ColorRGB
 90
        0
102
RTVSPost2010PropOp41
 70
     1
102
RTVSPost2010Prop42
 90
       50
102
RTVSPost2010PropOp42
 70
     1
102
RTVSPost2010Prop43
 90
        3
102
RTVSPost2010PropOp43
 70
     1
102
RTVSPost2010Prop44ColorIndex
 90
        5
102
RTVSPost2010Prop44ColorRGB
 90
      255
102
RTVSPost2010PropOp44
 70
     1
102
RTVSPost2010Prop45
280
     0
102
RTVSPost2010PropOp45
 70
     1
102
RTVSPost2010Prop46
 90
       50
102
RTVSPost2010PropOp46
 70
     1
102
RTVSPost2010Prop47
 90
       50
102
RTVSPost2010PropOp47
 70
     1
102
RTVSPost2010Prop48
 90
       50
102
RTVSPost2010PropOp48
 70
     1
102
RTVSPost2010Prop49
280
     0
102
RTVSPost2010PropOp49
 70
     1
102
RTVSPost2010Prop50
 90
       50
102
RTVSPost2010PropOp50
 70
     1
102
RTVSPost2010Prop51ColorIndex
 90
      256
102
RTVSPost2010Prop51ColorRGB
 90
-16777216
102
RTVSPost2010PropOp51
 70
     0
102
RTVSPost2010Prop52
140
1.0
102
RTVSPost2010PropOp52
 70
     0
102
RTVSPost2010Prop53
 90
        2
102
RTVSPost2010PropOp53
 70
     1
102
RTVSPost2010Prop54
  1
strokes_ogs.tif
102
RTVSPost2010PropOp54
 70
     1
102
RTVSPost2010Prop55
280
     0
102
RTVSPost2010PropOp55
 70
     1
102
RTVSPost2010Prop56
140
1.0
102
RTVSPost2010PropOp56
 70
     1
102
RTVSPost2010Prop57
140
1.0
102
RTVSPost2010PropOp57
 70
     1
102
RTVSPropertyOp0
 70
     1
102
RTVSPropertyOp1
 70
     1
102
RTVSPropertyOp2
 70
     1
102
RTVSPropertyOp3
 70
     1
102
RTVSPropertyOp4
 70
     1
102
RTVSPropertyOp5
 70
     1
102
RTVSPropertyOp6
 70
     1
102
RTVSPropertyOp7
 70
     1
102
RTVSPropertyOp8
 70
     1
102
RTVSPropertyOp9
 70
     1
102
RTVSPropertyOp10
 70
     1
102
RTVSPropertyOp11
 70
     1
102
RTVSPropertyOp12
 70
     1
102
RTVSPropertyOp13
 70
     1
102
RTVSPropertyOp14
 70
     1
102
RTVSPropertyOp15
 70
     1
102
RTVSPropertyOp16
 70
     1
102
RTVSPropertyOp17
 70
     1
102
RTVSPropertyOp18
 70
     1
102
RTVSPropertyOp19
 70
     1
102
RTVSPropertyOp20
 70
     1
102
RTVSPropertyOp21
 70
     1
102
RTVSPropertyOp22
 70
     1
102
RTVSPropertyOp23
 70
     1
102
RTVSPropertyOp24
 70
     1
102
RTVSPropertyOp25
 70
     1
102
RTVSPropertyOp26
 70
     1
102
RTVSPropertyOp27
 70
     1
102
RTVSPropertyOp28
 70
     1
102
RTVSPropertyOp29
 70
     1
102
RTVSPropertyOp30
 70
     1
102
RTVSPropertyOp31
 70
     1
102
RTVSPropertyOp32
 70
     1
102
RTVSPropertyOp33
 70
     1
102
RTVSPropertyOp34
 70
     1
102
RTVSPropertyOp35
 70
     1
102
RTVSPropertyOp36
 70
     1
102
RTVSPropertyOp37
 70
     1
102
RTVSPropertyOp38
 70
     1
102
RTVSPropertyOp39
 70
     1
102
RTVSPropertyOp40
 70
     1
102
RTVSPropertyOp41
 70
     1
102
RTVSPropertyOp42
 70
     1
102
RTVSPropertyOp43
 70
     1
102
RTVSPropertyOp44
 70
     1
102
RTVSPropertyOp45
 70
     1
102
RTVSPropertyOp46
 70
     1
102
RTVSPropertyOp47
 70
     1
102
RTVSPropertyOp48
 70
     1
102
RTVSPropertyOp49
 70
     1
102
RTVSPropertyOp50
 70
     1
102
RTVSPropertyOp51
 70
     0
102
RTVSPropertyOp52
 70
     0
102
RTVSPropertyOp53
 70
     1
102
RTVSPropertyOp54
 70
     1
102
RTVSPropertyOp55
 70
     1
102
RTVSPropertyOp56
 70
     1
102
RTVSPropertyOp57
 70
     1
102
RTVSPropertyOp58
 70
     1
102
RTVSPropertyOp59
 70
     1
102
RTVSPropertyOp60
 70
     1
102
RTVSPropertyOp61
 70
     1
102
RTVSPropertyOp62
 70
     1
  0
XRECORD
  5
1747
102
{ACAD_REACTORS
330
1746
102
}
330
1746
100
AcDbXrecord
280
     1
102
RTVSPost2010Prop28
280
     0
102
RTVSPost2010PropOp28
 70
     1
102
RTVSPost2010Prop29
280
     1
102
RTVSPost2010PropOp29
 70
     1
102
RTVSPost2010Prop30
280
     1
102
RTVSPost2010PropOp30
 70
     1
102
RTVSPost2010Prop31
280
     0
102
RTVSPost2010PropOp31
 70
     1
102
RTVSPost2010Prop32
280
     0
102
RTVSPost2010PropOp32
 70
     1
102
RTVSPost2010Prop33
280
     0
102
RTVSPost2010PropOp33
 70
     1
102
RTVSPost2010Prop34
280
     0
102
RTVSPost2010PropOp34
 70
     1
102
RTVSPost2010Prop35
280
     0
102
RTVSPost2010PropOp35
 70
     1
102
RTVSPost2010Prop36
280
     0
102
RTVSPost2010PropOp36
 70
     1
102
RTVSPost2010Prop37
 90
       50
102
RTVSPost2010PropOp37
 70
     1
102
RTVSPost2010Prop38
140
0.0
102
RTVSPost2010PropOp38
 70
     1
102
RTVSPost2010Prop39
140
1.0
102
RTVSPost2010PropOp39
 70
     1
102
RTVSPost2010Prop40
 90
        0
102
RTVSPost2010PropOp40
 70
     1
102
RTVSPost2010Prop41ColorIndex
 90
       18
102
RTVSPost2010Prop41ColorRGB
 90
        0
102
RTVSPost2010PropOp41
 70
     1
102
RTVSPost2010Prop42
 90
       50
102
RTVSPost2010PropOp42
 70
     1
102
RTVSPost2010Prop43
 90
        3
102
RTVSPost2010PropOp43
 70
     1
102
RTVSPost2010Prop44ColorIndex
 90
        5
102
RTVSPost2010Prop44ColorRGB
 90
      255
102
RTVSPost2010PropOp44
 70
     1
102
RTVSPost2010Prop45
280
     0
102
RTVSPost2010PropOp45
 70
     1
102
RTVSPost2010Prop46
 90
       50
102
RTVSPost2010PropOp46
 70
     1
102
RTVSPost2010Prop47
 90
       50
102
RTVSPost2010PropOp47
 70
     1
102
RTVSPost2010Prop48
 90
       50
102
RTVSPost2010PropOp48
 70
     1
102
RTVSPost2010Prop49
280
     0
102
RTVSPost2010PropOp49
 70
     1
102
RTVSPost2010Prop50
 90
       50
102
RTVSPost2010PropOp50
 70
     1
102
RTVSPost2010Prop51ColorIndex
 90
      256
102
RTVSPost2010Prop51ColorRGB
 90
-16777216
102
RTVSPost2010PropOp51
 70
     0
102
RTVSPost2010Prop52
140
1.0
102
RTVSPost2010PropOp52
 70
     0
102
RTVSPost2010Prop53
 90
        2
102
RTVSPost2010PropOp53
 70
     1
102
RTVSPost2010Prop54
  1
strokes_ogs.tif
102
RTVSPost2010PropOp54
 70
     1
102
RTVSPost2010Prop55
280
     0
102
RTVSPost2010PropOp55
 70
     1
102
RTVSPost2010Prop56
140
1.0
102
RTVSPost2010PropOp56
 70
     1
102
RTVSPost2010Prop57
140
1.0
102
RTVSPost2010PropOp57
 70
     1
102
RTVSPropertyOp0
 70
     1
102
RTVSPropertyOp1
 70
     1
102
RTVSPropertyOp2
 70
     1
102
RTVSPropertyOp3
 70
     1
102
RTVSPropertyOp4
 70
     1
102
RTVSPropertyOp5
 70
     1
102
RTVSPropertyOp6
 70
     1
102
RTVSPropertyOp7
 70
     1
102
RTVSPropertyOp8
 70
     1
102
RTVSPropertyOp9
 70
     1
102
RTVSPropertyOp10
 70
     1
102
RTVSPropertyOp11
 70
     1
102
RTVSPropertyOp12
 70
     1
102
RTVSPropertyOp13
 70
     1
102
RTVSPropertyOp14
 70
     1
102
RTVSPropertyOp15
 70
     1
102
RTVSPropertyOp16
 70
     1
102
RTVSPropertyOp17
 70
     1
102
RTVSPropertyOp18
 70
     1
102
RTVSPropertyOp19
 70
     1
102
RTVSPropertyOp20
 70
     1
102
RTVSPropertyOp21
 70
     1
102
RTVSPropertyOp22
 70
     1
102
RTVSPropertyOp23
 70
     1
102
RTVSPropertyOp24
 70
     1
102
RTVSPropertyOp25
 70
     1
102
RTVSPropertyOp26
 70
     1
102
RTVSPropertyOp27
 70
     1
102
RTVSPropertyOp28
 70
     1
102
RTVSPropertyOp29
 70
     1
102
RTVSPropertyOp30
 70
     1
102
RTVSPropertyOp31
 70
     1
102
RTVSPropertyOp32
 70
     1
102
RTVSPropertyOp33
 70
     1
102
RTVSPropertyOp34
 70
     1
102
RTVSPropertyOp35
 70
     1
102
RTVSPropertyOp36
 70
     1
102
RTVSPropertyOp37
 70
     1
102
RTVSPropertyOp38
 70
     1
102
RTVSPropertyOp39
 70
     1
102
RTVSPropertyOp40
 70
     1
102
RTVSPropertyOp41
 70
     1
102
RTVSPropertyOp42
 70
     1
102
RTVSPropertyOp43
 70
     1
102
RTVSPropertyOp44
 70
     1
102
RTVSPropertyOp45
 70
     1
102
RTVSPropertyOp46
 70
     1
102
RTVSPropertyOp47
 70
     1
102
RTVSPropertyOp48
 70
     1
102
RTVSPropertyOp49
 70
     1
102
RTVSPropertyOp50
 70
     1
102
RTVSPropertyOp51
 70
     0
102
RTVSPropertyOp52
 70
     0
102
RTVSPropertyOp53
 70
     1
102
RTVSPropertyOp54
 70
     1
102
RTVSPropertyOp55
 70
     1
102
RTVSPropertyOp56
 70
     1
102
RTVSPropertyOp57
 70
     1
102
RTVSPropertyOp58
 70
     1
102
RTVSPropertyOp59
 70
     1
102
RTVSPropertyOp60
 70
     1
102
RTVSPropertyOp61
 70
     1
102
RTVSPropertyOp62
 70
     1
  0
XRECORD
  5
1749
102
{ACAD_REACTORS
330
1748
102
}
330
1748
100
AcDbXrecord
280
     1
102
RTVSPost2010Prop28
280
     0
102
RTVSPost2010PropOp28
 70
     1
102
RTVSPost2010Prop29
280
     1
102
RTVSPost2010PropOp29
 70
     1
102
RTVSPost2010Prop30
280
     1
102
RTVSPost2010PropOp30
 70
     1
102
RTVSPost2010Prop31
280
     0
102
RTVSPost2010PropOp31
 70
     1
102
RTVSPost2010Prop32
280
     0
102
RTVSPost2010PropOp32
 70
     1
102
RTVSPost2010Prop33
280
     0
102
RTVSPost2010PropOp33
 70
     1
102
RTVSPost2010Prop34
280
     0
102
RTVSPost2010PropOp34
 70
     1
102
RTVSPost2010Prop35
280
     0
102
RTVSPost2010PropOp35
 70
     1
102
RTVSPost2010Prop36
280
     0
102
RTVSPost2010PropOp36
 70
     1
102
RTVSPost2010Prop37
 90
       50
102
RTVSPost2010PropOp37
 70
     1
102
RTVSPost2010Prop38
140
0.0
102
RTVSPost2010PropOp38
 70
     1
102
RTVSPost2010Prop39
140
1.0
102
RTVSPost2010PropOp39
 70
     1
102
RTVSPost2010Prop40
 90
        0
102
RTVSPost2010PropOp40
 70
     1
102
RTVSPost2010Prop41ColorIndex
 90
       18
102
RTVSPost2010Prop41ColorRGB
 90
        0
102
RTVSPost2010PropOp41
 70
     1
102
RTVSPost2010Prop42
 90
       50
102
RTVSPost2010PropOp42
 70
     1
102
RTVSPost2010Prop43
 90
        3
102
RTVSPost2010PropOp43
 70
     1
102
RTVSPost2010Prop44ColorIndex
 90
        5
102
RTVSPost2010Prop44ColorRGB
 90
      255
102
RTVSPost2010PropOp44
 70
     1
102
RTVSPost2010Prop45
280
     0
102
RTVSPost2010PropOp45
 70
     1
102
RTVSPost2010Prop46
 90
       50
102
RTVSPost2010PropOp46
 70
     1
102
RTVSPost2010Prop47
 90
       50
102
RTVSPost2010PropOp47
 70
     1
102
RTVSPost2010Prop48
 90
       50
102
RTVSPost2010PropOp48
 70
     1
102
RTVSPost2010Prop49
280
     0
102
RTVSPost2010PropOp49
 70
     1
102
RTVSPost2010Prop50
 90
       50
102
RTVSPost2010PropOp50
 70
     1
102
RTVSPost2010Prop51ColorIndex
 90
      256
102
RTVSPost2010Prop51ColorRGB
 90
-16777216
102
RTVSPost2010PropOp51
 70
     0
102
RTVSPost2010Prop52
140
1.0
102
RTVSPost2010PropOp52
 70
     0
102
RTVSPost2010Prop53
 90
        2
102
RTVSPost2010PropOp53
 70
     1
102
RTVSPost2010Prop54
  1
strokes_ogs.tif
102
RTVSPost2010PropOp54
 70
     1
102
RTVSPost2010Prop55
280
     0
102
RTVSPost2010PropOp55
 70
     1
102
RTVSPost2010Prop56
140
1.0
102
RTVSPost2010PropOp56
 70
     1
102
RTVSPost2010Prop57
140
1.0
102
RTVSPost2010PropOp57
 70
     1
102
RTVSPropertyOp0
 70
     1
102
RTVSPropertyOp1
 70
     1
102
RTVSPropertyOp2
 70
     1
102
RTVSPropertyOp3
 70
     1
102
RTVSPropertyOp4
 70
     1
102
RTVSPropertyOp5
 70
     1
102
RTVSPropertyOp6
 70
     1
102
RTVSPropertyOp7
 70
     1
102
RTVSPropertyOp8
 70
     1
102
RTVSPropertyOp9
 70
     1
102
RTVSPropertyOp10
 70
     1
102
RTVSPropertyOp11
 70
     1
102
RTVSPropertyOp12
 70
     1
102
RTVSPropertyOp13
 70
     1
102
RTVSPropertyOp14
 70
     1
102
RTVSPropertyOp15
 70
     1
102
RTVSPropertyOp16
 70
     1
102
RTVSPropertyOp17
 70
     1
102
RTVSPropertyOp18
 70
     1
102
RTVSPropertyOp19
 70
     1
102
RTVSPropertyOp20
 70
     1
102
RTVSPropertyOp21
 70
     1
102
RTVSPropertyOp22
 70
     1
102
RTVSPropertyOp23
 70
     1
102
RTVSPropertyOp24
 70
     1
102
RTVSPropertyOp25
 70
     1
102
RTVSPropertyOp26
 70
     1
102
RTVSPropertyOp27
 70
     1
102
RTVSPropertyOp28
 70
     1
102
RTVSPropertyOp29
 70
     1
102
RTVSPropertyOp30
 70
     1
102
RTVSPropertyOp31
 70
     1
102
RTVSPropertyOp32
 70
     1
102
RTVSPropertyOp33
 70
     1
102
RTVSPropertyOp34
 70
     1
102
RTVSPropertyOp35
 70
     1
102
RTVSPropertyOp36
 70
     1
102
RTVSPropertyOp37
 70
     1
102
RTVSPropertyOp38
 70
     1
102
RTVSPropertyOp39
 70
     1
102
RTVSPropertyOp40
 70
     1
102
RTVSPropertyOp41
 70
     1
102
RTVSPropertyOp42
 70
     1
102
RTVSPropertyOp43
 70
     1
102
RTVSPropertyOp44
 70
     1
102
RTVSPropertyOp45
 70
     1
102
RTVSPropertyOp46
 70
     1
102
RTVSPropertyOp47
 70
     1
102
RTVSPropertyOp48
 70
     1
102
RTVSPropertyOp49
 70
     1
102
RTVSPropertyOp50
 70
     1
102
RTVSPropertyOp51
 70
     0
102
RTVSPropertyOp52
 70
     0
102
RTVSPropertyOp53
 70
     1
102
RTVSPropertyOp54
 70
     1
102
RTVSPropertyOp55
 70
     1
102
RTVSPropertyOp56
 70
     1
102
RTVSPropertyOp57
 70
     1
102
RTVSPropertyOp58
 70
     1
102
RTVSPropertyOp59
 70
     1
102
RTVSPropertyOp60
 70
     1
102
RTVSPropertyOp61
 70
     1
102
RTVSPropertyOp62
 70
     1
  0
XRECORD
  5
174B
102
{ACAD_REACTORS
330
174A
102
}
330
174A
100
AcDbXrecord
280
     1
102
RTVSPost2010Prop28
280
     0
102
RTVSPost2010PropOp28
 70
     1
102
RTVSPost2010Prop29
280
     1
102
RTVSPost2010PropOp29
 70
     1
102
RTVSPost2010Prop30
280
     1
102
RTVSPost2010PropOp30
 70
     1
102
RTVSPost2010Prop31
280
     0
102
RTVSPost2010PropOp31
 70
     1
102
RTVSPost2010Prop32
280
     0
102
RTVSPost2010PropOp32
 70
     1
102
RTVSPost2010Prop33
280
     0
102
RTVSPost2010PropOp33
 70
     1
102
RTVSPost2010Prop34
280
     0
102
RTVSPost2010PropOp34
 70
     1
102
RTVSPost2010Prop35
280
     0
102
RTVSPost2010PropOp35
 70
     1
102
RTVSPost2010Prop36
280
     0
102
RTVSPost2010PropOp36
 70
     1
102
RTVSPost2010Prop37
 90
       50
102
RTVSPost2010PropOp37
 70
     1
102
RTVSPost2010Prop38
140
0.0
102
RTVSPost2010PropOp38
 70
     1
102
RTVSPost2010Prop39
140
1.0
102
RTVSPost2010PropOp39
 70
     1
102
RTVSPost2010Prop40
 90
        0
102
RTVSPost2010PropOp40
 70
     1
102
RTVSPost2010Prop41ColorIndex
 90
       18
102
RTVSPost2010Prop41ColorRGB
 90
        0
102
RTVSPost2010PropOp41
 70
     1
102
RTVSPost2010Prop42
 90
       50
102
RTVSPost2010PropOp42
 70
     1
102
RTVSPost2010Prop43
 90
        3
102
RTVSPost2010PropOp43
 70
     1
102
RTVSPost2010Prop44ColorIndex
 90
        5
102
RTVSPost2010Prop44ColorRGB
 90
      255
102
RTVSPost2010PropOp44
 70
     1
102
RTVSPost2010Prop45
280
     0
102
RTVSPost2010PropOp45
 70
     1
102
RTVSPost2010Prop46
 90
       50
102
RTVSPost2010PropOp46
 70
     1
102
RTVSPost2010Prop47
 90
       50
102
RTVSPost2010PropOp47
 70
     1
102
RTVSPost2010Prop48
 90
       50
102
RTVSPost2010PropOp48
 70
     1
102
RTVSPost2010Prop49
280
     0
102
RTVSPost2010PropOp49
 70
     1
102
RTVSPost2010Prop50
 90
       50
102
RTVSPost2010PropOp50
 70
     1
102
RTVSPost2010Prop51ColorIndex
 90
      256
102
RTVSPost2010Prop51ColorRGB
 90
-16777216
102
RTVSPost2010PropOp51
 70
     0
102
RTVSPost2010Prop52
140
1.0
102
RTVSPost2010PropOp52
 70
     0
102
RTVSPost2010Prop53
 90
        2
102
RTVSPost2010PropOp53
 70
     1
102
RTVSPost2010Prop54
  1
strokes_ogs.tif
102
RTVSPost2010PropOp54
 70
     1
102
RTVSPost2010Prop55
280
     0
102
RTVSPost2010PropOp55
 70
     1
102
RTVSPost2010Prop56
140
1.0
102
RTVSPost2010PropOp56
 70
     1
102
RTVSPost2010Prop57
140
1.0
102
RTVSPost2010PropOp57
 70
     1
102
RTVSPropertyOp0
 70
     1
102
RTVSPropertyOp1
 70
     1
102
RTVSPropertyOp2
 70
     1
102
RTVSPropertyOp3
 70
     1
102
RTVSPropertyOp4
 70
     1
102
RTVSPropertyOp5
 70
     1
102
RTVSPropertyOp6
 70
     1
102
RTVSPropertyOp7
 70
     1
102
RTVSPropertyOp8
 70
     1
102
RTVSPropertyOp9
 70
     1
102
RTVSPropertyOp10
 70
     1
102
RTVSPropertyOp11
 70
     1
102
RTVSPropertyOp12
 70
     1
102
RTVSPropertyOp13
 70
     1
102
RTVSPropertyOp14
 70
     1
102
RTVSPropertyOp15
 70
     1
102
RTVSPropertyOp16
 70
     1
102
RTVSPropertyOp17
 70
     1
102
RTVSPropertyOp18
 70
     1
102
RTVSPropertyOp19
 70
     1
102
RTVSPropertyOp20
 70
     1
102
RTVSPropertyOp21
 70
     1
102
RTVSPropertyOp22
 70
     1
102
RTVSPropertyOp23
 70
     1
102
RTVSPropertyOp24
 70
     1
102
RTVSPropertyOp25
 70
     1
102
RTVSPropertyOp26
 70
     1
102
RTVSPropertyOp27
 70
     1
102
RTVSPropertyOp28
 70
     1
102
RTVSPropertyOp29
 70
     1
102
RTVSPropertyOp30
 70
     1
102
RTVSPropertyOp31
 70
     1
102
RTVSPropertyOp32
 70
     1
102
RTVSPropertyOp33
 70
     1
102
RTVSPropertyOp34
 70
     1
102
RTVSPropertyOp35
 70
     1
102
RTVSPropertyOp36
 70
     1
102
RTVSPropertyOp37
 70
     1
102
RTVSPropertyOp38
 70
     1
102
RTVSPropertyOp39
 70
     1
102
RTVSPropertyOp40
 70
     1
102
RTVSPropertyOp41
 70
     1
102
RTVSPropertyOp42
 70
     1
102
RTVSPropertyOp43
 70
     1
102
RTVSPropertyOp44
 70
     1
102
RTVSPropertyOp45
 70
     1
102
RTVSPropertyOp46
 70
     1
102
RTVSPropertyOp47
 70
     1
102
RTVSPropertyOp48
 70
     1
102
RTVSPropertyOp49
 70
     1
102
RTVSPropertyOp50
 70
     1
102
RTVSPropertyOp51
 70
     0
102
RTVSPropertyOp52
 70
     0
102
RTVSPropertyOp53
 70
     1
102
RTVSPropertyOp54
 70
     1
102
RTVSPropertyOp55
 70
     1
102
RTVSPropertyOp56
 70
     1
102
RTVSPropertyOp57
 70
     1
102
RTVSPropertyOp58
 70
     1
102
RTVSPropertyOp59
 70
     1
102
RTVSPropertyOp60
 70
     1
102
RTVSPropertyOp61
 70
     1
102
RTVSPropertyOp62
 70
     1
  0
XRECORD
  5
1753
102
{ACAD_REACTORS
330
1752
102
}
330
1752
100
AcDbXrecord
280
     1
102
RTVSPost2010Prop28
280
     0
102
RTVSPost2010PropOp28
 70
     1
102
RTVSPost2010Prop29
280
     1
102
RTVSPost2010PropOp29
 70
     1
102
RTVSPost2010Prop30
280
     1
102
RTVSPost2010PropOp30
 70
     1
102
RTVSPost2010Prop31
280
     0
102
RTVSPost2010PropOp31
 70
     1
102
RTVSPost2010Prop32
280
     0
102
RTVSPost2010PropOp32
 70
     1
102
RTVSPost2010Prop33
280
     0
102
RTVSPost2010PropOp33
 70
     1
102
RTVSPost2010Prop34
280
     0
102
RTVSPost2010PropOp34
 70
     1
102
RTVSPost2010Prop35
280
     0
102
RTVSPost2010PropOp35
 70
     1
102
RTVSPost2010Prop36
280
     0
102
RTVSPost2010PropOp36
 70
     1
102
RTVSPost2010Prop37
 90
       50
102
RTVSPost2010PropOp37
 70
     1
102
RTVSPost2010Prop38
140
0.0
102
RTVSPost2010PropOp38
 70
     1
102
RTVSPost2010Prop39
140
1.0
102
RTVSPost2010PropOp39
 70
     1
102
RTVSPost2010Prop40
 90
        0
102
RTVSPost2010PropOp40
 70
     1
102
RTVSPost2010Prop41ColorIndex
 90
       18
102
RTVSPost2010Prop41ColorRGB
 90
        0
102
RTVSPost2010PropOp41
 70
     1
102
RTVSPost2010Prop42
 90
       50
102
RTVSPost2010PropOp42
 70
     1
102
RTVSPost2010Prop43
 90
        3
102
RTVSPost2010PropOp43
 70
     1
102
RTVSPost2010Prop44ColorIndex
 90
        5
102
RTVSPost2010Prop44ColorRGB
 90
      255
102
RTVSPost2010PropOp44
 70
     1
102
RTVSPost2010Prop45
280
     0
102
RTVSPost2010PropOp45
 70
     1
102
RTVSPost2010Prop46
 90
       50
102
RTVSPost2010PropOp46
 70
     1
102
RTVSPost2010Prop47
 90
       50
102
RTVSPost2010PropOp47
 70
     1
102
RTVSPost2010Prop48
 90
       50
102
RTVSPost2010PropOp48
 70
     1
102
RTVSPost2010Prop49
280
     0
102
RTVSPost2010PropOp49
 70
     1
102
RTVSPost2010Prop50
 90
       50
102
RTVSPost2010PropOp50
 70
     1
102
RTVSPost2010Prop51ColorIndex
 90
      256
102
RTVSPost2010Prop51ColorRGB
 90
-16777216
102
RTVSPost2010PropOp51
 70
     0
102
RTVSPost2010Prop52
140
1.0
102
RTVSPost2010PropOp52
 70
     0
102
RTVSPost2010Prop53
 90
        2
102
RTVSPost2010PropOp53
 70
     1
102
RTVSPost2010Prop54
  1
strokes_ogs.tif
102
RTVSPost2010PropOp54
 70
     1
102
RTVSPost2010Prop55
280
     0
102
RTVSPost2010PropOp55
 70
     1
102
RTVSPost2010Prop56
140
1.0
102
RTVSPost2010PropOp56
 70
     1
102
RTVSPost2010Prop57
140
1.0
102
RTVSPost2010PropOp57
 70
     1
102
RTVSPropertyOp0
 70
     1
102
RTVSPropertyOp1
 70
     1
102
RTVSPropertyOp2
 70
     1
102
RTVSPropertyOp3
 70
     1
102
RTVSPropertyOp4
 70
     1
102
RTVSPropertyOp5
 70
     1
102
RTVSPropertyOp6
 70
     1
102
RTVSPropertyOp7
 70
     1
102
RTVSPropertyOp8
 70
     1
102
RTVSPropertyOp9
 70
     1
102
RTVSPropertyOp10
 70
     1
102
RTVSPropertyOp11
 70
     1
102
RTVSPropertyOp12
 70
     1
102
RTVSPropertyOp13
 70
     1
102
RTVSPropertyOp14
 70
     1
102
RTVSPropertyOp15
 70
     1
102
RTVSPropertyOp16
 70
     1
102
RTVSPropertyOp17
 70
     1
102
RTVSPropertyOp18
 70
     1
102
RTVSPropertyOp19
 70
     1
102
RTVSPropertyOp20
 70
     1
102
RTVSPropertyOp21
 70
     1
102
RTVSPropertyOp22
 70
     1
102
RTVSPropertyOp23
 70
     1
102
RTVSPropertyOp24
 70
     1
102
RTVSPropertyOp25
 70
     1
102
RTVSPropertyOp26
 70
     1
102
RTVSPropertyOp27
 70
     1
102
RTVSPropertyOp28
 70
     1
102
RTVSPropertyOp29
 70
     1
102
RTVSPropertyOp30
 70
     1
102
RTVSPropertyOp31
 70
     1
102
RTVSPropertyOp32
 70
     1
102
RTVSPropertyOp33
 70
     1
102
RTVSPropertyOp34
 70
     1
102
RTVSPropertyOp35
 70
     1
102
RTVSPropertyOp36
 70
     1
102
RTVSPropertyOp37
 70
     1
102
RTVSPropertyOp38
 70
     1
102
RTVSPropertyOp39
 70
     1
102
RTVSPropertyOp40
 70
     1
102
RTVSPropertyOp41
 70
     1
102
RTVSPropertyOp42
 70
     1
102
RTVSPropertyOp43
 70
     1
102
RTVSPropertyOp44
 70
     1
102
RTVSPropertyOp45
 70
     1
102
RTVSPropertyOp46
 70
     1
102
RTVSPropertyOp47
 70
     1
102
RTVSPropertyOp48
 70
     1
102
RTVSPropertyOp49
 70
     1
102
RTVSPropertyOp50
 70
     1
102
RTVSPropertyOp51
 70
     0
102
RTVSPropertyOp52
 70
     0
102
RTVSPropertyOp53
 70
     1
102
RTVSPropertyOp54
 70
     1
102
RTVSPropertyOp55
 70
     1
102
RTVSPropertyOp56
 70
     1
102
RTVSPropertyOp57
 70
     1
102
RTVSPropertyOp58
 70
     1
102
RTVSPropertyOp59
 70
     1
102
RTVSPropertyOp60
 70
     1
102
RTVSPropertyOp61
 70
     1
102
RTVSPropertyOp62
 70
     1
  0
XRECORD
  5
176F
102
{ACAD_REACTORS
330
176E
102
}
330
176E
100
AcDbXrecord
280
     1
102
RTVSPost2010Prop28
280
     0
102
RTVSPost2010PropOp28
 70
     0
102
RTVSPost2010Prop29
280
     1
102
RTVSPost2010PropOp29
 70
     0
102
RTVSPost2010Prop30
280
     1
102
RTVSPost2010PropOp30
 70
     0
102
RTVSPost2010Prop31
280
     0
102
RTVSPost2010PropOp31
 70
     0
102
RTVSPost2010Prop32
280
     0
102
RTVSPost2010PropOp32
 70
     0
102
RTVSPost2010Prop33
280
     0
102
RTVSPost2010PropOp33
 70
     0
102
RTVSPost2010Prop34
280
     0
102
RTVSPost2010PropOp34
 70
     0
102
RTVSPost2010Prop35
280
     0
102
RTVSPost2010PropOp35
 70
     0
102
RTVSPost2010Prop36
280
     0
102
RTVSPost2010PropOp36
 70
     0
102
RTVSPost2010Prop37
 90
       50
102
RTVSPost2010PropOp37
 70
     0
102
RTVSPost2010Prop38
140
0.0
102
RTVSPost2010PropOp38
 70
     0
102
RTVSPost2010Prop39
140
1.0
102
RTVSPost2010PropOp39
 70
     0
102
RTVSPost2010Prop40
 90
        0
102
RTVSPost2010PropOp40
 70
     0
102
RTVSPost2010Prop41ColorIndex
 90
       18
102
RTVSPost2010Prop41ColorRGB
 90
        0
102
RTVSPost2010PropOp41
 70
     0
102
RTVSPost2010Prop42
 90
       50
102
RTVSPost2010PropOp42
 70
     0
102
RTVSPost2010Prop43
 90
        3
102
RTVSPost2010PropOp43
 70
     0
102
RTVSPost2010Prop44ColorIndex
 90
        5
102
RTVSPost2010Prop44ColorRGB
 90
      255
102
RTVSPost2010PropOp44
 70
     0
102
RTVSPost2010Prop45
280
     0
102
RTVSPost2010PropOp45
 70
     0
102
RTVSPost2010Prop46
 90
       50
102
RTVSPost2010PropOp46
 70
     0
102
RTVSPost2010Prop47
 90
       50
102
RTVSPost2010PropOp47
 70
     0
102
RTVSPost2010Prop48
 90
       50
102
RTVSPost2010PropOp48
 70
     0
102
RTVSPost2010Prop49
280
     0
102
RTVSPost2010PropOp49
 70
     0
102
RTVSPost2010Prop50
 90
       50
102
RTVSPost2010PropOp50
 70
     0
102
RTVSPost2010Prop51ColorIndex
 90
      256
102
RTVSPost2010Prop51ColorRGB
 90
-16777216
102
RTVSPost2010PropOp51
 70
     0
102
RTVSPost2010Prop52
140
1.0
102
RTVSPost2010PropOp52
 70
     0
102
RTVSPost2010Prop53
 90
        2
102
RTVSPost2010PropOp53
 70
     0
102
RTVSPost2010Prop54
  1
strokes_ogs.tif
102
RTVSPost2010PropOp54
 70
     0
102
RTVSPost2010Prop55
280
     0
102
RTVSPost2010PropOp55
 70
     0
102
RTVSPost2010Prop56
140
1.0
102
RTVSPost2010PropOp56
 70
     0
102
RTVSPost2010Prop57
140
1.0
102
RTVSPost2010PropOp57
 70
     0
102
RTVSPropertyOp0
 70
     0
102
RTVSPropertyOp1
 70
     0
102
RTVSPropertyOp2
 70
     0
102
RTVSPropertyOp3
 70
     0
102
RTVSPropertyOp4
 70
     0
102
RTVSPropertyOp5
 70
     0
102
RTVSPropertyOp6
 70
     0
102
RTVSPropertyOp7
 70
     0
102
RTVSPropertyOp8
 70
     0
102
RTVSPropertyOp9
 70
     0
102
RTVSPropertyOp10
 70
     0
102
RTVSPropertyOp11
 70
     0
102
RTVSPropertyOp12
 70
     0
102
RTVSPropertyOp13
 70
     0
102
RTVSPropertyOp14
 70
     2
102
RTVSPropertyOp15
 70
     0
102
RTVSPropertyOp16
 70
     0
102
RTVSPropertyOp17
 70
     0
102
RTVSPropertyOp18
 70
     0
102
RTVSPropertyOp19
 70
     0
102
RTVSPropertyOp20
 70
     0
102
RTVSPropertyOp21
 70
     0
102
RTVSPropertyOp22
 70
     0
102
RTVSPropertyOp23
 70
     0
102
RTVSPropertyOp24
 70
     0
102
RTVSPropertyOp25
 70
     0
102
RTVSPropertyOp26
 70
     0
102
RTVSPropertyOp27
 70
     0
102
RTVSPropertyOp28
 70
     0
102
RTVSPropertyOp29
 70
     0
102
RTVSPropertyOp30
 70
     0
102
RTVSPropertyOp31
 70
     0
102
RTVSPropertyOp32
 70
     0
102
RTVSPropertyOp33
 70
     0
102
RTVSPropertyOp34
 70
     0
102
RTVSPropertyOp35
 70
     0
102
RTVSPropertyOp36
 70
     0
102
RTVSPropertyOp37
 70
     0
102
RTVSPropertyOp38
 70
     0
102
RTVSPropertyOp39
 70
     0
102
RTVSPropertyOp40
 70
     0
102
RTVSPropertyOp41
 70
     0
102
RTVSPropertyOp42
 70
     0
102
RTVSPropertyOp43
 70
     0
102
RTVSPropertyOp44
 70
     0
102
RTVSPropertyOp45
 70
     0
102
RTVSPropertyOp46
 70
     0
102
RTVSPropertyOp47
 70
     0
102
RTVSPropertyOp48
 70
     0
102
RTVSPropertyOp49
 70
     0
102
RTVSPropertyOp50
 70
     0
102
RTVSPropertyOp51
 70
     0
102
RTVSPropertyOp52
 70
     0
102
RTVSPropertyOp53
 70
     0
102
RTVSPropertyOp54
 70
     0
102
RTVSPropertyOp55
 70
     0
102
RTVSPropertyOp56
 70
     0
102
RTVSPropertyOp57
 70
     0
102
RTVSPropertyOp58
 70
     0
102
RTVSPropertyOp59
 70
     0
102
RTVSPropertyOp60
 70
     0
102
RTVSPropertyOp61
 70
     0
102
RTVSPropertyOp62
 70
     0
  0
XRECORD
  5
175F
102
{ACAD_REACTORS
330
175E
102
}
330
175E
100
AcDbXrecord
280
     1
102
RTVSPost2010Prop28
280
     0
102
RTVSPost2010PropOp28
 70
     1
102
RTVSPost2010Prop29
280
     1
102
RTVSPost2010PropOp29
 70
     1
102
RTVSPost2010Prop30
280
     1
102
RTVSPost2010PropOp30
 70
     1
102
RTVSPost2010Prop31
280
     0
102
RTVSPost2010PropOp31
 70
     1
102
RTVSPost2010Prop32
280
     0
102
RTVSPost2010PropOp32
 70
     1
102
RTVSPost2010Prop33
280
     0
102
RTVSPost2010PropOp33
 70
     1
102
RTVSPost2010Prop34
280
     0
102
RTVSPost2010PropOp34
 70
     1
102
RTVSPost2010Prop35
280
     0
102
RTVSPost2010PropOp35
 70
     1
102
RTVSPost2010Prop36
280
     0
102
RTVSPost2010PropOp36
 70
     1
102
RTVSPost2010Prop37
 90
       50
102
RTVSPost2010PropOp37
 70
     1
102
RTVSPost2010Prop38
140
0.0
102
RTVSPost2010PropOp38
 70
     1
102
RTVSPost2010Prop39
140
1.0
102
RTVSPost2010PropOp39
 70
     1
102
RTVSPost2010Prop40
 90
        0
102
RTVSPost2010PropOp40
 70
     1
102
RTVSPost2010Prop41ColorIndex
 90
       18
102
RTVSPost2010Prop41ColorRGB
 90
        0
102
RTVSPost2010PropOp41
 70
     1
102
RTVSPost2010Prop42
 90
       50
102
RTVSPost2010PropOp42
 70
     1
102
RTVSPost2010Prop43
 90
        3
102
RTVSPost2010PropOp43
 70
     1
102
RTVSPost2010Prop44ColorIndex
 90
        5
102
RTVSPost2010Prop44ColorRGB
 90
      255
102
RTVSPost2010PropOp44
 70
     1
102
RTVSPost2010Prop45
280
     0
102
RTVSPost2010PropOp45
 70
     1
102
RTVSPost2010Prop46
 90
       50
102
RTVSPost2010PropOp46
 70
     1
102
RTVSPost2010Prop47
 90
       50
102
RTVSPost2010PropOp47
 70
     1
102
RTVSPost2010Prop48
 90
       50
102
RTVSPost2010PropOp48
 70
     1
102
RTVSPost2010Prop49
280
     0
102
RTVSPost2010PropOp49
 70
     1
102
RTVSPost2010Prop50
 90
       50
102
RTVSPost2010PropOp50
 70
     1
102
RTVSPost2010Prop51ColorIndex
 90
      256
102
RTVSPost2010Prop51ColorRGB
 90
-16777216
102
RTVSPost2010PropOp51
 70
     0
102
RTVSPost2010Prop52
140
1.0
102
RTVSPost2010PropOp52
 70
     0
102
RTVSPost2010Prop53
 90
        2
102
RTVSPost2010PropOp53
 70
     1
102
RTVSPost2010Prop54
  1
strokes_ogs.tif
102
RTVSPost2010PropOp54
 70
     1
102
RTVSPost2010Prop55
280
     0
102
RTVSPost2010PropOp55
 70
     1
102
RTVSPost2010Prop56
140
1.0
102
RTVSPost2010PropOp56
 70
     1
102
RTVSPost2010Prop57
140
1.0
102
RTVSPost2010PropOp57
 70
     1
102
RTVSPropertyOp0
 70
     1
102
RTVSPropertyOp1
 70
     1
102
RTVSPropertyOp2
 70
     1
102
RTVSPropertyOp3
 70
     1
102
RTVSPropertyOp4
 70
     1
102
RTVSPropertyOp5
 70
     1
102
RTVSPropertyOp6
 70
     1
102
RTVSPropertyOp7
 70
     1
102
RTVSPropertyOp8
 70
     1
102
RTVSPropertyOp9
 70
     1
102
RTVSPropertyOp10
 70
     1
102
RTVSPropertyOp11
 70
     1
102
RTVSPropertyOp12
 70
     1
102
RTVSPropertyOp13
 70
     1
102
RTVSPropertyOp14
 70
     1
102
RTVSPropertyOp15
 70
     1
102
RTVSPropertyOp16
 70
     1
102
RTVSPropertyOp17
 70
     1
102
RTVSPropertyOp18
 70
     1
102
RTVSPropertyOp19
 70
     1
102
RTVSPropertyOp20
 70
     1
102
RTVSPropertyOp21
 70
     1
102
RTVSPropertyOp22
 70
     1
102
RTVSPropertyOp23
 70
     1
102
RTVSPropertyOp24
 70
     1
102
RTVSPropertyOp25
 70
     1
102
RTVSPropertyOp26
 70
     1
102
RTVSPropertyOp27
 70
     1
102
RTVSPropertyOp28
 70
     1
102
RTVSPropertyOp29
 70
     1
102
RTVSPropertyOp30
 70
     1
102
RTVSPropertyOp31
 70
     1
102
RTVSPropertyOp32
 70
     1
102
RTVSPropertyOp33
 70
     1
102
RTVSPropertyOp34
 70
     1
102
RTVSPropertyOp35
 70
     1
102
RTVSPropertyOp36
 70
     1
102
RTVSPropertyOp37
 70
     1
102
RTVSPropertyOp38
 70
     1
102
RTVSPropertyOp39
 70
     1
102
RTVSPropertyOp40
 70
     1
102
RTVSPropertyOp41
 70
     1
102
RTVSPropertyOp42
 70
     1
102
RTVSPropertyOp43
 70
     1
102
RTVSPropertyOp44
 70
     1
102
RTVSPropertyOp45
 70
     1
102
RTVSPropertyOp46
 70
     1
102
RTVSPropertyOp47
 70
     1
102
RTVSPropertyOp48
 70
     1
102
RTVSPropertyOp49
 70
     1
102
RTVSPropertyOp50
 70
     1
102
RTVSPropertyOp51
 70
     0
102
RTVSPropertyOp52
 70
     0
102
RTVSPropertyOp53
 70
     1
102
RTVSPropertyOp54
 70
     1
102
RTVSPropertyOp55
 70
     1
102
RTVSPropertyOp56
 70
     1
102
RTVSPropertyOp57
 70
     1
102
RTVSPropertyOp58
 70
     1
102
RTVSPropertyOp59
 70
     1
102
RTVSPropertyOp60
 70
     1
102
RTVSPropertyOp61
 70
     1
102
RTVSPropertyOp62
 70
     1
  0
XRECORD
  5
1771
102
{ACAD_REACTORS
330
1770
102
}
330
1770
100
AcDbXrecord
280
     1
102
RTVSPost2010Prop28
280
     0
102
RTVSPost2010PropOp28
 70
     0
102
RTVSPost2010Prop29
280
     1
102
RTVSPost2010PropOp29
 70
     0
102
RTVSPost2010Prop30
280
     1
102
RTVSPost2010PropOp30
 70
     0
102
RTVSPost2010Prop31
280
     0
102
RTVSPost2010PropOp31
 70
     0
102
RTVSPost2010Prop32
280
     0
102
RTVSPost2010PropOp32
 70
     0
102
RTVSPost2010Prop33
280
     0
102
RTVSPost2010PropOp33
 70
     0
102
RTVSPost2010Prop34
280
     0
102
RTVSPost2010PropOp34
 70
     0
102
RTVSPost2010Prop35
280
     0
102
RTVSPost2010PropOp35
 70
     0
102
RTVSPost2010Prop36
280
     0
102
RTVSPost2010PropOp36
 70
     0
102
RTVSPost2010Prop37
 90
       50
102
RTVSPost2010PropOp37
 70
     0
102
RTVSPost2010Prop38
140
0.0
102
RTVSPost2010PropOp38
 70
     0
102
RTVSPost2010Prop39
140
1.0
102
RTVSPost2010PropOp39
 70
     0
102
RTVSPost2010Prop40
 90
        0
102
RTVSPost2010PropOp40
 70
     0
102
RTVSPost2010Prop41ColorIndex
 90
       18
102
RTVSPost2010Prop41ColorRGB
 90
        0
102
RTVSPost2010PropOp41
 70
     0
102
RTVSPost2010Prop42
 90
       50
102
RTVSPost2010PropOp42
 70
     0
102
RTVSPost2010Prop43
 90
        3
102
RTVSPost2010PropOp43
 70
     0
102
RTVSPost2010Prop44ColorIndex
 90
        5
102
RTVSPost2010Prop44ColorRGB
 90
      255
102
RTVSPost2010PropOp44
 70
     0
102
RTVSPost2010Prop45
280
     0
102
RTVSPost2010PropOp45
 70
     0
102
RTVSPost2010Prop46
 90
       50
102
RTVSPost2010PropOp46
 70
     0
102
RTVSPost2010Prop47
 90
       50
102
RTVSPost2010PropOp47
 70
     0
102
RTVSPost2010Prop48
 90
       50
102
RTVSPost2010PropOp48
 70
     0
102
RTVSPost2010Prop49
280
     0
102
RTVSPost2010PropOp49
 70
     0
102
RTVSPost2010Prop50
 90
       50
102
RTVSPost2010PropOp50
 70
     0
102
RTVSPost2010Prop51ColorIndex
 90
      256
102
RTVSPost2010Prop51ColorRGB
 90
-16777216
102
RTVSPost2010PropOp51
 70
     0
102
RTVSPost2010Prop52
140
1.0
102
RTVSPost2010PropOp52
 70
     0
102
RTVSPost2010Prop53
 90
        2
102
RTVSPost2010PropOp53
 70
     0
102
RTVSPost2010Prop54
  1
strokes_ogs.tif
102
RTVSPost2010PropOp54
 70
     0
102
RTVSPost2010Prop55
280
     0
102
RTVSPost2010PropOp55
 70
     0
102
RTVSPost2010Prop56
140
1.0
102
RTVSPost2010PropOp56
 70
     0
102
RTVSPost2010Prop57
140
1.0
102
RTVSPost2010PropOp57
 70
     0
102
RTVSPropertyOp0
 70
     0
102
RTVSPropertyOp1
 70
     0
102
RTVSPropertyOp2
 70
     0
102
RTVSPropertyOp3
 70
     0
102
RTVSPropertyOp4
 70
     0
102
RTVSPropertyOp5
 70
     0
102
RTVSPropertyOp6
 70
     0
102
RTVSPropertyOp7
 70
     0
102
RTVSPropertyOp8
 70
     0
102
RTVSPropertyOp9
 70
     0
102
RTVSPropertyOp10
 70
     0
102
RTVSPropertyOp11
 70
     0
102
RTVSPropertyOp12
 70
     0
102
RTVSPropertyOp13
 70
     0
102
RTVSPropertyOp14
 70
     2
102
RTVSPropertyOp15
 70
     0
102
RTVSPropertyOp16
 70
     0
102
RTVSPropertyOp17
 70
     0
102
RTVSPropertyOp18
 70
     0
102
RTVSPropertyOp19
 70
     0
102
RTVSPropertyOp20
 70
     0
102
RTVSPropertyOp21
 70
     0
102
RTVSPropertyOp22
 70
     0
102
RTVSPropertyOp23
 70
     0
102
RTVSPropertyOp24
 70
     0
102
RTVSPropertyOp25
 70
     0
102
RTVSPropertyOp26
 70
     0
102
RTVSPropertyOp27
 70
     0
102
RTVSPropertyOp28
 70
     0
102
RTVSPropertyOp29
 70
     0
102
RTVSPropertyOp30
 70
     0
102
RTVSPropertyOp31
 70
     0
102
RTVSPropertyOp32
 70
     0
102
RTVSPropertyOp33
 70
     0
102
RTVSPropertyOp34
 70
     0
102
RTVSPropertyOp35
 70
     0
102
RTVSPropertyOp36
 70
     0
102
RTVSPropertyOp37
 70
     0
102
RTVSPropertyOp38
 70
     0
102
RTVSPropertyOp39
 70
     0
102
RTVSPropertyOp40
 70
     0
102
RTVSPropertyOp41
 70
     0
102
RTVSPropertyOp42
 70
     0
102
RTVSPropertyOp43
 70
     0
102
RTVSPropertyOp44
 70
     0
102
RTVSPropertyOp45
 70
     0
102
RTVSPropertyOp46
 70
     0
102
RTVSPropertyOp47
 70
     0
102
RTVSPropertyOp48
 70
     0
102
RTVSPropertyOp49
 70
     0
102
RTVSPropertyOp50
 70
     0
102
RTVSPropertyOp51
 70
     0
102
RTVSPropertyOp52
 70
     0
102
RTVSPropertyOp53
 70
     0
102
RTVSPropertyOp54
 70
     0
102
RTVSPropertyOp55
 70
     0
102
RTVSPropertyOp56
 70
     0
102
RTVSPropertyOp57
 70
     0
102
RTVSPropertyOp58
 70
     0
102
RTVSPropertyOp59
 70
     0
102
RTVSPropertyOp60
 70
     0
102
RTVSPropertyOp61
 70
     0
102
RTVSPropertyOp62
 70
     0
  0
XRECORD
  5
1757
102
{ACAD_REACTORS
330
1756
102
}
330
1756
100
AcDbXrecord
280
     1
102
RTVSPost2010Prop28
280
     0
102
RTVSPost2010PropOp28
 70
     1
102
RTVSPost2010Prop29
280
     1
102
RTVSPost2010PropOp29
 70
     1
102
RTVSPost2010Prop30
280
     1
102
RTVSPost2010PropOp30
 70
     1
102
RTVSPost2010Prop31
280
     0
102
RTVSPost2010PropOp31
 70
     1
102
RTVSPost2010Prop32
280
     0
102
RTVSPost2010PropOp32
 70
     1
102
RTVSPost2010Prop33
280
     0
102
RTVSPost2010PropOp33
 70
     1
102
RTVSPost2010Prop34
280
     0
102
RTVSPost2010PropOp34
 70
     1
102
RTVSPost2010Prop35
280
     0
102
RTVSPost2010PropOp35
 70
     1
102
RTVSPost2010Prop36
280
     0
102
RTVSPost2010PropOp36
 70
     1
102
RTVSPost2010Prop37
 90
       50
102
RTVSPost2010PropOp37
 70
     1
102
RTVSPost2010Prop38
140
0.0
102
RTVSPost2010PropOp38
 70
     1
102
RTVSPost2010Prop39
140
1.0
102
RTVSPost2010PropOp39
 70
     1
102
RTVSPost2010Prop40
 90
        0
102
RTVSPost2010PropOp40
 70
     1
102
RTVSPost2010Prop41ColorIndex
 90
       18
102
RTVSPost2010Prop41ColorRGB
 90
        0
102
RTVSPost2010PropOp41
 70
     1
102
RTVSPost2010Prop42
 90
       50
102
RTVSPost2010PropOp42
 70
     1
102
RTVSPost2010Prop43
 90
        3
102
RTVSPost2010PropOp43
 70
     1
102
RTVSPost2010Prop44ColorIndex
 90
        5
102
RTVSPost2010Prop44ColorRGB
 90
      255
102
RTVSPost2010PropOp44
 70
     1
102
RTVSPost2010Prop45
280
     0
102
RTVSPost2010PropOp45
 70
     1
102
RTVSPost2010Prop46
 90
       50
102
RTVSPost2010PropOp46
 70
     1
102
RTVSPost2010Prop47
 90
       50
102
RTVSPost2010PropOp47
 70
     1
102
RTVSPost2010Prop48
 90
       50
102
RTVSPost2010PropOp48
 70
     1
102
RTVSPost2010Prop49
280
     0
102
RTVSPost2010PropOp49
 70
     1
102
RTVSPost2010Prop50
 90
       50
102
RTVSPost2010PropOp50
 70
     1
102
RTVSPost2010Prop51ColorIndex
 90
      256
102
RTVSPost2010Prop51ColorRGB
 90
-16777216
102
RTVSPost2010PropOp51
 70
     0
102
RTVSPost2010Prop52
140
1.0
102
RTVSPost2010PropOp52
 70
     0
102
RTVSPost2010Prop53
 90
        2
102
RTVSPost2010PropOp53
 70
     1
102
RTVSPost2010Prop54
  1
strokes_ogs.tif
102
RTVSPost2010PropOp54
 70
     1
102
RTVSPost2010Prop55
280
     0
102
RTVSPost2010PropOp55
 70
     1
102
RTVSPost2010Prop56
140
1.0
102
RTVSPost2010PropOp56
 70
     1
102
RTVSPost2010Prop57
140
1.0
102
RTVSPost2010PropOp57
 70
     1
102
RTVSPropertyOp0
 70
     1
102
RTVSPropertyOp1
 70
     1
102
RTVSPropertyOp2
 70
     1
102
RTVSPropertyOp3
 70
     1
102
RTVSPropertyOp4
 70
     1
102
RTVSPropertyOp5
 70
     1
102
RTVSPropertyOp6
 70
     1
102
RTVSPropertyOp7
 70
     1
102
RTVSPropertyOp8
 70
     1
102
RTVSPropertyOp9
 70
     1
102
RTVSPropertyOp10
 70
     1
102
RTVSPropertyOp11
 70
     1
102
RTVSPropertyOp12
 70
     1
102
RTVSPropertyOp13
 70
     1
102
RTVSPropertyOp14
 70
     1
102
RTVSPropertyOp15
 70
     1
102
RTVSPropertyOp16
 70
     1
102
RTVSPropertyOp17
 70
     1
102
RTVSPropertyOp18
 70
     1
102
RTVSPropertyOp19
 70
     1
102
RTVSPropertyOp20
 70
     1
102
RTVSPropertyOp21
 70
     1
102
RTVSPropertyOp22
 70
     1
102
RTVSPropertyOp23
 70
     1
102
RTVSPropertyOp24
 70
     1
102
RTVSPropertyOp25
 70
     1
102
RTVSPropertyOp26
 70
     1
102
RTVSPropertyOp27
 70
     1
102
RTVSPropertyOp28
 70
     1
102
RTVSPropertyOp29
 70
     1
102
RTVSPropertyOp30
 70
     1
102
RTVSPropertyOp31
 70
     1
102
RTVSPropertyOp32
 70
     1
102
RTVSPropertyOp33
 70
     1
102
RTVSPropertyOp34
 70
     1
102
RTVSPropertyOp35
 70
     1
102
RTVSPropertyOp36
 70
     1
102
RTVSPropertyOp37
 70
     1
102
RTVSPropertyOp38
 70
     1
102
RTVSPropertyOp39
 70
     1
102
RTVSPropertyOp40
 70
     1
102
RTVSPropertyOp41
 70
     1
102
RTVSPropertyOp42
 70
     1
102
RTVSPropertyOp43
 70
     1
102
RTVSPropertyOp44
 70
     1
102
RTVSPropertyOp45
 70
     1
102
RTVSPropertyOp46
 70
     1
102
RTVSPropertyOp47
 70
     1
102
RTVSPropertyOp48
 70
     1
102
RTVSPropertyOp49
 70
     1
102
RTVSPropertyOp50
 70
     1
102
RTVSPropertyOp51
 70
     0
102
RTVSPropertyOp52
 70
     0
102
RTVSPropertyOp53
 70
     1
102
RTVSPropertyOp54
 70
     1
102
RTVSPropertyOp55
 70
     1
102
RTVSPropertyOp56
 70
     1
102
RTVSPropertyOp57
 70
     1
102
RTVSPropertyOp58
 70
     1
102
RTVSPropertyOp59
 70
     1
102
RTVSPropertyOp60
 70
     1
102
RTVSPropertyOp61
 70
     1
102
RTVSPropertyOp62
 70
     1
  0
XRECORD
  5
176D
102
{ACAD_REACTORS
330
176C
102
}
330
176C
100
AcDbXrecord
280
     1
102
RTVSPost2010Prop28
280
     0
102
RTVSPost2010PropOp28
 70
     1
102
RTVSPost2010Prop29
280
     1
102
RTVSPost2010PropOp29
 70
     1
102
RTVSPost2010Prop30
280
     1
102
RTVSPost2010PropOp30
 70
     1
102
RTVSPost2010Prop31
280
     0
102
RTVSPost2010PropOp31
 70
     1
102
RTVSPost2010Prop32
280
     0
102
RTVSPost2010PropOp32
 70
     1
102
RTVSPost2010Prop33
280
     0
102
RTVSPost2010PropOp33
 70
     1
102
RTVSPost2010Prop34
280
     0
102
RTVSPost2010PropOp34
 70
     1
102
RTVSPost2010Prop35
280
     0
102
RTVSPost2010PropOp35
 70
     1
102
RTVSPost2010Prop36
280
     0
102
RTVSPost2010PropOp36
 70
     1
102
RTVSPost2010Prop37
 90
       50
102
RTVSPost2010PropOp37
 70
     1
102
RTVSPost2010Prop38
140
0.0
102
RTVSPost2010PropOp38
 70
     1
102
RTVSPost2010Prop39
140
1.0
102
RTVSPost2010PropOp39
 70
     1
102
RTVSPost2010Prop40
 90
        0
102
RTVSPost2010PropOp40
 70
     1
102
RTVSPost2010Prop41ColorIndex
 90
       18
102
RTVSPost2010Prop41ColorRGB
 90
        0
102
RTVSPost2010PropOp41
 70
     1
102
RTVSPost2010Prop42
 90
       50
102
RTVSPost2010PropOp42
 70
     1
102
RTVSPost2010Prop43
 90
        3
102
RTVSPost2010PropOp43
 70
     1
102
RTVSPost2010Prop44ColorIndex
 90
        5
102
RTVSPost2010Prop44ColorRGB
 90
      255
102
RTVSPost2010PropOp44
 70
     1
102
RTVSPost2010Prop45
280
     0
102
RTVSPost2010PropOp45
 70
     1
102
RTVSPost2010Prop46
 90
       50
102
RTVSPost2010PropOp46
 70
     1
102
RTVSPost2010Prop47
 90
       50
102
RTVSPost2010PropOp47
 70
     1
102
RTVSPost2010Prop48
 90
       50
102
RTVSPost2010PropOp48
 70
     1
102
RTVSPost2010Prop49
280
     0
102
RTVSPost2010PropOp49
 70
     1
102
RTVSPost2010Prop50
 90
       50
102
RTVSPost2010PropOp50
 70
     1
102
RTVSPost2010Prop51ColorIndex
 90
      256
102
RTVSPost2010Prop51ColorRGB
 90
-16777216
102
RTVSPost2010PropOp51
 70
     0
102
RTVSPost2010Prop52
140
1.0
102
RTVSPost2010PropOp52
 70
     0
102
RTVSPost2010Prop53
 90
        2
102
RTVSPost2010PropOp53
 70
     1
102
RTVSPost2010Prop54
  1
strokes_ogs.tif
102
RTVSPost2010PropOp54
 70
     1
102
RTVSPost2010Prop55
280
     0
102
RTVSPost2010PropOp55
 70
     1
102
RTVSPost2010Prop56
140
1.0
102
RTVSPost2010PropOp56
 70
     1
102
RTVSPost2010Prop57
140
1.0
102
RTVSPost2010PropOp57
 70
     1
102
RTVSPropertyOp0
 70
     1
102
RTVSPropertyOp1
 70
     1
102
RTVSPropertyOp2
 70
     1
102
RTVSPropertyOp3
 70
     1
102
RTVSPropertyOp4
 70
     1
102
RTVSPropertyOp5
 70
     1
102
RTVSPropertyOp6
 70
     1
102
RTVSPropertyOp7
 70
     1
102
RTVSPropertyOp8
 70
     1
102
RTVSPropertyOp9
 70
     1
102
RTVSPropertyOp10
 70
     1
102
RTVSPropertyOp11
 70
     1
102
RTVSPropertyOp12
 70
     1
102
RTVSPropertyOp13
 70
     1
102
RTVSPropertyOp14
 70
     1
102
RTVSPropertyOp15
 70
     1
102
RTVSPropertyOp16
 70
     1
102
RTVSPropertyOp17
 70
     1
102
RTVSPropertyOp18
 70
     1
102
RTVSPropertyOp19
 70
     1
102
RTVSPropertyOp20
 70
     1
102
RTVSPropertyOp21
 70
     1
102
RTVSPropertyOp22
 70
     1
102
RTVSPropertyOp23
 70
     1
102
RTVSPropertyOp24
 70
     1
102
RTVSPropertyOp25
 70
     1
102
RTVSPropertyOp26
 70
     1
102
RTVSPropertyOp27
 70
     1
102
RTVSPropertyOp28
 70
     1
102
RTVSPropertyOp29
 70
     1
102
RTVSPropertyOp30
 70
     1
102
RTVSPropertyOp31
 70
     1
102
RTVSPropertyOp32
 70
     1
102
RTVSPropertyOp33
 70
     1
102
RTVSPropertyOp34
 70
     1
102
RTVSPropertyOp35
 70
     1
102
RTVSPropertyOp36
 70
     1
102
RTVSPropertyOp37
 70
     1
102
RTVSPropertyOp38
 70
     1
102
RTVSPropertyOp39
 70
     1
102
RTVSPropertyOp40
 70
     1
102
RTVSPropertyOp41
 70
     1
102
RTVSPropertyOp42
 70
     1
102
RTVSPropertyOp43
 70
     1
102
RTVSPropertyOp44
 70
     1
102
RTVSPropertyOp45
 70
     1
102
RTVSPropertyOp46
 70
     1
102
RTVSPropertyOp47
 70
     1
102
RTVSPropertyOp48
 70
     1
102
RTVSPropertyOp49
 70
     1
102
RTVSPropertyOp50
 70
     1
102
RTVSPropertyOp51
 70
     0
102
RTVSPropertyOp52
 70
     0
102
RTVSPropertyOp53
 70
     1
102
RTVSPropertyOp54
 70
     1
102
RTVSPropertyOp55
 70
     1
102
RTVSPropertyOp56
 70
     1
102
RTVSPropertyOp57
 70
     1
102
RTVSPropertyOp58
 70
     1
102
RTVSPropertyOp59
 70
     1
102
RTVSPropertyOp60
 70
     1
102
RTVSPropertyOp61
 70
     1
102
RTVSPropertyOp62
 70
     1
  0
XRECORD
  5
176B
102
{ACAD_REACTORS
330
176A
102
}
330
176A
100
AcDbXrecord
280
     1
102
RTVSPost2010Prop28
280
     0
102
RTVSPost2010PropOp28
 70
     1
102
RTVSPost2010Prop29
280
     1
102
RTVSPost2010PropOp29
 70
     1
102
RTVSPost2010Prop30
280
     1
102
RTVSPost2010PropOp30
 70
     1
102
RTVSPost2010Prop31
280
     0
102
RTVSPost2010PropOp31
 70
     1
102
RTVSPost2010Prop32
280
     0
102
RTVSPost2010PropOp32
 70
     1
102
RTVSPost2010Prop33
280
     0
102
RTVSPost2010PropOp33
 70
     1
102
RTVSPost2010Prop34
280
     0
102
RTVSPost2010PropOp34
 70
     1
102
RTVSPost2010Prop35
280
     0
102
RTVSPost2010PropOp35
 70
     1
102
RTVSPost2010Prop36
280
     0
102
RTVSPost2010PropOp36
 70
     1
102
RTVSPost2010Prop37
 90
       50
102
RTVSPost2010PropOp37
 70
     1
102
RTVSPost2010Prop38
140
0.0
102
RTVSPost2010PropOp38
 70
     1
102
RTVSPost2010Prop39
140
1.0
102
RTVSPost2010PropOp39
 70
     1
102
RTVSPost2010Prop40
 90
        0
102
RTVSPost2010PropOp40
 70
     1
102
RTVSPost2010Prop41ColorIndex
 90
       18
102
RTVSPost2010Prop41ColorRGB
 90
        0
102
RTVSPost2010PropOp41
 70
     1
102
RTVSPost2010Prop42
 90
       50
102
RTVSPost2010PropOp42
 70
     1
102
RTVSPost2010Prop43
 90
        3
102
RTVSPost2010PropOp43
 70
     1
102
RTVSPost2010Prop44ColorIndex
 90
        5
102
RTVSPost2010Prop44ColorRGB
 90
      255
102
RTVSPost2010PropOp44
 70
     1
102
RTVSPost2010Prop45
280
     0
102
RTVSPost2010PropOp45
 70
     1
102
RTVSPost2010Prop46
 90
       50
102
RTVSPost2010PropOp46
 70
     1
102
RTVSPost2010Prop47
 90
       50
102
RTVSPost2010PropOp47
 70
     1
102
RTVSPost2010Prop48
 90
       50
102
RTVSPost2010PropOp48
 70
     1
102
RTVSPost2010Prop49
280
     0
102
RTVSPost2010PropOp49
 70
     1
102
RTVSPost2010Prop50
 90
       50
102
RTVSPost2010PropOp50
 70
     1
102
RTVSPost2010Prop51ColorIndex
 90
      256
102
RTVSPost2010Prop51ColorRGB
 90
-16777216
102
RTVSPost2010PropOp51
 70
     0
102
RTVSPost2010Prop52
140
1.0
102
RTVSPost2010PropOp52
 70
     0
102
RTVSPost2010Prop53
 90
        2
102
RTVSPost2010PropOp53
 70
     1
102
RTVSPost2010Prop54
  1
strokes_ogs.tif
102
RTVSPost2010PropOp54
 70
     1
102
RTVSPost2010Prop55
280
     0
102
RTVSPost2010PropOp55
 70
     1
102
RTVSPost2010Prop56
140
1.0
102
RTVSPost2010PropOp56
 70
     1
102
RTVSPost2010Prop57
140
1.0
102
RTVSPost2010PropOp57
 70
     1
102
RTVSPropertyOp0
 70
     1
102
RTVSPropertyOp1
 70
     1
102
RTVSPropertyOp2
 70
     1
102
RTVSPropertyOp3
 70
     1
102
RTVSPropertyOp4
 70
     1
102
RTVSPropertyOp5
 70
     1
102
RTVSPropertyOp6
 70
     1
102
RTVSPropertyOp7
 70
     1
102
RTVSPropertyOp8
 70
     1
102
RTVSPropertyOp9
 70
     1
102
RTVSPropertyOp10
 70
     1
102
RTVSPropertyOp11
 70
     1
102
RTVSPropertyOp12
 70
     1
102
RTVSPropertyOp13
 70
     1
102
RTVSPropertyOp14
 70
     1
102
RTVSPropertyOp15
 70
     1
102
RTVSPropertyOp16
 70
     1
102
RTVSPropertyOp17
 70
     1
102
RTVSPropertyOp18
 70
     1
102
RTVSPropertyOp19
 70
     1
102
RTVSPropertyOp20
 70
     1
102
RTVSPropertyOp21
 70
     1
102
RTVSPropertyOp22
 70
     1
102
RTVSPropertyOp23
 70
     1
102
RTVSPropertyOp24
 70
     1
102
RTVSPropertyOp25
 70
     1
102
RTVSPropertyOp26
 70
     1
102
RTVSPropertyOp27
 70
     1
102
RTVSPropertyOp28
 70
     1
102
RTVSPropertyOp29
 70
     1
102
RTVSPropertyOp30
 70
     1
102
RTVSPropertyOp31
 70
     1
102
RTVSPropertyOp32
 70
     1
102
RTVSPropertyOp33
 70
     1
102
RTVSPropertyOp34
 70
     1
102
RTVSPropertyOp35
 70
     1
102
RTVSPropertyOp36
 70
     1
102
RTVSPropertyOp37
 70
     1
102
RTVSPropertyOp38
 70
     1
102
RTVSPropertyOp39
 70
     1
102
RTVSPropertyOp40
 70
     1
102
RTVSPropertyOp41
 70
     1
102
RTVSPropertyOp42
 70
     1
102
RTVSPropertyOp43
 70
     1
102
RTVSPropertyOp44
 70
     1
102
RTVSPropertyOp45
 70
     1
102
RTVSPropertyOp46
 70
     1
102
RTVSPropertyOp47
 70
     1
102
RTVSPropertyOp48
 70
     1
102
RTVSPropertyOp49
 70
     1
102
RTVSPropertyOp50
 70
     1
102
RTVSPropertyOp51
 70
     0
102
RTVSPropertyOp52
 70
     0
102
RTVSPropertyOp53
 70
     1
102
RTVSPropertyOp54
 70
     1
102
RTVSPropertyOp55
 70
     1
102
RTVSPropertyOp56
 70
     1
102
RTVSPropertyOp57
 70
     1
102
RTVSPropertyOp58
 70
     1
102
RTVSPropertyOp59
 70
     1
102
RTVSPropertyOp60
 70
     1
102
RTVSPropertyOp61
 70
     1
102
RTVSPropertyOp62
 70
     1
  0
XRECORD
  5
1765
102
{ACAD_REACTORS
330
1764
102
}
330
1764
100
AcDbXrecord
280
     1
102
RTVSPost2010Prop28
280
     0
102
RTVSPost2010PropOp28
 70
     1
102
RTVSPost2010Prop29
280
     1
102
RTVSPost2010PropOp29
 70
     1
102
RTVSPost2010Prop30
280
     1
102
RTVSPost2010PropOp30
 70
     1
102
RTVSPost2010Prop31
280
     0
102
RTVSPost2010PropOp31
 70
     1
102
RTVSPost2010Prop32
280
     0
102
RTVSPost2010PropOp32
 70
     1
102
RTVSPost2010Prop33
280
     0
102
RTVSPost2010PropOp33
 70
     1
102
RTVSPost2010Prop34
280
     0
102
RTVSPost2010PropOp34
 70
     1
102
RTVSPost2010Prop35
280
     0
102
RTVSPost2010PropOp35
 70
     1
102
RTVSPost2010Prop36
280
     0
102
RTVSPost2010PropOp36
 70
     1
102
RTVSPost2010Prop37
 90
       50
102
RTVSPost2010PropOp37
 70
     1
102
RTVSPost2010Prop38
140
0.0
102
RTVSPost2010PropOp38
 70
     1
102
RTVSPost2010Prop39
140
1.0
102
RTVSPost2010PropOp39
 70
     1
102
RTVSPost2010Prop40
 90
        0
102
RTVSPost2010PropOp40
 70
     1
102
RTVSPost2010Prop41ColorIndex
 90
       18
102
RTVSPost2010Prop41ColorRGB
 90
        0
102
RTVSPost2010PropOp41
 70
     1
102
RTVSPost2010Prop42
 90
       50
102
RTVSPost2010PropOp42
 70
     1
102
RTVSPost2010Prop43
 90
        3
102
RTVSPost2010PropOp43
 70
     1
102
RTVSPost2010Prop44ColorIndex
 90
        5
102
RTVSPost2010Prop44ColorRGB
 90
      255
102
RTVSPost2010PropOp44
 70
     1
102
RTVSPost2010Prop45
280
     0
102
RTVSPost2010PropOp45
 70
     1
102
RTVSPost2010Prop46
 90
       50
102
RTVSPost2010PropOp46
 70
     1
102
RTVSPost2010Prop47
 90
       50
102
RTVSPost2010PropOp47
 70
     1
102
RTVSPost2010Prop48
 90
       50
102
RTVSPost2010PropOp48
 70
     1
102
RTVSPost2010Prop49
280
     0
102
RTVSPost2010PropOp49
 70
     1
102
RTVSPost2010Prop50
 90
       50
102
RTVSPost2010PropOp50
 70
     1
102
RTVSPost2010Prop51ColorIndex
 90
      256
102
RTVSPost2010Prop51ColorRGB
 90
-16777216
102
RTVSPost2010PropOp51
 70
     0
102
RTVSPost2010Prop52
140
1.0
102
RTVSPost2010PropOp52
 70
     0
102
RTVSPost2010Prop53
 90
        2
102
RTVSPost2010PropOp53
 70
     1
102
RTVSPost2010Prop54
  1
strokes_ogs.tif
102
RTVSPost2010PropOp54
 70
     1
102
RTVSPost2010Prop55
280
     0
102
RTVSPost2010PropOp55
 70
     1
102
RTVSPost2010Prop56
140
1.0
102
RTVSPost2010PropOp56
 70
     1
102
RTVSPost2010Prop57
140
1.0
102
RTVSPost2010PropOp57
 70
     1
102
RTVSPropertyOp0
 70
     1
102
RTVSPropertyOp1
 70
     1
102
RTVSPropertyOp2
 70
     1
102
RTVSPropertyOp3
 70
     1
102
RTVSPropertyOp4
 70
     1
102
RTVSPropertyOp5
 70
     1
102
RTVSPropertyOp6
 70
     1
102
RTVSPropertyOp7
 70
     1
102
RTVSPropertyOp8
 70
     1
102
RTVSPropertyOp9
 70
     1
102
RTVSPropertyOp10
 70
     1
102
RTVSPropertyOp11
 70
     1
102
RTVSPropertyOp12
 70
     1
102
RTVSPropertyOp13
 70
     1
102
RTVSPropertyOp14
 70
     1
102
RTVSPropertyOp15
 70
     1
102
RTVSPropertyOp16
 70
     1
102
RTVSPropertyOp17
 70
     1
102
RTVSPropertyOp18
 70
     1
102
RTVSPropertyOp19
 70
     1
102
RTVSPropertyOp20
 70
     1
102
RTVSPropertyOp21
 70
     1
102
RTVSPropertyOp22
 70
     1
102
RTVSPropertyOp23
 70
     1
102
RTVSPropertyOp24
 70
     1
102
RTVSPropertyOp25
 70
     1
102
RTVSPropertyOp26
 70
     1
102
RTVSPropertyOp27
 70
     1
102
RTVSPropertyOp28
 70
     1
102
RTVSPropertyOp29
 70
     1
102
RTVSPropertyOp30
 70
     1
102
RTVSPropertyOp31
 70
     1
102
RTVSPropertyOp32
 70
     1
102
RTVSPropertyOp33
 70
     1
102
RTVSPropertyOp34
 70
     1
102
RTVSPropertyOp35
 70
     1
102
RTVSPropertyOp36
 70
     1
102
RTVSPropertyOp37
 70
     1
102
RTVSPropertyOp38
 70
     1
102
RTVSPropertyOp39
 70
     1
102
RTVSPropertyOp40
 70
     1
102
RTVSPropertyOp41
 70
     1
102
RTVSPropertyOp42
 70
     1
102
RTVSPropertyOp43
 70
     1
102
RTVSPropertyOp44
 70
     1
102
RTVSPropertyOp45
 70
     1
102
RTVSPropertyOp46
 70
     1
102
RTVSPropertyOp47
 70
     1
102
RTVSPropertyOp48
 70
     1
102
RTVSPropertyOp49
 70
     1
102
RTVSPropertyOp50
 70
     1
102
RTVSPropertyOp51
 70
     0
102
RTVSPropertyOp52
 70
     0
102
RTVSPropertyOp53
 70
     1
102
RTVSPropertyOp54
 70
     1
102
RTVSPropertyOp55
 70
     1
102
RTVSPropertyOp56
 70
     1
102
RTVSPropertyOp57
 70
     1
102
RTVSPropertyOp58
 70
     1
102
RTVSPropertyOp59
 70
     1
102
RTVSPropertyOp60
 70
     1
102
RTVSPropertyOp61
 70
     1
102
RTVSPropertyOp62
 70
     1
  0
XRECORD
  5
1767
102
{ACAD_REACTORS
330
1766
102
}
330
1766
100
AcDbXrecord
280
     1
102
RTVSPost2010Prop28
280
     0
102
RTVSPost2010PropOp28
 70
     1
102
RTVSPost2010Prop29
280
     1
102
RTVSPost2010PropOp29
 70
     1
102
RTVSPost2010Prop30
280
     1
102
RTVSPost2010PropOp30
 70
     1
102
RTVSPost2010Prop31
280
     0
102
RTVSPost2010PropOp31
 70
     1
102
RTVSPost2010Prop32
280
     0
102
RTVSPost2010PropOp32
 70
     1
102
RTVSPost2010Prop33
280
     0
102
RTVSPost2010PropOp33
 70
     1
102
RTVSPost2010Prop34
280
     0
102
RTVSPost2010PropOp34
 70
     1
102
RTVSPost2010Prop35
280
     0
102
RTVSPost2010PropOp35
 70
     1
102
RTVSPost2010Prop36
280
     0
102
RTVSPost2010PropOp36
 70
     1
102
RTVSPost2010Prop37
 90
       50
102
RTVSPost2010PropOp37
 70
     1
102
RTVSPost2010Prop38
140
0.0
102
RTVSPost2010PropOp38
 70
     1
102
RTVSPost2010Prop39
140
1.0
102
RTVSPost2010PropOp39
 70
     1
102
RTVSPost2010Prop40
 90
        0
102
RTVSPost2010PropOp40
 70
     1
102
RTVSPost2010Prop41ColorIndex
 90
       18
102
RTVSPost2010Prop41ColorRGB
 90
        0
102
RTVSPost2010PropOp41
 70
     1
102
RTVSPost2010Prop42
 90
       50
102
RTVSPost2010PropOp42
 70
     1
102
RTVSPost2010Prop43
 90
        3
102
RTVSPost2010PropOp43
 70
     1
102
RTVSPost2010Prop44ColorIndex
 90
        5
102
RTVSPost2010Prop44ColorRGB
 90
      255
102
RTVSPost2010PropOp44
 70
     1
102
RTVSPost2010Prop45
280
     0
102
RTVSPost2010PropOp45
 70
     1
102
RTVSPost2010Prop46
 90
       50
102
RTVSPost2010PropOp46
 70
     1
102
RTVSPost2010Prop47
 90
       50
102
RTVSPost2010PropOp47
 70
     1
102
RTVSPost2010Prop48
 90
       50
102
RTVSPost2010PropOp48
 70
     1
102
RTVSPost2010Prop49
280
     0
102
RTVSPost2010PropOp49
 70
     1
102
RTVSPost2010Prop50
 90
       50
102
RTVSPost2010PropOp50
 70
     1
102
RTVSPost2010Prop51ColorIndex
 90
      256
102
RTVSPost2010Prop51ColorRGB
 90
-16777216
102
RTVSPost2010PropOp51
 70
     0
102
RTVSPost2010Prop52
140
1.0
102
RTVSPost2010PropOp52
 70
     0
102
RTVSPost2010Prop53
 90
        2
102
RTVSPost2010PropOp53
 70
     1
102
RTVSPost2010Prop54
  1
strokes_ogs.tif
102
RTVSPost2010PropOp54
 70
     1
102
RTVSPost2010Prop55
280
     0
102
RTVSPost2010PropOp55
 70
     1
102
RTVSPost2010Prop56
140
1.0
102
RTVSPost2010PropOp56
 70
     1
102
RTVSPost2010Prop57
140
1.0
102
RTVSPost2010PropOp57
 70
     1
102
RTVSPropertyOp0
 70
     1
102
RTVSPropertyOp1
 70
     1
102
RTVSPropertyOp2
 70
     1
102
RTVSPropertyOp3
 70
     1
102
RTVSPropertyOp4
 70
     1
102
RTVSPropertyOp5
 70
     1
102
RTVSPropertyOp6
 70
     1
102
RTVSPropertyOp7
 70
     1
102
RTVSPropertyOp8
 70
     1
102
RTVSPropertyOp9
 70
     1
102
RTVSPropertyOp10
 70
     1
102
RTVSPropertyOp11
 70
     1
102
RTVSPropertyOp12
 70
     1
102
RTVSPropertyOp13
 70
     1
102
RTVSPropertyOp14
 70
     1
102
RTVSPropertyOp15
 70
     1
102
RTVSPropertyOp16
 70
     1
102
RTVSPropertyOp17
 70
     1
102
RTVSPropertyOp18
 70
     1
102
RTVSPropertyOp19
 70
     1
102
RTVSPropertyOp20
 70
     1
102
RTVSPropertyOp21
 70
     1
102
RTVSPropertyOp22
 70
     1
102
RTVSPropertyOp23
 70
     1
102
RTVSPropertyOp24
 70
     1
102
RTVSPropertyOp25
 70
     1
102
RTVSPropertyOp26
 70
     1
102
RTVSPropertyOp27
 70
     1
102
RTVSPropertyOp28
 70
     1
102
RTVSPropertyOp29
 70
     1
102
RTVSPropertyOp30
 70
     1
102
RTVSPropertyOp31
 70
     1
102
RTVSPropertyOp32
 70
     1
102
RTVSPropertyOp33
 70
     1
102
RTVSPropertyOp34
 70
     1
102
RTVSPropertyOp35
 70
     1
102
RTVSPropertyOp36
 70
     1
102
RTVSPropertyOp37
 70
     1
102
RTVSPropertyOp38
 70
     1
102
RTVSPropertyOp39
 70
     1
102
RTVSPropertyOp40
 70
     1
102
RTVSPropertyOp41
 70
     1
102
RTVSPropertyOp42
 70
     1
102
RTVSPropertyOp43
 70
     1
102
RTVSPropertyOp44
 70
     1
102
RTVSPropertyOp45
 70
     1
102
RTVSPropertyOp46
 70
     1
102
RTVSPropertyOp47
 70
     1
102
RTVSPropertyOp48
 70
     1
102
RTVSPropertyOp49
 70
     1
102
RTVSPropertyOp50
 70
     1
102
RTVSPropertyOp51
 70
     0
102
RTVSPropertyOp52
 70
     0
102
RTVSPropertyOp53
 70
     1
102
RTVSPropertyOp54
 70
     1
102
RTVSPropertyOp55
 70
     1
102
RTVSPropertyOp56
 70
     1
102
RTVSPropertyOp57
 70
     1
102
RTVSPropertyOp58
 70
     1
102
RTVSPropertyOp59
 70
     1
102
RTVSPropertyOp60
 70
     1
102
RTVSPropertyOp61
 70
     1
102
RTVSPropertyOp62
 70
     1
  0
XRECORD
  5
175D
102
{ACAD_REACTORS
330
175C
102
}
330
175C
100
AcDbXrecord
280
     1
102
RTVSPost2010Prop28
280
     0
102
RTVSPost2010PropOp28
 70
     1
102
RTVSPost2010Prop29
280
     1
102
RTVSPost2010PropOp29
 70
     1
102
RTVSPost2010Prop30
280
     1
102
RTVSPost2010PropOp30
 70
     1
102
RTVSPost2010Prop31
280
     0
102
RTVSPost2010PropOp31
 70
     1
102
RTVSPost2010Prop32
280
     0
102
RTVSPost2010PropOp32
 70
     1
102
RTVSPost2010Prop33
280
     0
102
RTVSPost2010PropOp33
 70
     1
102
RTVSPost2010Prop34
280
     0
102
RTVSPost2010PropOp34
 70
     1
102
RTVSPost2010Prop35
280
     0
102
RTVSPost2010PropOp35
 70
     1
102
RTVSPost2010Prop36
280
     0
102
RTVSPost2010PropOp36
 70
     1
102
RTVSPost2010Prop37
 90
       50
102
RTVSPost2010PropOp37
 70
     1
102
RTVSPost2010Prop38
140
0.0
102
RTVSPost2010PropOp38
 70
     1
102
RTVSPost2010Prop39
140
1.0
102
RTVSPost2010PropOp39
 70
     1
102
RTVSPost2010Prop40
 90
        0
102
RTVSPost2010PropOp40
 70
     1
102
RTVSPost2010Prop41ColorIndex
 90
       18
102
RTVSPost2010Prop41ColorRGB
 90
        0
102
RTVSPost2010PropOp41
 70
     1
102
RTVSPost2010Prop42
 90
       50
102
RTVSPost2010PropOp42
 70
     1
102
RTVSPost2010Prop43
 90
        3
102
RTVSPost2010PropOp43
 70
     1
102
RTVSPost2010Prop44ColorIndex
 90
        5
102
RTVSPost2010Prop44ColorRGB
 90
      255
102
RTVSPost2010PropOp44
 70
     1
102
RTVSPost2010Prop45
280
     0
102
RTVSPost2010PropOp45
 70
     1
102
RTVSPost2010Prop46
 90
       50
102
RTVSPost2010PropOp46
 70
     1
102
RTVSPost2010Prop47
 90
       50
102
RTVSPost2010PropOp47
 70
     1
102
RTVSPost2010Prop48
 90
       50
102
RTVSPost2010PropOp48
 70
     1
102
RTVSPost2010Prop49
280
     0
102
RTVSPost2010PropOp49
 70
     1
102
RTVSPost2010Prop50
 90
       50
102
RTVSPost2010PropOp50
 70
     1
102
RTVSPost2010Prop51ColorIndex
 90
      256
102
RTVSPost2010Prop51ColorRGB
 90
-16777216
102
RTVSPost2010PropOp51
 70
     0
102
RTVSPost2010Prop52
140
1.0
102
RTVSPost2010PropOp52
 70
     0
102
RTVSPost2010Prop53
 90
        2
102
RTVSPost2010PropOp53
 70
     1
102
RTVSPost2010Prop54
  1
strokes_ogs.tif
102
RTVSPost2010PropOp54
 70
     1
102
RTVSPost2010Prop55
280
     0
102
RTVSPost2010PropOp55
 70
     1
102
RTVSPost2010Prop56
140
1.0
102
RTVSPost2010PropOp56
 70
     1
102
RTVSPost2010Prop57
140
1.0
102
RTVSPost2010PropOp57
 70
     1
102
RTVSPropertyOp0
 70
     1
102
RTVSPropertyOp1
 70
     1
102
RTVSPropertyOp2
 70
     1
102
RTVSPropertyOp3
 70
     1
102
RTVSPropertyOp4
 70
     1
102
RTVSPropertyOp5
 70
     1
102
RTVSPropertyOp6
 70
     1
102
RTVSPropertyOp7
 70
     1
102
RTVSPropertyOp8
 70
     1
102
RTVSPropertyOp9
 70
     1
102
RTVSPropertyOp10
 70
     1
102
RTVSPropertyOp11
 70
     1
102
RTVSPropertyOp12
 70
     1
102
RTVSPropertyOp13
 70
     1
102
RTVSPropertyOp14
 70
     1
102
RTVSPropertyOp15
 70
     1
102
RTVSPropertyOp16
 70
     1
102
RTVSPropertyOp17
 70
     1
102
RTVSPropertyOp18
 70
     1
102
RTVSPropertyOp19
 70
     1
102
RTVSPropertyOp20
 70
     1
102
RTVSPropertyOp21
 70
     1
102
RTVSPropertyOp22
 70
     1
102
RTVSPropertyOp23
 70
     1
102
RTVSPropertyOp24
 70
     1
102
RTVSPropertyOp25
 70
     1
102
RTVSPropertyOp26
 70
     1
102
RTVSPropertyOp27
 70
     1
102
RTVSPropertyOp28
 70
     1
102
RTVSPropertyOp29
 70
     1
102
RTVSPropertyOp30
 70
     1
102
RTVSPropertyOp31
 70
     1
102
RTVSPropertyOp32
 70
     1
102
RTVSPropertyOp33
 70
     1
102
RTVSPropertyOp34
 70
     1
102
RTVSPropertyOp35
 70
     1
102
RTVSPropertyOp36
 70
     1
102
RTVSPropertyOp37
 70
     1
102
RTVSPropertyOp38
 70
     1
102
RTVSPropertyOp39
 70
     1
102
RTVSPropertyOp40
 70
     1
102
RTVSPropertyOp41
 70
     1
102
RTVSPropertyOp42
 70
     1
102
RTVSPropertyOp43
 70
     1
102
RTVSPropertyOp44
 70
     1
102
RTVSPropertyOp45
 70
     1
102
RTVSPropertyOp46
 70
     1
102
RTVSPropertyOp47
 70
     1
102
RTVSPropertyOp48
 70
     1
102
RTVSPropertyOp49
 70
     1
102
RTVSPropertyOp50
 70
     1
102
RTVSPropertyOp51
 70
     0
102
RTVSPropertyOp52
 70
     0
102
RTVSPropertyOp53
 70
     1
102
RTVSPropertyOp54
 70
     1
102
RTVSPropertyOp55
 70
     1
102
RTVSPropertyOp56
 70
     1
102
RTVSPropertyOp57
 70
     1
102
RTVSPropertyOp58
 70
     1
102
RTVSPropertyOp59
 70
     1
102
RTVSPropertyOp60
 70
     1
102
RTVSPropertyOp61
 70
     1
102
RTVSPropertyOp62
 70
     1
  0
XRECORD
  5
1751
102
{ACAD_REACTORS
330
1750
102
}
330
1750
100
AcDbXrecord
280
     1
102
RTVSPost2010Prop28
280
     0
102
RTVSPost2010PropOp28
 70
     1
102
RTVSPost2010Prop29
280
     1
102
RTVSPost2010PropOp29
 70
     1
102
RTVSPost2010Prop30
280
     1
102
RTVSPost2010PropOp30
 70
     1
102
RTVSPost2010Prop31
280
     0
102
RTVSPost2010PropOp31
 70
     1
102
RTVSPost2010Prop32
280
     0
102
RTVSPost2010PropOp32
 70
     1
102
RTVSPost2010Prop33
280
     0
102
RTVSPost2010PropOp33
 70
     1
102
RTVSPost2010Prop34
280
     0
102
RTVSPost2010PropOp34
 70
     1
102
RTVSPost2010Prop35
280
     0
102
RTVSPost2010PropOp35
 70
     1
102
RTVSPost2010Prop36
280
     0
102
RTVSPost2010PropOp36
 70
     1
102
RTVSPost2010Prop37
 90
       50
102
RTVSPost2010PropOp37
 70
     1
102
RTVSPost2010Prop38
140
0.0
102
RTVSPost2010PropOp38
 70
     1
102
RTVSPost2010Prop39
140
1.0
102
RTVSPost2010PropOp39
 70
     1
102
RTVSPost2010Prop40
 90
        0
102
RTVSPost2010PropOp40
 70
     1
102
RTVSPost2010Prop41ColorIndex
 90
       18
102
RTVSPost2010Prop41ColorRGB
 90
        0
102
RTVSPost2010PropOp41
 70
     1
102
RTVSPost2010Prop42
 90
       50
102
RTVSPost2010PropOp42
 70
     1
102
RTVSPost2010Prop43
 90
        3
102
RTVSPost2010PropOp43
 70
     1
102
RTVSPost2010Prop44ColorIndex
 90
        5
102
RTVSPost2010Prop44ColorRGB
 90
      255
102
RTVSPost2010PropOp44
 70
     1
102
RTVSPost2010Prop45
280
     0
102
RTVSPost2010PropOp45
 70
     1
102
RTVSPost2010Prop46
 90
       50
102
RTVSPost2010PropOp46
 70
     1
102
RTVSPost2010Prop47
 90
       50
102
RTVSPost2010PropOp47
 70
     1
102
RTVSPost2010Prop48
 90
       50
102
RTVSPost2010PropOp48
 70
     1
102
RTVSPost2010Prop49
280
     0
102
RTVSPost2010PropOp49
 70
     1
102
RTVSPost2010Prop50
 90
       50
102
RTVSPost2010PropOp50
 70
     1
102
RTVSPost2010Prop51ColorIndex
 90
      256
102
RTVSPost2010Prop51ColorRGB
 90
-16777216
102
RTVSPost2010PropOp51
 70
     0
102
RTVSPost2010Prop52
140
1.0
102
RTVSPost2010PropOp52
 70
     0
102
RTVSPost2010Prop53
 90
        2
102
RTVSPost2010PropOp53
 70
     1
102
RTVSPost2010Prop54
  1
strokes_ogs.tif
102
RTVSPost2010PropOp54
 70
     1
102
RTVSPost2010Prop55
280
     0
102
RTVSPost2010PropOp55
 70
     1
102
RTVSPost2010Prop56
140
1.0
102
RTVSPost2010PropOp56
 70
     1
102
RTVSPost2010Prop57
140
1.0
102
RTVSPost2010PropOp57
 70
     1
102
RTVSPropertyOp0
 70
     1
102
RTVSPropertyOp1
 70
     1
102
RTVSPropertyOp2
 70
     1
102
RTVSPropertyOp3
 70
     1
102
RTVSPropertyOp4
 70
     1
102
RTVSPropertyOp5
 70
     1
102
RTVSPropertyOp6
 70
     1
102
RTVSPropertyOp7
 70
     1
102
RTVSPropertyOp8
 70
     1
102
RTVSPropertyOp9
 70
     1
102
RTVSPropertyOp10
 70
     1
102
RTVSPropertyOp11
 70
     1
102
RTVSPropertyOp12
 70
     1
102
RTVSPropertyOp13
 70
     1
102
RTVSPropertyOp14
 70
     1
102
RTVSPropertyOp15
 70
     1
102
RTVSPropertyOp16
 70
     1
102
RTVSPropertyOp17
 70
     1
102
RTVSPropertyOp18
 70
     1
102
RTVSPropertyOp19
 70
     1
102
RTVSPropertyOp20
 70
     1
102
RTVSPropertyOp21
 70
     1
102
RTVSPropertyOp22
 70
     1
102
RTVSPropertyOp23
 70
     1
102
RTVSPropertyOp24
 70
     1
102
RTVSPropertyOp25
 70
     1
102
RTVSPropertyOp26
 70
     1
102
RTVSPropertyOp27
 70
     1
102
RTVSPropertyOp28
 70
     1
102
RTVSPropertyOp29
 70
     1
102
RTVSPropertyOp30
 70
     1
102
RTVSPropertyOp31
 70
     1
102
RTVSPropertyOp32
 70
     1
102
RTVSPropertyOp33
 70
     1
102
RTVSPropertyOp34
 70
     1
102
RTVSPropertyOp35
 70
     1
102
RTVSPropertyOp36
 70
     1
102
RTVSPropertyOp37
 70
     1
102
RTVSPropertyOp38
 70
     1
102
RTVSPropertyOp39
 70
     1
102
RTVSPropertyOp40
 70
     1
102
RTVSPropertyOp41
 70
     1
102
RTVSPropertyOp42
 70
     1
102
RTVSPropertyOp43
 70
     1
102
RTVSPropertyOp44
 70
     1
102
RTVSPropertyOp45
 70
     1
102
RTVSPropertyOp46
 70
     1
102
RTVSPropertyOp47
 70
     1
102
RTVSPropertyOp48
 70
     1
102
RTVSPropertyOp49
 70
     1
102
RTVSPropertyOp50
 70
     1
102
RTVSPropertyOp51
 70
     0
102
RTVSPropertyOp52
 70
     0
102
RTVSPropertyOp53
 70
     1
102
RTVSPropertyOp54
 70
     1
102
RTVSPropertyOp55
 70
     1
102
RTVSPropertyOp56
 70
     1
102
RTVSPropertyOp57
 70
     1
102
RTVSPropertyOp58
 70
     1
102
RTVSPropertyOp59
 70
     1
102
RTVSPropertyOp60
 70
     1
102
RTVSPropertyOp61
 70
     1
102
RTVSPropertyOp62
 70
     1
  0
XRECORD
  5
1769
102
{ACAD_REACTORS
330
1768
102
}
330
1768
100
AcDbXrecord
280
     1
102
RTVSPost2010Prop28
280
     0
102
RTVSPost2010PropOp28
 70
     1
102
RTVSPost2010Prop29
280
     1
102
RTVSPost2010PropOp29
 70
     1
102
RTVSPost2010Prop30
280
     1
102
RTVSPost2010PropOp30
 70
     1
102
RTVSPost2010Prop31
280
     0
102
RTVSPost2010PropOp31
 70
     1
102
RTVSPost2010Prop32
280
     0
102
RTVSPost2010PropOp32
 70
     1
102
RTVSPost2010Prop33
280
     0
102
RTVSPost2010PropOp33
 70
     1
102
RTVSPost2010Prop34
280
     0
102
RTVSPost2010PropOp34
 70
     1
102
RTVSPost2010Prop35
280
     0
102
RTVSPost2010PropOp35
 70
     1
102
RTVSPost2010Prop36
280
     0
102
RTVSPost2010PropOp36
 70
     1
102
RTVSPost2010Prop37
 90
       50
102
RTVSPost2010PropOp37
 70
     1
102
RTVSPost2010Prop38
140
0.0
102
RTVSPost2010PropOp38
 70
     1
102
RTVSPost2010Prop39
140
1.0
102
RTVSPost2010PropOp39
 70
     1
102
RTVSPost2010Prop40
 90
        0
102
RTVSPost2010PropOp40
 70
     1
102
RTVSPost2010Prop41ColorIndex
 90
       18
102
RTVSPost2010Prop41ColorRGB
 90
        0
102
RTVSPost2010PropOp41
 70
     1
102
RTVSPost2010Prop42
 90
       50
102
RTVSPost2010PropOp42
 70
     1
102
RTVSPost2010Prop43
 90
        3
102
RTVSPost2010PropOp43
 70
     1
102
RTVSPost2010Prop44ColorIndex
 90
        5
102
RTVSPost2010Prop44ColorRGB
 90
      255
102
RTVSPost2010PropOp44
 70
     1
102
RTVSPost2010Prop45
280
     0
102
RTVSPost2010PropOp45
 70
     1
102
RTVSPost2010Prop46
 90
       50
102
RTVSPost2010PropOp46
 70
     1
102
RTVSPost2010Prop47
 90
       50
102
RTVSPost2010PropOp47
 70
     1
102
RTVSPost2010Prop48
 90
       50
102
RTVSPost2010PropOp48
 70
     1
102
RTVSPost2010Prop49
280
     0
102
RTVSPost2010PropOp49
 70
     1
102
RTVSPost2010Prop50
 90
       50
102
RTVSPost2010PropOp50
 70
     1
102
RTVSPost2010Prop51ColorIndex
 90
      256
102
RTVSPost2010Prop51ColorRGB
 90
-16777216
102
RTVSPost2010PropOp51
 70
     0
102
RTVSPost2010Prop52
140
1.0
102
RTVSPost2010PropOp52
 70
     0
102
RTVSPost2010Prop53
 90
        2
102
RTVSPost2010PropOp53
 70
     1
102
RTVSPost2010Prop54
  1
strokes_ogs.tif
102
RTVSPost2010PropOp54
 70
     1
102
RTVSPost2010Prop55
280
     0
102
RTVSPost2010PropOp55
 70
     1
102
RTVSPost2010Prop56
140
1.0
102
RTVSPost2010PropOp56
 70
     1
102
RTVSPost2010Prop57
140
1.0
102
RTVSPost2010PropOp57
 70
     1
102
RTVSPropertyOp0
 70
     1
102
RTVSPropertyOp1
 70
     1
102
RTVSPropertyOp2
 70
     1
102
RTVSPropertyOp3
 70
     1
102
RTVSPropertyOp4
 70
     1
102
RTVSPropertyOp5
 70
     1
102
RTVSPropertyOp6
 70
     1
102
RTVSPropertyOp7
 70
     1
102
RTVSPropertyOp8
 70
     1
102
RTVSPropertyOp9
 70
     1
102
RTVSPropertyOp10
 70
     1
102
RTVSPropertyOp11
 70
     1
102
RTVSPropertyOp12
 70
     1
102
RTVSPropertyOp13
 70
     1
102
RTVSPropertyOp14
 70
     1
102
RTVSPropertyOp15
 70
     1
102
RTVSPropertyOp16
 70
     1
102
RTVSPropertyOp17
 70
     1
102
RTVSPropertyOp18
 70
     1
102
RTVSPropertyOp19
 70
     1
102
RTVSPropertyOp20
 70
     1
102
RTVSPropertyOp21
 70
     1
102
RTVSPropertyOp22
 70
     1
102
RTVSPropertyOp23
 70
     1
102
RTVSPropertyOp24
 70
     1
102
RTVSPropertyOp25
 70
     1
102
RTVSPropertyOp26
 70
     1
102
RTVSPropertyOp27
 70
     1
102
RTVSPropertyOp28
 70
     1
102
RTVSPropertyOp29
 70
     1
102
RTVSPropertyOp30
 70
     1
102
RTVSPropertyOp31
 70
     1
102
RTVSPropertyOp32
 70
     1
102
RTVSPropertyOp33
 70
     1
102
RTVSPropertyOp34
 70
     1
102
RTVSPropertyOp35
 70
     1
102
RTVSPropertyOp36
 70
     1
102
RTVSPropertyOp37
 70
     1
102
RTVSPropertyOp38
 70
     1
102
RTVSPropertyOp39
 70
     1
102
RTVSPropertyOp40
 70
     1
102
RTVSPropertyOp41
 70
     1
102
RTVSPropertyOp42
 70
     1
102
RTVSPropertyOp43
 70
     1
102
RTVSPropertyOp44
 70
     1
102
RTVSPropertyOp45
 70
     1
102
RTVSPropertyOp46
 70
     1
102
RTVSPropertyOp47
 70
     1
102
RTVSPropertyOp48
 70
     1
102
RTVSPropertyOp49
 70
     1
102
RTVSPropertyOp50
 70
     1
102
RTVSPropertyOp51
 70
     0
102
RTVSPropertyOp52
 70
     0
102
RTVSPropertyOp53
 70
     1
102
RTVSPropertyOp54
 70
     1
102
RTVSPropertyOp55
 70
     1
102
RTVSPropertyOp56
 70
     1
102
RTVSPropertyOp57
 70
     1
102
RTVSPropertyOp58
 70
     1
102
RTVSPropertyOp59
 70
     1
102
RTVSPropertyOp60
 70
     1
102
RTVSPropertyOp61
 70
     1
102
RTVSPropertyOp62
 70
     1
  0
ENDSEC
  0
EOF
