  0
SECTION
  2
HEADER
  9
$ACADVER
  1
AC1018
  9
$ACADMAINTVER
 70
   104
  9
$DWGCODEPAGE
  3
ANSI_932
  9
$LASTSAVEDBY
  1
0803015
  9
$INSBASE
 10
0.0
 20
0.0
 30
0.0
  9
$EXTMIN
 10
-0.01900355
 20
-0.61032776
 30
-0.00000002
  9
$EXTMAX
 10
13750.96911115
 20
10000.61041676
 30
0.0
  9
$LIMMIN
 10
0.0
 20
0.0
  9
$LIMMAX
 10
420.0
 20
330.0
  9
$ORTHOMODE
 70
     1
  9
$REGENMODE
 70
     1
  9
$FILLMODE
 70
     1
  9
$QTEXTMODE
 70
     0
  9
$MIRRTEXT
 70
     0
  9
$LTSCALE
 40
1.0
  9
$ATTMODE
 70
     1
  9
$TEXTSIZE
 40
0.2
  9
$TRACEWID
 40
0.05
  9
$TEXTSTYLE
  7
STANDARD
  9
$CLAYER
  8
0
  9
$CELTYPE
  6
BYLAYER
  9
$CECOLOR
 62
   256
  9
$CELTSCALE
 40
1.0
  9
$DISPSILH
 70
     1
  9
$DIMSCALE
 40
1.0
  9
$DIMASZ
 40
0.18
  9
$DIMEXO
 40
0.0625
  9
$DIMDLI
 40
0.38
  9
$DIMRND
 40
0.0
  9
$DIMDLE
 40
0.0
  9
$DIMEXE
 40
0.18
  9
$DIMTP
 40
0.0
  9
$DIMTM
 40
0.0
  9
$DIMTXT
 40
0.18
  9
$DIMCEN
 40
0.09
  9
$DIMTSZ
 40
0.0
  9
$DIMTOL
 70
     0
  9
$DIMLIM
 70
     0
  9
$DIMTIH
 70
     1
  9
$DIMTOH
 70
     1
  9
$DIMSE1
 70
     0
  9
$DIMSE2
 70
     0
  9
$DIMTAD
 70
     0
  9
$DIMZIN
 70
     0
  9
$DIMBLK
  1

  9
$DIMASO
 70
     1
  9
$DIMSHO
 70
     0
  9
$DIMPOST
  1

  9
$DIMAPOST
  1

  9
$DIMALT
 70
     0
  9
$DIMALTD
 70
     2
  9
$DIMALTF
 40
25.4
  9
$DIMLFAC
 40
1.0
  9
$DIMTOFL
 70
     0
  9
$DIMTVP
 40
0.0
  9
$DIMTIX
 70
     0
  9
$DIMSOXD
 70
     0
  9
$DIMSAH
 70
     0
  9
$DIMBLK1
  1

  9
$DIMBLK2
  1

  9
$DIMSTYLE
  2
STANDARD
  9
$DIMCLRD
 70
     0
  9
$DIMCLRE
 70
     0
  9
$DIMCLRT
 70
     0
  9
$DIMTFAC
 40
1.0
  9
$DIMGAP
 40
0.09
  9
$DIMJUST
 70
     0
  9
$DIMSD1
 70
     0
  9
$DIMSD2
 70
     0
  9
$DIMTOLJ
 70
     1
  9
$DIMTZIN
 70
     0
  9
$DIMALTZ
 70
     0
  9
$DIMALTTZ
 70
     0
  9
$DIMUPT
 70
     0
  9
$DIMDEC
 70
     4
  9
$DIMTDEC
 70
     4
  9
$DIMALTU
 70
     2
  9
$DIMALTTD
 70
     2
  9
$DIMTXSTY
  7
STANDARD
  9
$DIMAUNIT
 70
     0
  9
$DIMADEC
 70
     0
  9
$DIMALTRND
 40
0.0
  9
$DIMAZIN
 70
     0
  9
$DIMDSEP
 70
    46
  9
$DIMATFIT
 70
     3
  9
$DIMFRAC
 70
     0
  9
$DIMLDRBLK
  1

  9
$DIMLUNIT
 70
     2
  9
$DIMLWD
 70
    -2
  9
$DIMLWE
 70
    -2
  9
$DIMTMOVE
 70
     2
  9
$LUNITS
 70
     2
  9
$LUPREC
 70
     4
  9
$SKETCHINC
 40
0.1
  9
$FILLETRAD
 40
1.0
  9
$AUNITS
 70
     0
  9
$AUPREC
 70
     0
  9
$MENU
  1
acad
  9
$ELEVATION
 40
0.0
  9
$PELEVATION
 40
0.0
  9
$THICKNESS
 40
0.0
  9
$LIMCHECK
 70
     0
  9
$CHAMFERA
 40
0.0
  9
$CHAMFERB
 40
0.0
  9
$CHAMFERC
 40
0.0
  9
$CHAMFERD
 40
0.0
  9
$SKPOLY
 70
     0
  9
$TDCREATE
 40
2452970.385810186
  9
$TDUCREATE
 40
2452970.010810185
  9
$TDUPDATE
 40
2459629.555925926
  9
$TDUUPDATE
 40
2459629.180925926
  9
$TDINDWG
 40
0.0509951389
  9
$TDUSRTIMER
 40
0.0509951389
  9
$USRTIMER
 70
     1
  9
$ANGBASE
 50
0.0
  9
$ANGDIR
 70
     0
  9
$PDMODE
 70
     0
  9
$PDSIZE
 40
0.0
  9
$PLINEWID
 40
0.0
  9
$SPLFRAME
 70
     0
  9
$SPLINETYPE
 70
     6
  9
$SPLINESEGS
 70
     8
  9
$HANDSEED
  5
1B71
  9
$SURFTAB1
 70
     6
  9
$SURFTAB2
 70
     6
  9
$SURFTYPE
 70
     6
  9
$SURFU
 70
     6
  9
$SURFV
 70
     6
  9
$UCSBASE
  2

  9
$UCSNAME
  2

  9
$UCSORG
 10
0.0
 20
0.0
 30
0.0
  9
$UCSXDIR
 10
1.0
 20
0.0
 30
0.0
  9
$UCSYDIR
 10
0.0
 20
1.0
 30
0.0
  9
$UCSORTHOREF
  2

  9
$UCSORTHOVIEW
 70
     0
  9
$UCSORGTOP
 10
0.0
 20
0.0
 30
0.0
  9
$UCSORGBOTTOM
 10
0.0
 20
0.0
 30
0.0
  9
$UCSORGLEFT
 10
0.0
 20
0.0
 30
0.0
  9
$UCSORGRIGHT
 10
0.0
 20
0.0
 30
0.0
  9
$UCSORGFRONT
 10
0.0
 20
0.0
 30
0.0
  9
$UCSORGBACK
 10
0.0
 20
0.0
 30
0.0
  9
$PUCSBASE
  2

  9
$PUCSNAME
  2

  9
$PUCSORG
 10
0.0
 20
0.0
 30
0.0
  9
$PUCSXDIR
 10
1.0
 20
0.0
 30
0.0
  9
$PUCSYDIR
 10
0.0
 20
1.0
 30
0.0
  9
$PUCSORTHOREF
  2

  9
$PUCSORTHOVIEW
 70
     0
  9
$PUCSORGTOP
 10
0.0
 20
0.0
 30
0.0
  9
$PUCSORGBOTTOM
 10
0.0
 20
0.0
 30
0.0
  9
$PUCSORGLEFT
 10
0.0
 20
0.0
 30
0.0
  9
$PUCSORGRIGHT
 10
0.0
 20
0.0
 30
0.0
  9
$PUCSORGFRONT
 10
0.0
 20
0.0
 30
0.0
  9
$PUCSORGBACK
 10
0.0
 20
0.0
 30
0.0
  9
$USERI1
 70
     0
  9
$USERI2
 70
     0
  9
$USERI3
 70
     0
  9
$USERI4
 70
     0
  9
$USERI5
 70
     0
  9
$USERR1
 40
0.0
  9
$USERR2
 40
0.0
  9
$USERR3
 40
0.0
  9
$USERR4
 40
0.0
  9
$USERR5
 40
0.0
  9
$WORLDVIEW
 70
     1
  9
$SHADEDGE
 70
     3
  9
$SHADEDIF
 70
    70
  9
$TILEMODE
 70
     1
  9
$MAXACTVP
 70
    16
  9
$PINSBASE
 10
0.0
 20
0.0
 30
0.0
  9
$PLIMCHECK
 70
     0
  9
$PEXTMIN
 10
1.00000000E+20
 20
1.00000000E+20
 30
1.00000000E+20
  9
$PEXTMAX
 10
-1.00000000E+20
 20
-1.00000000E+20
 30
-1.00000000E+20
  9
$PLIMMIN
 10
0.0
 20
0.0
  9
$PLIMMAX
 10
12.0
 20
9.0
  9
$UNITMODE
 70
     0
  9
$VISRETAIN
 70
     0
  9
$PLINEGEN
 70
     0
  9
$PSLTSCALE
 70
     0
  9
$TREEDEPTH
 70
  3020
  9
$CMLSTYLE
  2
STANDARD
  9
$CMLJUST
 70
     0
  9
$CMLSCALE
 40
1.0
  9
$PROXYGRAPHICS
 70
     1
  9
$MEASUREMENT
 70
     1
  9
$CELWEIGHT
370
    -1
  9
$ENDCAPS
280
     0
  9
$JOINSTYLE
280
     0
  9
$LWDISPLAY
290
     0
  9
$INSUNITS
 70
     0
  9
$HYPERLINKBASE
  1

  9
$STYLESHEET
  1

  9
$XEDIT
290
     1
  9
$CEPSNTYPE
380
     0
  9
$PSTYLEMODE
290
     1
  9
$FINGERPRINTGUID
  2
{CAAB3654-21F1-BD49-8A1E-EB116D500C4B}
  9
$VERSIONGUID
  2
{EE6A3ECC-7FCE-244C-81D5-6D4FBD576A92}
  9
$EXTNAMES
290
     1
  9
$PSVPSCALE
 40
0.0
  9
$OLESTARTUP
290
     0
  9
$SORTENTS
280
   127
  9
$INDEXCTL
280
     0
  9
$HIDETEXT
280
     0
  9
$XCLIPFRAME
290
     0
  9
$HALOGAP
280
     0
  9
$OBSCOLOR
 70
   257
  9
$OBSLTYPE
280
     0
  9
$INTERSECTIONDISPLAY
280
     0
  9
$INTERSECTIONCOLOR
 70
   257
  9
$DIMASSOC
280
     1
  9
$PROJECTNAME
  1

  0
ENDSEC
  0
SECTION
  2
CLASSES
  0
CLASS
  1
DICTIONARYVAR
  2
AcDbDictionaryVar
  3
ObjectDBX Classes
 90
        0
 91
        7
280
     0
281
     0
  0
CLASS
  1
ACDBDICTIONARYWDFLT
  2
AcDbDictionaryWithDefault
  3
ObjectDBX Classes
 90
        0
 91
        1
280
     1
281
     0
  0
CLASS
  1
MATERIAL
  2
AcDbMaterial
  3
ObjectDBX Classes
 90
     1153
 91
        3
280
     0
281
     0
  0
CLASS
  1
VISUALSTYLE
  2
AcDbVisualStyle
  3
ObjectDBX Classes
 90
     4095
 91
       24
280
     0
281
     0
  0
CLASS
  1
TABLESTYLE
  2
AcDbTableStyle
  3
ObjectDBX Classes
 90
     4095
 91
        1
280
     0
281
     0
  0
CLASS
  1
SCALE
  2
AcDbScale
  3
ObjectDBX Classes
 90
     1153
 91
       17
280
     0
281
     0
  0
CLASS
  1
MLEADERSTYLE
  2
AcDbMLeaderStyle
  3
ACDB_MLEADERSTYLE_CLASS
 90
     4095
 91
        1
280
     0
281
     0
  0
CLASS
  1
ACDBSECTIONVIEWSTYLE
  2
AcDbSectionViewStyle
  3
ObjectDBX Classes
 90
     1025
 91
        2
280
     0
281
     0
  0
CLASS
  1
ACDBDETAILVIEWSTYLE
  2
AcDbDetailViewStyle
  3
ObjectDBX Classes
 90
     1025
 91
        2
280
     0
281
     0
  0
CLASS
  1
RAPIDRTRENDERSETTINGS
  2
AcDbRapidRTRenderSettings
  3
ObjectDBX Classes
 90
     1024
 91
        1
280
     0
281
     0
  0
CLASS
  1
CELLSTYLEMAP
  2
AcDbCellStyleMap
  3
ObjectDBX Classes
 90
     1152
 91
        2
280
     0
281
     0
  0
CLASS
  1
MENTALRAYRENDERSETTINGS
  2
AcDbMentalRayRenderSettings
  3
SCENEOE
 90
     1024
 91
        1
280
     0
281
     0
  0
CLASS
  1
SOLID_BACKGROUND
  2
AcDbSolidBackground
  3
SCENEOE
 90
     4095
 91
        0
280
     0
281
     0
  0
CLASS
  1
NPOCOLLECTION
  2
AcDbImpNonPersistentObjectsCollection
  3
ObjectDBX Classes
 90
     1153
 91
        0
280
     0
281
     0
  0
CLASS
  1
SORTENTSTABLE
  2
AcDbSortentsTable
  3
ObjectDBX Classes
 90
        0
 91
        0
280
     0
281
     0
  0
ENDSEC
  0
SECTION
  2
TABLES
  0
TABLE
  2
VPORT
  5
16
102
{ACAD_XDICTIONARY
360
705
102
}
330
0
100
AcDbSymbolTable
 70
     1
  0
VPORT
  5
45
330
16
100
AcDbSymbolTableRecord
100
AcDbViewportTableRecord
  2
*ACTIVE
 70
     0
 10
0.0
 20
0.0
 11
1.0
 21
1.0
 12
6875.4750538
 22
5000.0000445
 13
0.0
 23
0.0
 14
1.0
 24
1.0
 15
10.0
 25
10.0
 16
0.0
 26
0.0
 36
1.0
 17
0.0
 27
0.0
 37
0.0
 40
10116.84179359
 41
2.57722008
 42
50.0
 43
0.0
 44
0.0
 50
0.0
 51
0.0
 71
     0
 72
   100
 73
     1
 74
     0
 75
     0
 76
     0
 77
     0
 78
     0
281
     0
 65
     1
110
0.0
120
0.0
130
0.0
111
1.0
121
0.0
131
0.0
112
0.0
122
1.0
132
0.0
 79
     0
146
0.0
1001
ACAD_NAV_VCDISPLAY
1070
     1
  0
ENDTAB
  0
TABLE
  2
LTYPE
  5
11
330
0
100
AcDbSymbolTable
 70
     1
  0
LTYPE
  5
12
330
11
100
AcDbSymbolTableRecord
100
AcDbLinetypeTableRecord
  2
BYBLOCK
 70
     0
  3

 72
    65
 73
     0
 40
0.0
  0
LTYPE
  5
13
330
11
100
AcDbSymbolTableRecord
100
AcDbLinetypeTableRecord
  2
BYLAYER
 70
     0
  3

 72
    65
 73
     0
 40
0.0
  0
LTYPE
  5
7
330
11
100
AcDbSymbolTableRecord
100
AcDbLinetypeTableRecord
  2
CONTINUOUS
 70
     0
  3
Solid line
 72
    65
 73
     0
 40
0.0
  0
ENDTAB
  0
TABLE
  2
LAYER
  5
E
102
{ACAD_XDICTIONARY
360
116
102
}
330
0
100
AcDbSymbolTable
 70
    11
  0
LAYER
  5
6
102
{ACAD_XDICTIONARY
360
B2
102
}
330
E
100
AcDbSymbolTableRecord
100
AcDbLayerTableRecord
  2
0
 70
     0
 62
     7
  6
CONTINUOUS
370
    -3
390
48
  0
LAYER
  5
24
102
{ACAD_XDICTIONARY
360
B4
102
}
330
E
100
AcDbSymbolTableRecord
100
AcDbLayerTableRecord
  2
YKK_F1
 70
     0
 62
     7
  6
CONTINUOUS
370
    -3
390
48
  0
LAYER
  5
103
330
E
100
AcDbSymbolTableRecord
100
AcDbLayerTableRecord
  2
YKK_A1
 70
     0
 62
     4
  6
CONTINUOUS
370
    30
390
48
1001
AcAecLayerStandard
1000

1000
姿図
  0
LAYER
  5
104
102
{ACAD_XDICTIONARY
360
105
102
}
330
E
100
AcDbSymbolTableRecord
100
AcDbLayerTableRecord
  2
YKK_B1
 70
     0
 62
     4
  6
CONTINUOUS
370
    -3
390
48
  0
LAYER
  5
106
102
{ACAD_XDICTIONARY
360
107
102
}
330
E
100
AcDbSymbolTableRecord
100
AcDbLayerTableRecord
  2
YKK_C1
 70
     0
 62
     4
  6
CONTINUOUS
370
    -3
390
48
  0
LAYER
  5
108
102
{ACAD_XDICTIONARY
360
109
102
}
330
E
100
AcDbSymbolTableRecord
100
AcDbLayerTableRecord
  2
YKK_N1
 70
     0
 62
     2
  6
CONTINUOUS
370
    -3
390
48
  0
LAYER
  5
10A
102
{ACAD_XDICTIONARY
360
10B
102
}
330
E
100
AcDbSymbolTableRecord
100
AcDbLayerTableRecord
  2
YKK_Z1
 70
     0
 62
     7
  6
CONTINUOUS
370
    -3
390
48
  0
LAYER
  5
10C
102
{ACAD_XDICTIONARY
360
10D
102
}
330
E
100
AcDbSymbolTableRecord
100
AcDbLayerTableRecord
  2
YKK_B2
 70
     0
 62
     5
  6
CONTINUOUS
370
    -3
390
48
  0
LAYER
  5
10E
102
{ACAD_XDICTIONARY
360
10F
102
}
330
E
100
AcDbSymbolTableRecord
100
AcDbLayerTableRecord
  2
YKK_C2
 70
     0
 62
     5
  6
CONTINUOUS
370
    -3
390
48
  0
LAYER
  5
110
330
E
100
AcDbSymbolTableRecord
100
AcDbLayerTableRecord
  2
YKK_B1E
 70
     2
 62
     7
  6
CONTINUOUS
370
    30
390
48
1001
AcAecLayerStandard
1000

1000
姿図
1001
AcCmTransparency
1071
        0
  0
LAYER
  5
111
330
E
100
AcDbSymbolTableRecord
100
AcDbLayerTableRecord
  2
YKK_C1E
 70
     2
 62
     7
  6
CONTINUOUS
370
    30
390
48
1001
AcAecLayerStandard
1000

1000
姿図
1001
AcCmTransparency
1071
        0
  0
ENDTAB
  0
TABLE
  2
STYLE
  5
F
330
0
100
AcDbSymbolTable
 70
     3
  0
STYLE
  5
10
330
F
100
AcDbSymbolTableRecord
100
AcDbTextStyleTableRecord
  2
STANDARD
 70
     0
 40
0.0
 41
1.0
 50
0.0
 71
     0
 42
0.2
  3
txt
  4

  0
STYLE
  5
3C
330
F
100
AcDbSymbolTableRecord
100
AcDbTextStyleTableRecord
  2
EXTFONT
 70
     0
 40
60.0
 41
1.0
 50
0.0
 71
     0
 42
60.0
  3
txt.shx
  4
EXTFONT
  0
STYLE
  5
112
330
F
100
AcDbSymbolTableRecord
100
AcDbTextStyleTableRecord
  2
MX_NOTE_STANDARD
 70
     0
 40
0.0
 41
1.0
 50
0.0
 71
     0
 42
3.0
  3
txt.shx
  4
extfont.shx
  0
ENDTAB
  0
TABLE
  2
VIEW
  5
14
330
0
100
AcDbSymbolTable
 70
     0
  0
ENDTAB
  0
TABLE
  2
UCS
  5
15
330
0
100
AcDbSymbolTable
 70
     0
  0
ENDTAB
  0
TABLE
  2
APPID
  5
18
330
0
100
AcDbSymbolTable
 70
     8
  0
APPID
  5
19
330
18
100
AcDbSymbolTableRecord
100
AcDbRegAppTableRecord
  2
ACAD
 70
     0
  0
APPID
  5
9E
330
18
100
AcDbSymbolTableRecord
100
AcDbRegAppTableRecord
  2
ACAD_NAV_VCDISPLAY
 70
     0
  0
APPID
  5
9F
330
18
100
AcDbSymbolTableRecord
100
AcDbRegAppTableRecord
  2
YKK_AP_LOCKLAYER
 70
     0
  0
APPID
  5
113
330
18
100
AcDbSymbolTableRecord
100
AcDbRegAppTableRecord
  2
AcAecLayerStandard
 70
     0
  0
APPID
  5
114
330
18
100
AcDbSymbolTableRecord
100
AcDbRegAppTableRecord
  2
YOBJCUT10427141548
 70
     0
  0
APPID
  5
115
330
18
100
AcDbSymbolTableRecord
100
AcDbRegAppTableRecord
  2
AcCmTransparency
 70
     0
  0
APPID
  5
6CE
330
18
100
AcDbSymbolTableRecord
100
AcDbRegAppTableRecord
  2
ACAD_EXEMPT_FROM_CAD_STANDARDS
 70
     0
  0
APPID
  5
73B
330
18
100
AcDbSymbolTableRecord
100
AcDbRegAppTableRecord
  2
ACAD_MLEADERVER
 70
     0
  0
ENDTAB
  0
TABLE
  2
DIMSTYLE
  5
1A
330
0
100
AcDbSymbolTable
 70
     1
100
AcDbDimStyleTable
 71
     1
340
20
  0
DIMSTYLE
105
20
330
1A
100
AcDbSymbolTableRecord
100
AcDbDimStyleTableRecord
  2
STANDARD
 70
     0
279
     2
340
10
  0
ENDTAB
  0
TABLE
  2
BLOCK_RECORD
  5
1
330
0
100
AcDbSymbolTable
 70
     0
  0
BLOCK_RECORD
  5
2
102
{ACAD_XDICTIONARY
360
3
102
}
330
1
100
AcDbSymbolTableRecord
100
AcDbBlockTableRecord
  2
*MODEL_SPACE
340
98
  0
BLOCK_RECORD
  5
9
102
{ACAD_XDICTIONARY
360
A
102
}
330
1
100
AcDbSymbolTableRecord
100
AcDbBlockTableRecord
  2
*PAPER_SPACE
340
99
  0
ENDTAB
  0
ENDSEC
  0
SECTION
  2
BLOCKS
  0
BLOCK
  5
5
330
2
100
AcDbEntity
  8
0
100
AcDbBlockBegin
  2
*MODEL_SPACE
 70
     0
 10
0.0
 20
0.0
 30
0.0
  3
*MODEL_SPACE
  1

  0
ENDBLK
  5
8
330
2
100
AcDbEntity
  8
0
100
AcDbBlockEnd
  0
BLOCK
  5
C
330
9
100
AcDbEntity
 67
     1
  8
0
100
AcDbBlockBegin
  2
*PAPER_SPACE
 70
     0
 10
0.0
 20
0.0
 30
0.0
  3
*PAPER_SPACE
  1

  0
ENDBLK
  5
D
330
9
100
AcDbEntity
 67
     1
  8
0
100
AcDbBlockEnd
  0
ENDSEC
  0
SECTION
  2
ENTITIES
  0
LINE
  5
2C
330
2
100
AcDbEntity
  8
YKK_F1
 62
     7
100
AcDbLine
 10
0.0
 20
9300.0
 30
0.0
 11
13500.0
 21
9300.0
 31
0.0
  0
LINE
  5
2D
330
2
100
AcDbEntity
  8
YKK_F1
 62
     7
100
AcDbLine
 10
0.0
 20
9525.0
 30
0.0
 11
13500.0
 21
9525.0
 31
0.0
  0
LINE
  5
32
330
2
100
AcDbEntity
  8
YKK_F1
 62
     7
100
AcDbLine
 10
0.0
 20
9750.0
 30
0.0
 11
13500.0
 21
9750.0
 31
0.0
  0
LINE
  5
33
330
2
100
AcDbEntity
  8
YKK_F1
 62
     7
100
AcDbLine
 10
0.0
 20
0.0
 30
0.0
 11
13750.0
 21
0.0
 31
0.0
  0
LINE
  5
34
330
2
100
AcDbEntity
  8
YKK_F1
 62
     7
100
AcDbLine
 10
0.0
 20
10000.0
 30
0.0
 11
13750.0
 21
10000.0
 31
0.0
  0
LINE
  5
3A
330
2
100
AcDbEntity
  8
YKK_F1
 62
     7
100
AcDbLine
 10
0.0
 20
0.0
 30
0.0
 11
0.0
 21
10000.0
 31
0.0
  0
TEXT
  5
3B
330
2
100
AcDbEntity
  8
0
100
AcDbText
 10
50.0
 20
9368.75
 30
0.0
 40
87.5
  1
新設窓W=1,690 H=1,170
  7
EXTFONT
100
AcDbText
  0
TEXT
  5
3D
330
2
100
AcDbEntity
  8
0
100
AcDbText
 10
50.0
 20
9593.75
 30
0.0
 40
87.5
  1
浴室仕様 窓単独交換 【既設窓】：引違い窓(半外付型) 例：フレミングII 【新設窓】：樹脂窓 引違い窓
  7
EXTFONT
100
AcDbText
  0
TEXT
  5
3E
330
2
100
AcDbEntity
  8
0
100
AcDbText
 10
250.0
 20
9812.5
 30
0.0
 40
125.0
  1
ＭＡＤＲＸ０９　かんたんマドリモ　断熱窓　戸建用
  7
EXTFONT
100
AcDbText
  0
LINE
  5
3F
330
2
100
AcDbEntity
  8
YKK_F1
 62
     7
100
AcDbLine
 10
13500.0
 20
0.0
 30
0.0
 11
13500.0
 21
9750.0
 31
0.0
  0
LINE
  5
40
330
2
100
AcDbEntity
  8
YKK_F1
 62
     7
100
AcDbLine
 10
13750.0
 20
0.0
 30
0.0
 11
13750.0
 21
10000.0
 31
0.0
  0
TEXT
  5
7C9
330
2
100
AcDbEntity
  8
0
100
AcDbText
 10
8534.7087729
 20
9812.5
 30
0.0
 40
100.0
  1
※図面を簡略化しております。詳細につきましては、詳細図（納まり図）をご参照ください。
  7
EXTFONT
 72
     2
 11
13485.66115385
 21
9812.5
 31
0.0
100
AcDbText
  0
LINE
  5
17F7
330
2
100
AcDbEntity
  8
YKK_Z1
  6
Continuous
 48
1.5
100
AcDbLine
 10
8121.99994673
 20
6713.75005637
 30
0.0
 11
8226.99994673
 21
6713.75005637
 31
0.0
  0
LINE
  5
17F8
330
2
100
AcDbEntity
  8
YKK_Z1
  6
Continuous
 48
1.5
100
AcDbLine
 10
8226.99994673
 20
6713.75005637
 30
0.0
 11
8226.99994673
 21
6751.75089078
 31
0.0
  0
LINE
  5
17F9
330
2
100
AcDbEntity
  8
YKK_Z1
  6
Continuous
 48
1.5
100
AcDbLine
 10
8210.66856036
 20
6751.75089078
 30
0.0
 11
8121.99994673
 21
6713.75005637
 31
0.0
  0
LINE
  5
17FA
330
2
100
AcDbEntity
  8
YKK_Z1
  6
Continuous
 48
1.5
100
AcDbLine
 10
8122.00000021
 20
6713.75005637
 30
0.0
 11
8122.00000021
 21
6751.75089078
 31
0.0
  0
LINE
  5
17FB
330
2
100
AcDbEntity
  8
YKK_Z1
  6
Continuous
 48
1.5
100
AcDbLine
 10
8305.03754254
 20
6716.25009889
 30
0.0
 11
8296.01538598
 21
6716.25009889
 31
0.0
  0
LINE
  5
17FC
330
2
100
AcDbEntity
  8
YKK_Z1
  6
Continuous
 48
1.5
100
AcDbLine
 10
8290.99982473
 20
6751.75089078
 30
0.0
 11
8290.99982473
 21
6709.75010474
 31
0.0
  0
LINE
  5
17FD
330
2
100
AcDbEntity
  8
YKK_Z1
  6
Continuous
 48
1.5
100
AcDbLine
 10
8290.99994673
 20
6709.75010474
 30
0.0
 11
8290.99994673
 21
6693.75010474
 31
0.0
  0
LINE
  5
17FE
330
2
100
AcDbEntity
  8
YKK_Z1
  6
Continuous
 48
1.5
100
AcDbLine
 10
8290.99994673
 20
6693.75010474
 30
0.0
 11
8280.99994673
 21
6693.75010474
 31
0.0
  0
LINE
  5
17FF
330
2
100
AcDbEntity
  8
YKK_Z1
  6
Continuous
 48
1.5
100
AcDbLine
 10
8280.99994673
 20
6751.75089078
 30
0.0
 11
8280.99994673
 21
6693.75010474
 31
0.0
  0
LINE
  5
1800
330
2
100
AcDbEntity
  8
YKK_C2
  6
Continuous
 48
1.5
100
AcDbLine
 10
8290.99982473
 20
6723.25022674
 30
0.0
 11
8295.99994673
 21
6718.25010474
 31
0.0
  0
LINE
  5
1801
330
2
100
AcDbEntity
  8
YKK_C2
  6
Continuous
 48
1.5
100
AcDbLine
 10
8290.99982473
 20
6720.45929662
 30
0.0
 11
8292.39528979
 21
6721.85476168
 31
0.0
  0
LINE
  5
1802
330
2
100
AcDbEntity
  8
YKK_C2
  6
Continuous
 48
1.5
100
AcDbLine
 10
8290.99982473
 20
6717.6308695
 30
0.0
 11
8293.80950336
 21
6720.44054812
 31
0.0
  0
LINE
  5
1803
330
2
100
AcDbEntity
  8
YKK_C2
  6
Continuous
 48
1.5
100
AcDbLine
 10
8294.4474871
 20
6718.25010474
 30
0.0
 11
8295.22371692
 21
6719.02633456
 31
0.0
  0
LINE
  5
1804
330
2
100
AcDbEntity
  8
YKK_C2
  6
Continuous
 48
1.5
100
AcDbLine
 10
8290.99982473
 20
6720.42179752
 30
0.0
 11
8293.17151751
 21
6718.25010474
 31
0.0
  0
LINE
  5
1805
330
2
100
AcDbEntity
  8
YKK_C2
  6
Continuous
 48
1.5
100
AcDbLine
 10
8290.99982473
 20
6714.76494327
 30
0.0
 11
8291.99994254
 21
6713.76482546
 31
0.0
  0
LINE
  5
1806
330
2
100
AcDbEntity
  8
YKK_C2
  6
Continuous
 48
1.5
100
AcDbLine
 10
8290.99982473
 20
6717.5933704
 30
0.0
 11
8291.99994254
 21
6716.59325259
 31
0.0
  0
LINE
  5
1807
330
2
100
AcDbEntity
  8
YKK_C2
  6
Continuous
 48
1.5
100
AcDbLine
 10
8290.99982473
 20
6711.93651615
 30
0.0
 11
8291.99994254
 21
6710.93639834
 31
0.0
  0
LINE
  5
1808
330
2
100
AcDbEntity
  8
YKK_C2
  6
Continuous
 48
1.5
100
AcDbLine
 10
8290.99982473
 20
6714.80244237
 30
0.0
 11
8291.99994254
 21
6715.80256018
 31
0.0
  0
LINE
  5
1809
330
2
100
AcDbEntity
  8
YKK_C2
  6
Continuous
 48
1.5
100
AcDbLine
 10
8290.99982473
 20
6711.97401525
 30
0.0
 11
8291.99994254
 21
6712.97413306
 31
0.0
  0
LINE
  5
180A
330
2
100
AcDbEntity
  8
YKK_Z1
  6
Continuous
 48
1.5
100
AcDbLine
 10
8121.99999991
 20
5431.25012021
 30
0.0
 11
8226.99999991
 21
5431.25012021
 31
0.0
  0
LINE
  5
180B
330
2
100
AcDbEntity
  8
YKK_Z1
  6
Continuous
 48
1.5
100
AcDbLine
 10
8290.99982364
 20
5352.45848611
 30
0.0
 11
8290.99982364
 21
5440.24975551
 31
0.0
  0
LINE
  5
180C
330
2
100
AcDbEntity
  8
YKK_Z1
  6
Continuous
 48
1.5
100
AcDbLine
 10
8290.99994564
 20
5440.24975551
 30
0.0
 11
8290.99994564
 21
5456.24975551
 31
0.0
  0
LINE
  5
180D
330
2
100
AcDbEntity
  8
YKK_Z1
  6
Continuous
 48
1.5
100
AcDbLine
 10
8290.99994564
 20
5456.24975551
 30
0.0
 11
8280.99994564
 21
5456.24975551
 31
0.0
  0
LINE
  5
180E
330
2
100
AcDbEntity
  8
YKK_Z1
  6
Continuous
 48
1.5
100
AcDbLine
 10
8280.99994564
 20
5352.45848611
 30
0.0
 11
8280.99994564
 21
5456.24975551
 31
0.0
  0
LINE
  5
180F
330
2
100
AcDbEntity
  8
YKK_C2
  6
ByBlock
 48
1.5
100
AcDbLine
 10
8163.99989213
 20
5470.89172273
 30
0.0
 11
8166.14184976
 21
5468.7497651
 31
0.0
  0
LINE
  5
1810
330
2
100
AcDbEntity
  8
YKK_C2
  6
ByBlock
 48
1.5
100
AcDbLine
 10
8166.98850895
 20
5468.7497651
 30
0.0
 11
8167.34352274
 21
5469.10477889
 31
0.0
  0
LINE
  5
1811
330
2
100
AcDbEntity
  8
YKK_C2
  6
ByBlock
 48
1.5
100
AcDbLine
 10
8164.86718861
 20
5468.7497651
 30
0.0
 11
8166.22533191
 21
5470.10790841
 31
0.0
  0
LINE
  5
1812
330
2
100
AcDbEntity
  8
YKK_C2
  6
ByBlock
 48
1.5
100
AcDbLine
 10
8163.99989213
 20
5470.00378897
 30
0.0
 11
8165.10714108
 21
5471.11103792
 31
0.0
  0
LINE
  5
1813
330
2
100
AcDbEntity
  8
YKK_C2
  6
ByBlock
 48
1.5
100
AcDbLine
 10
8163.99894013
 20
5472.10520551
 30
0.0
 11
8167.73925744
 21
5468.7497651
 31
0.0
  0
LINE
  5
1814
330
2
100
AcDbEntity
  8
YKK_C2
  6
ByBlock
 48
1.5
370
    -2
100
AcDbLine
 10
8163.99911523
 20
6679.95207681
 30
0.0
 11
8165.29713598
 21
6681.25009757
 31
0.0
  0
LINE
  5
1815
330
2
100
AcDbEntity
  8
YKK_C2
  6
ByBlock
 48
1.5
370
    -2
100
AcDbLine
 10
8165.20341476
 20
6681.25009757
 30
0.0
 11
8165.95191122
 21
6680.50160111
 31
0.0
  0
LINE
  5
1816
330
2
100
AcDbEntity
  8
YKK_C2
  6
ByBlock
 48
1.5
370
    -2
100
AcDbLine
 10
8163.99918672
 20
6680.33300527
 30
0.0
 11
8164.83372039
 21
6679.4984716
 31
0.0
  0
LINE
  5
1817
330
2
100
AcDbEntity
  8
YKK_C2
  6
ByBlock
 48
1.5
370
    -2
100
AcDbLine
 10
8163.99953213
 20
6678.75012092
 30
0.0
 11
8166.78626197
 21
6681.25009757
 31
0.0
  0
LINE
  5
1818
330
2
100
AcDbEntity
  8
YKK_C2
  6
ByBlock
 48
1.5
370
    -2
100
AcDbLine
 10
8163.99888954
 20
6678.74954446
 30
0.0
 11
8163.99935883
 21
6681.25009757
 31
0.0
  0
LINE
  5
1819
330
2
100
AcDbEntity
  8
YKK_Z1
  6
Continuous
 48
1.5
100
AcDbLine
 10
8122.00000021
 20
6708.75008598
 30
0.0
 11
8121.99991465
 21
6713.75005637
 31
0.0
  0
LINE
  5
181A
330
2
100
AcDbEntity
  8
YKK_Z1
  6
Continuous
 48
1.5
100
AcDbLine
 10
8149.00000021
 20
6708.75037474
 30
0.0
 11
8148.99991465
 21
6713.75034514
 31
0.0
  0
LINE
  5
181B
330
2
100
AcDbEntity
  8
YKK_Z1
  6
Continuous
 48
1.5
100
AcDbLine
 10
8149.00000021
 20
6708.75037474
 30
0.0
 11
8122.00000021
 21
6708.75008598
 31
0.0
  0
LINE
  5
181C
330
2
100
AcDbEntity
  8
YKK_Z1
  6
Continuous
 48
1.5
100
AcDbLine
 10
8148.99991465
 20
6713.75034514
 30
0.0
 11
8121.99991465
 21
6713.75005637
 31
0.0
  0
LINE
  5
181D
330
2
100
AcDbEntity
  8
YKK_Z1
  6
Continuous
 48
1.5
100
AcDbLine
 10
8122.00000005
 20
6708.75008267
 30
0.0
 11
8148.99991465
 21
6713.75034514
 31
0.0
  0
LINE
  5
181E
330
2
100
AcDbEntity
  8
YKK_Z1
  6
Continuous
 48
1.5
100
AcDbLine
 10
8148.99671057
 20
6689.2498088
 30
0.0
 11
8148.99826983
 21
6713.75005637
 31
0.0
  0
LINE
  5
181F
330
2
100
AcDbEntity
  8
YKK_Z1
  6
Continuous
 48
1.5
100
AcDbLine
 10
8226.99994673
 20
6689.25009757
 30
0.0
 11
8227.00150599
 21
6713.75034514
 31
0.0
  0
LINE
  5
1820
330
2
100
AcDbEntity
  8
YKK_Z1
  6
Continuous
 48
1.5
100
AcDbLine
 10
8226.99994673
 20
6689.25009757
 30
0.0
 11
8148.99671057
 21
6689.2498088
 31
0.0
  0
LINE
  5
1821
330
2
100
AcDbEntity
  8
YKK_Z1
  6
Continuous
 48
1.5
100
AcDbLine
 10
8227.00150599
 20
6713.75034514
 30
0.0
 11
8148.99826983
 21
6713.75005637
 31
0.0
  0
LINE
  5
1822
330
2
100
AcDbEntity
  8
YKK_Z1
  6
Continuous
 48
1.5
100
AcDbLine
 10
8148.99671041
 20
6689.24980549
 30
0.0
 11
8227.00150599
 21
6713.75034514
 31
0.0
  0
LINE
  5
1823
330
2
100
AcDbEntity
  8
YKK_Z1
  6
Continuous
 48
1.5
100
AcDbLine
 10
8117.50678734
 20
6751.75089078
 30
0.0
 11
8103.99997696
 21
6717.98386485
 31
0.0
  0
LINE
  5
1824
330
2
100
AcDbEntity
  8
YKK_Z1
  6
Continuous
 48
1.5
100
AcDbLine
 10
8103.99997696
 20
6717.98386485
 30
0.0
 11
8117.99997696
 21
6717.98386485
 31
0.0
  0
LINE
  5
1825
330
2
100
AcDbEntity
  8
YKK_Z1
  6
Continuous
 48
1.5
100
AcDbLine
 10
8121.99997696
 20
6717.98386485
 30
0.0
 11
8121.99997696
 21
6751.75089078
 31
0.0
  0
LINE
  5
1826
330
2
100
AcDbEntity
  8
YKK_Z1
  6
Continuous
 48
1.5
100
AcDbLine
 10
8103.99997696
 20
6751.75089078
 30
0.0
 11
8103.99997696
 21
6717.98386485
 31
0.0
  0
LINE
  5
1827
330
2
100
AcDbEntity
  8
YKK_C2
  6
Continuous
 48
1.5
100
AcDbLine
 10
8091.99997696
 20
6717.98386485
 30
0.0
 11
8091.99997696
 21
6707.98386485
 31
0.0
  0
LINE
  5
1828
330
2
100
AcDbEntity
  8
YKK_C2
  6
Continuous
 48
1.5
100
AcDbLine
 10
8104.99997696
 20
6717.98386485
 30
0.0
 11
8091.99997696
 21
6717.98386485
 31
0.0
  0
LINE
  5
1829
330
2
100
AcDbEntity
  8
YKK_C2
  6
Continuous
 48
1.5
100
AcDbLine
 10
8096.76438778
 20
6708.23355704
 30
0.0
 11
8101.99997696
 21
6713.46914622
 31
0.0
  0
LINE
  5
182A
330
2
100
AcDbEntity
  8
YKK_C2
  6
Continuous
 48
1.5
100
AcDbLine
 10
8091.99997696
 20
6709.12600047
 30
0.0
 11
8100.85784134
 21
6717.98386485
 31
0.0
  0
LINE
  5
182B
330
2
100
AcDbEntity
  8
YKK_C2
  6
Continuous
 48
1.5
100
AcDbLine
 10
8091.99997696
 20
6714.78285472
 30
0.0
 11
8095.20098709
 21
6717.98386485
 31
0.0
  0
LINE
  5
182C
330
2
100
AcDbEntity
  8
YKK_C2
  6
Continuous
 48
1.5
100
AcDbLine
 10
8103.99997696
 20
6717.98386485
 30
0.0
 11
8091.99997696
 21
6717.98386485
 31
0.0
  0
LINE
  5
182D
330
2
100
AcDbEntity
  8
YKK_Z1
  6
Continuous
 48
1.5
100
AcDbLine
 10
8091.99997696
 20
6751.75089078
 30
0.0
 11
8091.99997696
 21
6717.98386485
 31
0.0
  0
LINE
  5
182E
330
2
100
AcDbEntity
  8
YKK_Z1
  6
Continuous
 48
1.5
100
AcDbLine
 10
8103.99997696
 20
6751.75089078
 30
0.0
 11
8103.99997696
 21
6717.98386485
 31
0.0
  0
LINE
  5
182F
330
2
100
AcDbEntity
  8
YKK_Z1
  6
Continuous
 48
1.5
100
AcDbLine
 10
8121.99997696
 20
6714.98386485
 30
0.0
 11
8121.99997696
 21
6711.4465365
 31
0.0
  0
LINE
  5
1830
330
2
100
AcDbEntity
  8
YKK_Z1
  6
Continuous
 48
1.5
100
AcDbLine
 10
8120.00000001
 20
6717.98386485
 30
0.0
 11
8104.99997696
 21
6717.98386485
 31
0.0
  0
LINE
  5
1831
330
2
100
AcDbEntity
  8
YKK_C2
  6
Continuous
 48
1.5
100
AcDbLine
 10
8101.99997696
 20
6717.98386485
 30
0.0
 11
8101.99997696
 21
6708.50794264
 31
0.0
  0
LINE
  5
1832
330
2
100
AcDbEntity
  8
YKK_Z1
  6
Continuous
 48
1.5
100
AcDbLine
 10
8226.99997696
 20
6713.75005097
 30
0.0
 11
8226.99997696
 21
6751.75089078
 31
0.0
  0
LINE
  5
1833
330
2
100
AcDbEntity
  8
YKK_Z1
  6
Continuous
 48
1.5
100
AcDbLine
 10
8121.99997696
 20
6751.75089078
 30
0.0
 11
8121.99997696
 21
6713.75005097
 31
0.0
  0
LINE
  5
1834
330
2
100
AcDbEntity
  8
YKK_Z1
  6
Continuous
 48
1.5
100
AcDbLine
 10
8121.99997696
 20
6713.75005097
 30
0.0
 11
8226.99997696
 21
6713.75005097
 31
0.0
  0
LINE
  5
1835
330
2
100
AcDbEntity
  8
YKK_Z1
  6
Continuous
 48
1.5
100
AcDbLine
 10
8121.99997696
 20
6713.75005097
 30
0.0
 11
8210.66860319
 21
6751.75089078
 31
0.0
  0
LINE
  5
1836
330
2
100
AcDbEntity
  8
YKK_Z1
  6
Continuous
 48
1.5
100
AcDbLine
 10
8174.49855138
 20
5352.45848611
 30
0.0
 11
8174.49855138
 21
5386.75000869
 31
0.0
  0
LINE
  5
1837
330
2
100
AcDbEntity
  8
YKK_Z1
  6
Continuous
 48
1.5
100
AcDbLine
 10
8226.99855138
 20
5386.75000869
 30
0.0
 11
8226.99855138
 21
5352.45848611
 31
0.0
  0
LINE
  5
1838
330
2
100
AcDbEntity
  8
YKK_Z1
  6
Continuous
 48
1.5
100
AcDbLine
 10
8121.99855138
 20
5386.75000869
 30
0.0
 11
8121.99855138
 21
5352.45848611
 31
0.0
  0
LINE
  5
1839
330
2
100
AcDbEntity
  8
YKK_Z1
  6
Continuous
 48
1.5
100
AcDbLine
 10
8119.99999992
 20
5404.25012024
 30
0.0
 11
8103.99999991
 21
5364.25012021
 31
0.0
  0
LINE
  5
183A
330
2
100
AcDbEntity
  8
YKK_Z1
  6
Continuous
 48
1.5
100
AcDbLine
 10
8103.99999991
 20
5409.25012021
 30
0.0
 11
8118.99999991
 21
5409.25012021
 31
0.0
  0
LINE
  5
183B
330
2
100
AcDbEntity
  8
YKK_Z1
  6
Continuous
 48
1.5
100
AcDbLine
 10
8103.99999991
 20
5364.25012021
 30
0.0
 11
8121.99999991
 21
5364.25012021
 31
0.0
  0
LINE
  5
183C
330
2
100
AcDbEntity
  8
YKK_Z1
  6
Continuous
 48
1.5
100
AcDbLine
 10
8121.99999991
 20
5364.25012021
 30
0.0
 11
8121.99999991
 21
5409.25012021
 31
0.0
  0
LINE
  5
183D
330
2
100
AcDbEntity
  8
YKK_Z1
  6
Continuous
 48
1.5
100
AcDbLine
 10
8103.99999991
 20
5409.25012021
 30
0.0
 11
8103.99999991
 21
5364.25012021
 31
0.0
  0
LINE
  5
183E
330
2
100
AcDbEntity
  8
YKK_C2
  6
Continuous
 48
1.5
100
AcDbLine
 10
8091.99999991
 20
5409.25012021
 30
0.0
 11
8091.99999991
 21
5419.25012021
 31
0.0
  0
LINE
  5
183F
330
2
100
AcDbEntity
  8
YKK_Z1
  6
Continuous
 48
1.5
100
AcDbLine
 10
8104.99999991
 20
5409.25012021
 30
0.0
 11
8091.99999991
 21
5409.25012021
 31
0.0
  0
LINE
  5
1840
330
2
100
AcDbEntity
  8
YKK_C2
  6
Continuous
 48
1.5
100
AcDbLine
 10
8096.51471853
 20
5409.25012021
 30
0.0
 11
8101.99999991
 21
5414.73540159
 31
0.0
  0
LINE
  5
1841
330
2
100
AcDbEntity
  8
YKK_C2
  6
Continuous
 48
1.5
100
AcDbLine
 10
8091.99999991
 20
5410.39225584
 30
0.0
 11
8100.85786428
 21
5419.25012021
 31
0.0
  0
LINE
  5
1842
330
2
100
AcDbEntity
  8
YKK_C2
  6
Continuous
 48
1.5
100
AcDbLine
 10
8091.99999991
 20
5416.04911009
 30
0.0
 11
8095.20101003
 21
5419.25012021
 31
0.0
  0
LINE
  5
1843
330
2
100
AcDbEntity
  8
YKK_Z1
  6
Continuous
 48
1.5
100
AcDbLine
 10
8121.99999991
 20
5412.25012021
 30
0.0
 11
8121.99999991
 21
5417.89691504
 31
0.0
  0
LINE
  5
1844
330
2
100
AcDbEntity
  8
YKK_Z1
  6
Continuous
 48
1.5
100
AcDbLine
 10
8119.99999992
 20
5409.25012021
 30
0.0
 11
8104.99999991
 21
5409.25012021
 31
0.0
  0
LINE
  5
1845
330
2
100
AcDbEntity
  8
YKK_C2
  6
Continuous
 48
1.5
100
AcDbLine
 10
8101.99999991
 20
5409.25012021
 30
0.0
 11
8101.99999991
 21
5419.25012021
 31
0.0
  0
LINE
  5
1846
330
2
100
AcDbEntity
  8
YKK_Z1
  6
Continuous
 48
1.5
100
AcDbLine
 10
8091.99999991
 20
5352.45848611
 30
0.0
 11
8091.99999991
 21
5409.25011343
 31
0.0
  0
LINE
  5
1847
330
2
100
AcDbEntity
  8
YKK_Z1
  6
Continuous
 48
1.5
100
AcDbLine
 10
8103.99999991
 20
5352.45848611
 30
0.0
 11
8103.99999991
 21
5409.25012021
 31
0.0
  0
LINE
  5
1848
330
2
100
AcDbEntity
  8
YKK_C2
  6
Continuous
 48
1.5
100
AcDbLine
 10
8103.99999991
 20
5409.25012021
 30
0.0
 11
8091.99999991
 21
5409.25012021
 31
0.0
  0
LINE
  5
1849
330
2
100
AcDbEntity
  8
YKK_Z1
  6
Continuous
 48
1.5
100
AcDbLine
 10
8226.99999991
 20
5386.25012021
 30
0.0
 11
8226.99999991
 21
5431.25012021
 31
0.0
  0
LINE
  5
184A
330
2
100
AcDbEntity
  8
YKK_Z1
  6
Continuous
 48
1.5
100
AcDbLine
 10
8226.99999991
 20
5431.25012021
 30
0.0
 11
8121.99999991
 21
5431.25012021
 31
0.0
  0
LINE
  5
184B
330
2
100
AcDbEntity
  8
YKK_Z1
  6
Continuous
 48
1.5
100
AcDbLine
 10
8121.99999991
 20
5431.25012021
 30
0.0
 11
8121.99999991
 21
5386.25012021
 31
0.0
  0
LINE
  5
184C
330
2
100
AcDbEntity
  8
YKK_Z1
  6
Continuous
 48
1.5
100
AcDbLine
 10
8121.99999991
 20
5386.25012021
 30
0.0
 11
8226.99999991
 21
5386.25012021
 31
0.0
  0
LINE
  5
184D
330
2
100
AcDbEntity
  8
YKK_Z1
  6
Continuous
 48
1.5
100
AcDbLine
 10
8121.99999991
 20
5386.25012021
 30
0.0
 11
8226.99999991
 21
5431.25012021
 31
0.0
  0
LINE
  5
184E
330
2
100
AcDbEntity
  8
YKK_Z1
  6
Continuous
 48
1.5
100
AcDbLine
 10
8148.99999991
 20
5431.25012021
 30
0.0
 11
8148.99835508
 21
5460.74982347
 31
0.0
  0
LINE
  5
184F
330
2
100
AcDbEntity
  8
YKK_Z1
  6
Continuous
 48
1.5
100
AcDbLine
 10
8226.99999991
 20
5431.25012021
 30
0.0
 11
8227.00159124
 21
5460.75011224
 31
0.0
  0
LINE
  5
1850
330
2
100
AcDbEntity
  8
YKK_Z1
  6
Continuous
 48
1.5
100
AcDbLine
 10
8226.99999991
 20
5431.25012021
 30
0.0
 11
8148.99999991
 21
5431.25012021
 31
0.0
  0
LINE
  5
1851
330
2
100
AcDbEntity
  8
YKK_Z1
  6
Continuous
 48
1.5
100
AcDbLine
 10
8227.00159124
 20
5460.75011224
 30
0.0
 11
8148.99835508
 21
5460.74982347
 31
0.0
  0
LINE
  5
1852
330
2
100
AcDbEntity
  8
YKK_Z1
  6
Continuous
 48
1.5
100
AcDbLine
 10
8148.99999991
 20
5431.25012021
 30
0.0
 11
8227.00159124
 21
5460.75011224
 31
0.0
  0
LINE
  5
1853
330
2
100
AcDbEntity
  8
YKK_C2
  6
Continuous
 48
1.5
100
AcDbLine
 10
8290.99982473
 20
5426.74964178
 30
0.0
 11
8295.99994673
 21
5431.74976378
 31
0.0
  0
LINE
  5
1854
330
2
100
AcDbEntity
  8
YKK_C2
  6
Continuous
 48
1.5
100
AcDbLine
 10
8290.99982473
 20
5429.5405719
 30
0.0
 11
8292.39528979
 21
5428.14510684
 31
0.0
  0
LINE
  5
1855
330
2
100
AcDbEntity
  8
YKK_C2
  6
Continuous
 48
1.5
100
AcDbLine
 10
8290.99982473
 20
5432.36899903
 30
0.0
 11
8293.80950336
 21
5429.55932041
 31
0.0
  0
LINE
  5
1856
330
2
100
AcDbEntity
  8
YKK_C2
  6
Continuous
 48
1.5
100
AcDbLine
 10
8294.4474871
 20
5431.74976378
 30
0.0
 11
8295.22371692
 21
5430.97353397
 31
0.0
  0
LINE
  5
1857
330
2
100
AcDbEntity
  8
YKK_C2
  6
Continuous
 48
1.5
100
AcDbLine
 10
8290.99982473
 20
5429.578071
 30
0.0
 11
8293.17151751
 21
5431.74976378
 31
0.0
  0
LINE
  5
1858
330
2
100
AcDbEntity
  8
YKK_C2
  6
Continuous
 48
1.5
100
AcDbLine
 10
8290.99982473
 20
5435.23492525
 30
0.0
 11
8291.99994254
 21
5436.23504306
 31
0.0
  0
LINE
  5
1859
330
2
100
AcDbEntity
  8
YKK_C2
  6
Continuous
 48
1.5
100
AcDbLine
 10
8290.99982473
 20
5432.40649813
 30
0.0
 11
8291.99994254
 21
5433.40661594
 31
0.0
  0
LINE
  5
185A
330
2
100
AcDbEntity
  8
YKK_C2
  6
Continuous
 48
1.5
100
AcDbLine
 10
8290.99982473
 20
5438.06335238
 30
0.0
 11
8291.99994254
 21
5439.06347019
 31
0.0
  0
LINE
  5
185B
330
2
100
AcDbEntity
  8
YKK_C2
  6
Continuous
 48
1.5
100
AcDbLine
 10
8290.99982473
 20
5435.19742615
 30
0.0
 11
8291.99994254
 21
5434.19730834
 31
0.0
  0
LINE
  5
185C
330
2
100
AcDbEntity
  8
YKK_C2
  6
Continuous
 48
1.5
100
AcDbLine
 10
8290.99982473
 20
5438.02585328
 30
0.0
 11
8291.99994254
 21
5437.02573547
 31
0.0
  0
LINE
  5
185D
330
2
100
AcDbEntity
  8
YKK_B2
  6
Continuous
 48
1.5
100
AcDbLine
 10
4415.53873382
 20
3332.21182121
 30
0.0
 11
4411.99987366
 21
3335.75068136
 31
0.0
  0
LINE
  5
185E
330
2
100
AcDbEntity
  8
YKK_B2
  6
Continuous
 48
1.5
100
AcDbLine
 10
4414.94821982
 20
3332.8023352
 30
0.0
 11
4417.89656599
 21
3335.75068136
 31
0.0
  0
LINE
  5
185F
330
2
100
AcDbEntity
  8
YKK_B2
  6
Continuous
 48
1.5
100
AcDbLine
 10
4413.53400626
 20
3334.21654876
 30
0.0
 11
4415.06813887
 21
3335.75068136
 31
0.0
  0
LINE
  5
1860
330
2
100
AcDbEntity
  8
YKK_B2
  6
Continuous
 48
1.5
100
AcDbLine
 10
4414.63652836
 20
3335.75068136
 30
0.0
 11
4416.39134148
 21
3333.99586825
 31
0.0
  0
LINE
  5
1861
330
2
100
AcDbEntity
  8
YKK_B2
  6
Continuous
 48
1.5
100
AcDbLine
 10
4418.46101686
 20
3334.75461999
 30
0.0
 11
4418.49999956
 21
3334.7156373
 31
0.0
  0
LINE
  5
1862
330
2
100
AcDbEntity
  8
YKK_B2
  6
Continuous
 48
1.5
100
AcDbLine
 10
4419.72482801
 20
3334.75051626
 30
0.0
 11
4420.72499312
 21
3335.75068136
 31
0.0
  0
LINE
  5
1863
330
2
100
AcDbEntity
  8
YKK_B2
  6
Continuous
 48
1.5
100
AcDbLine
 10
4417.46495549
 20
3335.75068136
 30
0.0
 11
4418.46512059
 21
3334.75051626
 31
0.0
  0
LINE
  5
1864
330
2
100
AcDbEntity
  8
YKK_B2
  6
Continuous
 48
1.5
100
AcDbLine
 10
4420.29338261
 20
3335.75068136
 30
0.0
 11
4421.29354772
 21
3334.75051626
 31
0.0
  0
LINE
  5
1865
330
2
100
AcDbEntity
  8
YKK_Z1
  6
Continuous
 48
1.5
100
AcDbLine
 10
4437.99999666
 20
3335.75055936
 30
0.0
 11
4437.99999666
 21
3345.75055936
 31
0.0
  0
LINE
  5
1866
330
2
100
AcDbEntity
  8
YKK_Z1
  6
Continuous
 48
1.5
100
AcDbLine
 10
4376.04774929
 20
3345.75055936
 30
0.0
 11
4437.99999666
 21
3345.75055936
 31
0.0
  0
LINE
  5
1867
330
2
100
AcDbEntity
  8
YKK_Z1
  6
Continuous
 48
1.5
100
AcDbLine
 10
4376.04774929
 20
3335.75068136
 30
0.0
 11
4421.99999566
 21
3335.75068136
 31
0.0
  0
LINE
  5
1868
330
2
100
AcDbEntity
  8
YKK_B2
  6
Continuous
 48
1.5
100
AcDbLine
 10
4421.99999566
 20
3334.75055936
 30
0.0
 11
4421.99999566
 21
3335.75055936
 31
0.0
  0
LINE
  5
1869
330
2
100
AcDbEntity
  8
YKK_Z1
  6
Continuous
 48
1.5
100
AcDbLine
 10
4421.99999566
 20
3335.75055936
 30
0.0
 11
4437.99999666
 21
3335.75055936
 31
0.0
  0
LINE
  5
186A
330
2
100
AcDbEntity
  8
YKK_Z1
  6
Continuous
 48
1.5
100
AcDbLine
 10
4376.04774929
 20
3534.7500538
 30
0.0
 11
4430.59999999
 21
3534.7500538
 31
0.0
  0
LINE
  5
186B
330
2
100
AcDbEntity
  8
YKK_Z1
  6
Continuous
 48
1.5
100
AcDbLine
 10
4376.04774929
 20
3522.7500538
 30
0.0
 11
4430.59999999
 21
3522.7500538
 31
0.0
  0
LINE
  5
186C
330
2
100
AcDbEntity
  8
YKK_B2
  6
Continuous
 48
1.5
100
AcDbLine
 10
4430.59999999
 20
3522.7500538
 30
0.0
 11
4430.59999999
 21
3534.7500538
 31
0.0
  0
LINE
  5
186D
330
2
100
AcDbEntity
  8
YKK_B2
  6
Continuous
 48
1.5
100
AcDbLine
 10
4430.59999999
 20
3534.7500538
 30
0.0
 11
4440.59999999
 21
3534.7500538
 31
0.0
  0
LINE
  5
186E
330
2
100
AcDbEntity
  8
YKK_B2
  6
Continuous
 48
1.5
100
AcDbLine
 10
4430.59999999
 20
3521.7500538
 30
0.0
 11
4430.59999999
 21
3534.7500538
 31
0.0
  0
LINE
  5
186F
330
2
100
AcDbEntity
  8
YKK_B2
  6
Continuous
 48
1.5
100
AcDbLine
 10
4440.59999999
 20
3530.23532906
 30
0.0
 11
4435.11470946
 21
3524.7500538
 31
0.0
  0
LINE
  5
1870
330
2
100
AcDbEntity
  8
YKK_B2
  6
Continuous
 48
1.5
100
AcDbLine
 10
4439.45784911
 20
3534.7500538
 30
0.0
 11
4430.59999999
 21
3525.89218942
 31
0.0
  0
LINE
  5
1871
330
2
100
AcDbEntity
  8
YKK_B2
  6
Continuous
 48
1.5
100
AcDbLine
 10
4433.80101928
 20
3534.7500538
 30
0.0
 11
4430.59999999
 21
3531.54904977
 31
0.0
  0
LINE
  5
1872
330
2
100
AcDbEntity
  8
YKK_Z1
  6
Continuous
 48
1.5
100
AcDbLine
 10
4385.59999959
 20
3504.7500538
 30
0.0
 11
4430.59999999
 21
3522.75005395
 31
0.0
  0
LINE
  5
1873
330
2
100
AcDbEntity
  8
YKK_Z1
  6
Continuous
 48
1.5
100
AcDbLine
 10
4385.59999999
 20
3522.75005395
 30
0.0
 11
4385.59999999
 21
3504.7500538
 31
0.0
  0
LINE
  5
1874
330
2
100
AcDbEntity
  8
YKK_Z1
  6
Continuous
 48
1.5
100
AcDbLine
 10
4385.59999999
 20
3504.75005395
 30
0.0
 11
4430.59999999
 21
3504.75005395
 31
0.0
  0
LINE
  5
1875
330
2
100
AcDbEntity
  8
YKK_Z1
  6
Continuous
 48
1.5
100
AcDbLine
 10
4430.59999999
 20
3522.75005395
 30
0.0
 11
4385.59999999
 21
3522.75005395
 31
0.0
  0
LINE
  5
1876
330
2
100
AcDbEntity
  8
YKK_Z1
  6
Continuous
 48
1.5
100
AcDbLine
 10
4430.59999999
 20
3506.7500538
 30
0.0
 11
4430.59999999
 21
3521.7500538
 31
0.0
  0
LINE
  5
1877
330
2
100
AcDbEntity
  8
YKK_B2
  6
Continuous
 48
1.5
100
AcDbLine
 10
4430.59999999
 20
3524.7500538
 30
0.0
 11
4440.59999999
 21
3524.7500538
 31
0.0
  0
LINE
  5
1878
330
2
100
AcDbEntity
  8
YKK_Z1
  6
Continuous
 48
1.5
100
AcDbLine
 10
4430.59999999
 20
3522.75005395
 30
0.0
 11
4430.59999999
 21
3508.75005065
 31
0.0
  0
LINE
  5
1879
330
2
100
AcDbEntity
  8
YKK_Z1
  6
Continuous
 48
1.5
100
AcDbLine
 10
4376.04774929
 20
3504.7500538
 30
0.0
 11
4420.49999999
 21
3504.7500538
 31
0.0
  0
LINE
  5
187A
330
2
100
AcDbEntity
  8
YKK_Z1
  6
Continuous
 48
1.5
100
AcDbLine
 10
4420.49999999
 20
3504.7500538
 30
0.0
 11
4420.49999999
 21
3399.7500538
 31
0.0
  0
LINE
  5
187B
330
2
100
AcDbEntity
  8
YKK_Z1
  6
Continuous
 48
1.5
100
AcDbLine
 10
4420.49999999
 20
3399.7500538
 30
0.0
 11
4376.04774929
 21
3399.7500538
 31
0.0
  0
LINE
  5
187C
330
2
100
AcDbEntity
  8
YKK_Z1
  6
Continuous
 48
1.5
100
AcDbLine
 10
4420.49999999
 20
3399.7500538
 30
0.0
 11
4376.04774929
 21
3444.2023045
 31
0.0
  0
LINE
  5
187D
330
2
100
AcDbEntity
  8
YKK_Z1
  6
Continuous
 48
1.5
100
AcDbLine
 10
4420.49999999
 20
3504.7500538
 30
0.0
 11
4376.04774929
 21
3460.29780309
 31
0.0
  0
LINE
  5
187E
330
2
100
AcDbEntity
  8
YKK_Z1
  6
Continuous
 48
1.5
100
AcDbLine
 10
4420.49999999
 20
3477.75004756
 30
0.0
 11
4442.49999999
 21
3399.75004756
 31
0.0
  0
LINE
  5
187F
330
2
100
AcDbEntity
  8
YKK_Z1
  6
Continuous
 48
1.5
100
AcDbLine
 10
4420.49998448
 20
3399.75004756
 30
0.0
 11
4420.49998448
 21
3477.75004756
 31
0.0
  0
LINE
  5
1880
330
2
100
AcDbEntity
  8
YKK_Z1
  6
Continuous
 48
1.5
100
AcDbLine
 10
4420.49999999
 20
3477.75004756
 30
0.0
 11
4442.49999999
 21
3477.75004756
 31
0.0
  0
LINE
  5
1881
330
2
100
AcDbEntity
  8
YKK_Z1
  6
Continuous
 48
1.5
100
AcDbLine
 10
4442.49999999
 20
3477.75004756
 30
0.0
 11
4442.49999999
 21
3399.75004756
 31
0.0
  0
LINE
  5
1882
330
2
100
AcDbEntity
  8
YKK_Z1
  6
Continuous
 48
1.5
100
AcDbLine
 10
4442.49999999
 20
3399.75004756
 30
0.0
 11
4420.49999999
 21
3399.75004756
 31
0.0
  0
LINE
  5
1883
330
2
100
AcDbEntity
  8
YKK_Z1
  6
Continuous
 48
1.5
100
AcDbLine
 10
4420.49999999
 20
3504.7500538
 30
0.0
 11
4432.99999999
 21
3504.7500538
 31
0.0
  0
LINE
  5
1884
330
2
100
AcDbEntity
  8
YKK_Z1
  6
Continuous
 48
1.5
100
AcDbLine
 10
4420.49999999
 20
3477.7500538
 30
0.0
 11
4432.99999999
 21
3477.7500538
 31
0.0
  0
LINE
  5
1885
330
2
100
AcDbEntity
  8
YKK_Z1
  6
Continuous
 48
1.5
100
AcDbLine
 10
4420.49999999
 20
3477.7500538
 30
0.0
 11
4420.49999999
 21
3504.7500538
 31
0.0
  0
LINE
  5
1886
330
2
100
AcDbEntity
  8
YKK_Z1
  6
Continuous
 48
1.5
100
AcDbLine
 10
4432.99999999
 20
3477.7500538
 30
0.0
 11
4432.99999999
 21
3504.7500538
 31
0.0
  0
LINE
  5
1887
330
2
100
AcDbEntity
  8
YKK_Z1
  6
Continuous
 48
1.5
100
AcDbLine
 10
4420.49999668
 20
3504.75005395
 30
0.0
 11
4432.99999999
 21
3477.7500538
 31
0.0
  0
LINE
  5
1888
330
2
100
AcDbEntity
  8
YKK_B2
  6
Continuous
 48
1.5
100
AcDbLine
 10
6240.46126573
 20
3332.21182123
 30
0.0
 11
6244.00012589
 21
3335.75068139
 31
0.0
  0
LINE
  5
1889
330
2
100
AcDbEntity
  8
YKK_B2
  6
Continuous
 48
1.5
100
AcDbLine
 10
6241.05177972
 20
3332.80233522
 30
0.0
 11
6238.10343355
 21
3335.75068139
 31
0.0
  0
LINE
  5
188A
330
2
100
AcDbEntity
  8
YKK_B2
  6
Continuous
 48
1.5
100
AcDbLine
 10
6242.46599328
 20
3334.21654878
 30
0.0
 11
6240.93186068
 21
3335.75068139
 31
0.0
  0
LINE
  5
188B
330
2
100
AcDbEntity
  8
YKK_B2
  6
Continuous
 48
1.5
100
AcDbLine
 10
6241.36347118
 20
3335.75068139
 30
0.0
 11
6239.60865807
 21
3333.99586827
 31
0.0
  0
LINE
  5
188C
330
2
100
AcDbEntity
  8
YKK_B2
  6
Continuous
 48
1.5
100
AcDbLine
 10
6237.53898269
 20
3334.75462001
 30
0.0
 11
6237.49999999
 21
3334.71563732
 31
0.0
  0
LINE
  5
188D
330
2
100
AcDbEntity
  8
YKK_B2
  6
Continuous
 48
1.5
100
AcDbLine
 10
6236.27517154
 20
3334.75051628
 30
0.0
 11
6235.27500643
 21
3335.75068139
 31
0.0
  0
LINE
  5
188E
330
2
100
AcDbEntity
  8
YKK_B2
  6
Continuous
 48
1.5
100
AcDbLine
 10
6238.53504406
 20
3335.75068139
 30
0.0
 11
6237.53487895
 21
3334.75051628
 31
0.0
  0
LINE
  5
188F
330
2
100
AcDbEntity
  8
YKK_B2
  6
Continuous
 48
1.5
100
AcDbLine
 10
6235.70661694
 20
3335.75068139
 30
0.0
 11
6234.70645183
 21
3334.75051628
 31
0.0
  0
LINE
  5
1890
330
2
100
AcDbEntity
  8
YKK_Z1
  6
Continuous
 48
1.5
100
AcDbLine
 10
6218.00000289
 20
3335.75055939
 30
0.0
 11
6218.00000289
 21
3345.75055939
 31
0.0
  0
LINE
  5
1891
330
2
100
AcDbEntity
  8
YKK_Z1
  6
Continuous
 48
1.5
100
AcDbLine
 10
6279.95225026
 20
3345.75055939
 30
0.0
 11
6218.00000289
 21
3345.75055939
 31
0.0
  0
LINE
  5
1892
330
2
100
AcDbEntity
  8
YKK_Z1
  6
Continuous
 48
1.5
100
AcDbLine
 10
6279.95225026
 20
3335.75068139
 30
0.0
 11
6234.00000389
 21
3335.75068139
 31
0.0
  0
LINE
  5
1893
330
2
100
AcDbEntity
  8
YKK_Z1
  6
Continuous
 48
1.5
100
AcDbLine
 10
6234.00000389
 20
3335.75055939
 30
0.0
 11
6218.00000289
 21
3335.75055939
 31
0.0
  0
LINE
  5
1894
330
2
100
AcDbEntity
  8
YKK_Z1
  6
Continuous
 48
1.5
100
AcDbLine
 10
6279.95225026
 20
3534.75005382
 30
0.0
 11
6225.39999956
 21
3534.75005382
 31
0.0
  0
LINE
  5
1895
330
2
100
AcDbEntity
  8
YKK_Z1
  6
Continuous
 48
1.5
100
AcDbLine
 10
6279.95225026
 20
3522.75005382
 30
0.0
 11
6225.39999956
 21
3522.75005382
 31
0.0
  0
LINE
  5
1896
330
2
100
AcDbEntity
  8
YKK_B2
  6
Continuous
 48
1.5
100
AcDbLine
 10
6225.39999956
 20
3522.75005382
 30
0.0
 11
6225.39999956
 21
3534.75005382
 31
0.0
  0
LINE
  5
1897
330
2
100
AcDbEntity
  8
YKK_B2
  6
Continuous
 48
1.5
100
AcDbLine
 10
6225.39999956
 20
3534.85005382
 30
0.0
 11
6215.39999956
 21
3534.85005382
 31
0.0
  0
LINE
  5
1898
330
2
100
AcDbEntity
  8
YKK_B2
  6
Continuous
 48
1.5
100
AcDbLine
 10
6225.39999956
 20
3521.85005382
 30
0.0
 11
6225.39999956
 21
3534.85005382
 31
0.0
  0
LINE
  5
1899
330
2
100
AcDbEntity
  8
YKK_B2
  6
Continuous
 48
1.5
100
AcDbLine
 10
6219.91470903
 20
3524.85005382
 30
0.0
 11
6225.39999956
 21
3530.33532908
 31
0.0
  0
LINE
  5
189A
330
2
100
AcDbEntity
  8
YKK_B2
  6
Continuous
 48
1.5
100
AcDbLine
 10
6215.39999956
 20
3525.99218944
 30
0.0
 11
6224.25784868
 21
3534.85005382
 31
0.0
  0
LINE
  5
189B
330
2
100
AcDbEntity
  8
YKK_B2
  6
Continuous
 48
1.5
100
AcDbLine
 10
6215.39999956
 20
3531.64904979
 30
0.0
 11
6218.60101884
 21
3534.85005382
 31
0.0
  0
LINE
  5
189C
330
2
100
AcDbEntity
  8
YKK_Z1
  6
Continuous
 48
1.5
100
AcDbLine
 10
6270.39999995
 20
3504.75005382
 30
0.0
 11
6225.39999956
 21
3522.75005397
 31
0.0
  0
LINE
  5
189D
330
2
100
AcDbEntity
  8
YKK_Z1
  6
Continuous
 48
1.5
100
AcDbLine
 10
6270.39999956
 20
3522.75005397
 30
0.0
 11
6270.39999956
 21
3504.75005382
 31
0.0
  0
LINE
  5
189E
330
2
100
AcDbEntity
  8
YKK_Z1
  6
Continuous
 48
1.5
100
AcDbLine
 10
6270.39999956
 20
3504.75005397
 30
0.0
 11
6225.39999956
 21
3504.75005397
 31
0.0
  0
LINE
  5
189F
330
2
100
AcDbEntity
  8
YKK_Z1
  6
Continuous
 48
1.5
100
AcDbLine
 10
6225.39999956
 20
3522.75005397
 30
0.0
 11
6270.39999956
 21
3522.75005397
 31
0.0
  0
LINE
  5
18A0
330
2
100
AcDbEntity
  8
YKK_Z1
  6
Continuous
 48
1.5
100
AcDbLine
 10
6225.39999956
 20
3506.75005382
 30
0.0
 11
6225.39999956
 21
3521.75005382
 31
0.0
  0
LINE
  5
18A1
330
2
100
AcDbEntity
  8
YKK_B2
  6
Continuous
 48
1.5
100
AcDbLine
 10
6225.39999956
 20
3524.85005382
 30
0.0
 11
6215.39999956
 21
3524.85005382
 31
0.0
  0
LINE
  5
18A2
330
2
100
AcDbEntity
  8
YKK_Z1
  6
Continuous
 48
1.5
100
AcDbLine
 10
6225.39999956
 20
3522.85005397
 30
0.0
 11
6225.39999956
 21
3508.85005067
 31
0.0
  0
LINE
  5
18A3
330
2
100
AcDbEntity
  8
YKK_Z1
  6
Continuous
 48
1.5
100
AcDbLine
 10
6279.95225026
 20
3504.75005382
 30
0.0
 11
6235.49999956
 21
3504.75005382
 31
0.0
  0
LINE
  5
18A4
330
2
100
AcDbEntity
  8
YKK_Z1
  6
Continuous
 48
1.5
100
AcDbLine
 10
6235.49999956
 20
3504.75005382
 30
0.0
 11
6235.49999956
 21
3399.75005382
 31
0.0
  0
LINE
  5
18A5
330
2
100
AcDbEntity
  8
YKK_Z1
  6
Continuous
 48
1.5
100
AcDbLine
 10
6235.49999956
 20
3399.75005382
 30
0.0
 11
6279.95225026
 21
3399.75005382
 31
0.0
  0
LINE
  5
18A6
330
2
100
AcDbEntity
  8
YKK_Z1
  6
Continuous
 48
1.5
100
AcDbLine
 10
6235.49999956
 20
3399.75005382
 30
0.0
 11
6279.95225026
 21
3444.20230452
 31
0.0
  0
LINE
  5
18A7
330
2
100
AcDbEntity
  8
YKK_Z1
  6
Continuous
 48
1.5
100
AcDbLine
 10
6235.49999956
 20
3504.75005382
 30
0.0
 11
6279.95225026
 21
3460.29780311
 31
0.0
  0
LINE
  5
18A8
330
2
100
AcDbEntity
  8
YKK_Z1
  6
Continuous
 48
1.5
100
AcDbLine
 10
6235.49998405
 20
3477.75005382
 30
0.0
 11
6213.49998405
 21
3399.75005382
 31
0.0
  0
LINE
  5
18A9
330
2
100
AcDbEntity
  8
YKK_Z1
  6
Continuous
 48
1.5
100
AcDbLine
 10
6235.49999956
 20
3399.75005382
 30
0.0
 11
6235.49999956
 21
3477.75005382
 31
0.0
  0
LINE
  5
18AA
330
2
100
AcDbEntity
  8
YKK_Z1
  6
Continuous
 48
1.5
100
AcDbLine
 10
6235.49998405
 20
3477.75005382
 30
0.0
 11
6213.49998405
 21
3477.75005382
 31
0.0
  0
LINE
  5
18AB
330
2
100
AcDbEntity
  8
YKK_Z1
  6
Continuous
 48
1.5
100
AcDbLine
 10
6213.49998405
 20
3477.75005382
 30
0.0
 11
6213.49998405
 21
3399.75005382
 31
0.0
  0
LINE
  5
18AC
330
2
100
AcDbEntity
  8
YKK_Z1
  6
Continuous
 48
1.5
100
AcDbLine
 10
6213.49998405
 20
3399.75005382
 30
0.0
 11
6235.49998405
 21
3399.75005382
 31
0.0
  0
LINE
  5
18AD
330
2
100
AcDbEntity
  8
YKK_Z1
  6
Continuous
 48
1.5
100
AcDbLine
 10
6235.49999956
 20
3504.75005382
 30
0.0
 11
6222.99999956
 21
3504.75005382
 31
0.0
  0
LINE
  5
18AE
330
2
100
AcDbEntity
  8
YKK_Z1
  6
Continuous
 48
1.5
100
AcDbLine
 10
6235.49999956
 20
3477.75005382
 30
0.0
 11
6222.99999956
 21
3477.75005382
 31
0.0
  0
LINE
  5
18AF
330
2
100
AcDbEntity
  8
YKK_Z1
  6
Continuous
 48
1.5
100
AcDbLine
 10
6235.49999956
 20
3477.75005382
 30
0.0
 11
6235.49999956
 21
3504.75005382
 31
0.0
  0
LINE
  5
18B0
330
2
100
AcDbEntity
  8
YKK_Z1
  6
Continuous
 48
1.5
100
AcDbLine
 10
6222.99999956
 20
3477.75005382
 30
0.0
 11
6222.99999956
 21
3504.75005382
 31
0.0
  0
LINE
  5
18B1
330
2
100
AcDbEntity
  8
YKK_Z1
  6
Continuous
 48
1.5
100
AcDbLine
 10
6235.50000286
 20
3504.75005397
 30
0.0
 11
6222.99999956
 21
3477.75005382
 31
0.0
  0
LINE
  5
18B2
330
2
100
AcDbEntity
  8
YKK_Z1
  6
Continuous
 48
1.5
100
AcDbLine
 10
8195.29999991
 20
5472.25009736
 30
0.0
 11
8163.99999991
 21
5468.74005623
 31
0.0
  0
LINE
  5
18B3
330
2
100
AcDbEntity
  8
YKK_Z1
  6
Continuous
 48
1.5
100
AcDbLine
 10
8211.0
 20
5473.75012021
 30
0.0
 11
8195.30030429
 21
5468.75947417
 31
0.0
  0
LINE
  5
18B4
330
2
100
AcDbEntity
  8
YKK_Z1
  6
Continuous
 48
1.5
100
AcDbLine
 10
8178.2
 20
6678.75016647
 30
0.0
 11
8148.1
 21
6675.75012021
 31
0.0
  0
LINE
  5
18B5
330
2
100
AcDbEntity
  8
YKK_Z1
  6
Continuous
 48
1.5
100
AcDbLine
 10
8211.0
 20
6681.25009757
 30
0.0
 11
8147.55249748
 21
6665.7501204
 31
0.0
  0
LINE
  5
18B6
330
2
100
AcDbEntity
  8
YKK_Z1
  6
Continuous
 48
1.5
100
AcDbLine
 10
8178.2
 20
6681.25009757
 30
0.0
 11
8178.2
 21
6674.15012021
 31
0.0
  0
LINE
  5
18B7
330
2
100
AcDbEntity
  8
YKK_Z1
  6
Continuous
 48
1.5
100
AcDbLine
 10
8168.2
 20
6674.15012021
 30
0.0
 11
8147.55249748
 21
6674.15012021
 31
0.0
  0
LINE
  5
18B8
330
2
100
AcDbEntity
  8
YKK_Z1
  6
Continuous
 48
1.5
100
AcDbLine
 10
4450.49999956
 20
3460.25005361
 30
0.0
 11
4478.69999999
 21
3415.75005361
 31
0.0
  0
LINE
  5
18B9
330
2
100
AcDbEntity
  8
YKK_Z1
  6
Continuous
 48
1.5
100
AcDbLine
 10
6205.49999999
 20
3460.25005354
 30
0.0
 11
6177.29985594
 21
3415.75005363
 31
0.0
  0
LINE
  5
18BA
330
2
100
AcDbEntity
  8
YKK_Z1
  6
Continuous
 48
1.5
100
AcDbLine
 10
4452.99999999
 20
3478.65005361
 30
0.0
 11
4457.99999999
 21
3460.25005361
 31
0.0
  0
LINE
  5
18BB
330
2
100
AcDbEntity
  8
YKK_Z1
  6
Continuous
 48
1.5
100
AcDbLine
 10
6202.99999275
 20
3478.65005353
 30
0.0
 11
6197.99999999
 21
3460.25005363
 31
0.0
  0
LINE
  5
18BC
330
2
100
AcDbEntity
  8
YKK_B2
 48
1.5
100
AcDbLine
 10
4450.49999956
 20
3462.75005362
 30
0.0
 11
4450.49999956
 21
3457.75005362
 31
0.0
  0
LINE
  5
18BD
330
2
100
AcDbEntity
  8
YKK_B2
 48
1.5
100
AcDbLine
 10
4450.49999956
 20
3457.75005362
 30
0.0
 11
4452.7
 21
3462.75005362
 31
0.0
  0
LINE
  5
18BE
330
2
100
AcDbEntity
  8
YKK_B2
 48
1.5
100
AcDbLine
 10
4452.7
 20
3462.75005362
 30
0.0
 11
4450.49999956
 21
3462.75005362
 31
0.0
  0
LINE
  5
18BF
330
2
100
AcDbEntity
  8
YKK_B2
  6
Continuous
 48
1.5
100
AcDbLine
 10
4450.49999956
 20
3462.69074618
 30
0.0
 11
4450.559307
 21
3462.75005362
 31
0.0
  0
LINE
  5
18C0
330
2
100
AcDbEntity
  8
YKK_B2
  6
Continuous
 48
1.5
100
AcDbLine
 10
4450.49999956
 20
3459.86231906
 30
0.0
 11
4452.15963728
 21
3461.52195679
 31
0.0
  0
LINE
  5
18C1
330
2
100
AcDbEntity
  8
YKK_B2
  6
Continuous
 48
1.5
100
AcDbLine
 10
4450.60952706
 20
3457.99897972
 30
0.0
 11
4450.49999956
 21
3458.10850723
 31
0.0
  0
LINE
  5
18C2
330
2
100
AcDbEntity
  8
YKK_B2
  6
Continuous
 48
1.5
100
AcDbLine
 10
4451.4737688
 20
3459.9631651
 30
0.0
 11
4450.49999956
 21
3460.93693435
 31
0.0
  0
LINE
  5
18C3
330
2
100
AcDbEntity
  8
YKK_B2
  6
Continuous
 48
1.5
100
AcDbLine
 10
4452.33801055
 20
3461.92735049
 30
0.0
 11
4451.51530741
 21
3462.75005362
 31
0.0
  0
LINE
  5
18C4
330
2
100
AcDbEntity
  8
YKK_B2
 48
1.5
100
AcDbLine
 10
6205.49999999
 20
3462.75005354
 30
0.0
 11
6205.49999999
 21
3457.75005354
 31
0.0
  0
LINE
  5
18C5
330
2
100
AcDbEntity
  8
YKK_B2
 48
1.5
100
AcDbLine
 10
6205.49999999
 20
3457.75005354
 30
0.0
 11
6203.29999302
 21
3462.75005354
 31
0.0
  0
LINE
  5
18C6
330
2
100
AcDbEntity
  8
YKK_B2
 48
1.5
100
AcDbLine
 10
6203.29999302
 20
3462.75005354
 30
0.0
 11
6205.49999999
 21
3462.75005354
 31
0.0
  0
LINE
  5
18C7
330
2
100
AcDbEntity
  8
YKK_B2
  6
Continuous
 48
1.5
100
AcDbLine
 10
6204.13562499
 20
3460.85089599
 30
0.0
 11
6205.49999999
 21
3462.215271
 31
0.0
  0
LINE
  5
18C8
330
2
100
AcDbEntity
  8
YKK_B2
  6
Continuous
 48
1.5
100
AcDbLine
 10
6204.99986851
 20
3458.88671239
 30
0.0
 11
6205.49999999
 21
3459.38684387
 31
0.0
  0
LINE
  5
18C9
330
2
100
AcDbEntity
  8
YKK_B2
  6
Continuous
 48
1.5
100
AcDbLine
 10
6205.49999999
 20
3458.58398246
 30
0.0
 11
6204.84476642
 21
3459.23921603
 31
0.0
  0
LINE
  5
18CA
330
2
100
AcDbEntity
  8
YKK_B2
  6
Continuous
 48
1.5
100
AcDbLine
 10
6205.49999999
 20
3461.41240958
 30
0.0
 11
6204.16235603
 21
3462.75005354
 31
0.0
  0
LINE
  5
18CB
330
2
100
AcDbEntity
  8
YKK_Z1
  6
Continuous
 48
1.5
100
AcDbLine
 10
8195.29999991
 20
5468.75947398
 30
0.0
 11
8163.99999991
 21
5468.74005623
 31
0.0
  0
LINE
  5
18CC
330
2
100
AcDbEntity
  8
YKK_C2
  6
Continuous
 48
1.5
100
AcDbLine
 10
8163.99999991
 20
5468.74005623
 30
0.0
 11
8163.99999991
 21
5472.25009736
 31
0.0
  0
LINE
  5
18CD
330
2
100
AcDbEntity
  8
YKK_Z1
  6
Continuous
 48
1.5
100
AcDbLine
 10
8163.99999991
 20
5472.25009736
 30
0.0
 11
8195.29999991
 21
5472.25009736
 31
0.0
  0
LINE
  5
18CE
330
2
100
AcDbEntity
  8
YKK_Z1
  6
Continuous
 48
1.5
100
AcDbLine
 10
8195.29999991
 20
5472.25009736
 30
0.0
 11
8195.29999991
 21
5468.75947398
 31
0.0
  0
LINE
  5
18CF
330
2
100
AcDbEntity
  8
YKK_Z1
  6
Continuous
 48
1.5
100
AcDbLine
 10
8195.29999991
 20
5473.75012021
 30
0.0
 11
8211.0
 21
5473.75012021
 31
0.0
  0
LINE
  5
18D0
330
2
100
AcDbEntity
  8
YKK_Z1
  6
Continuous
 48
1.5
100
AcDbLine
 10
8211.0
 20
5473.75012021
 30
0.0
 11
8211.0
 21
5468.7497651
 31
0.0
  0
LINE
  5
18D1
330
2
100
AcDbEntity
  8
YKK_Z1
  6
Continuous
 48
1.5
100
AcDbLine
 10
8211.0
 20
5468.7497651
 30
0.0
 11
8195.29999991
 21
5468.7497651
 31
0.0
  0
LINE
  5
18D2
330
2
100
AcDbEntity
  8
YKK_Z1
  6
Continuous
 48
1.5
100
AcDbLine
 10
8195.29999991
 20
5468.7497651
 30
0.0
 11
8195.29999991
 21
5473.75012021
 31
0.0
  0
LINE
  5
18D3
330
2
100
AcDbEntity
  8
YKK_Z1
  6
Continuous
 48
1.5
100
AcDbLine
 10
8148.1
 20
6678.75016647
 30
0.0
 11
8178.2
 21
6678.75016647
 31
0.0
  0
LINE
  5
18D4
330
2
100
AcDbEntity
  8
YKK_Z1
  6
Continuous
 48
1.5
100
AcDbLine
 10
8178.2
 20
6678.75016647
 30
0.0
 11
8178.2
 21
6675.75012021
 31
0.0
  0
LINE
  5
18D5
330
2
100
AcDbEntity
  8
YKK_Z1
  6
Continuous
 48
1.5
100
AcDbLine
 10
8178.2
 20
6675.75012021
 30
0.0
 11
8148.1
 21
6675.75012021
 31
0.0
  0
LINE
  5
18D6
330
2
100
AcDbEntity
  8
YKK_Z1
  6
Continuous
 48
1.5
100
AcDbLine
 10
8148.1
 20
6675.75012021
 30
0.0
 11
8148.1
 21
6678.75016647
 31
0.0
  0
LINE
  5
18D7
330
2
100
AcDbEntity
  8
YKK_Z1
  6
Continuous
 48
1.5
100
AcDbLine
 10
8178.2
 20
6681.25009757
 30
0.0
 11
8211.0
 21
6681.25009757
 31
0.0
  0
LINE
  5
18D8
330
2
100
AcDbEntity
  8
YKK_Z1
  6
Continuous
 48
1.5
100
AcDbLine
 10
8211.0
 20
6681.25009757
 30
0.0
 11
8211.0
 21
6665.7501204
 31
0.0
  0
LINE
  5
18D9
330
2
100
AcDbEntity
  8
YKK_Z1
  6
Continuous
 48
1.5
100
AcDbLine
 10
8211.0
 20
6665.7501204
 30
0.0
 11
8147.55249748
 21
6665.7501204
 31
0.0
  0
LINE
  5
18DA
330
2
100
AcDbEntity
  8
YKK_Z1
  6
Continuous
 48
1.5
100
AcDbLine
 10
8147.55249748
 20
6665.7501204
 30
0.0
 11
8147.55249748
 21
6674.15012021
 31
0.0
  0
LINE
  5
18DB
330
2
100
AcDbEntity
  8
YKK_Z1
  6
Continuous
 48
1.5
100
AcDbLine
 10
4450.49999956
 20
3460.25005361
 30
0.0
 11
4478.69999999
 21
3460.25005361
 31
0.0
  0
LINE
  5
18DC
330
2
100
AcDbEntity
  8
YKK_Z1
  6
Continuous
 48
1.5
100
AcDbLine
 10
4478.69999999
 20
3460.25005361
 30
0.0
 11
4478.69999999
 21
3415.75005361
 31
0.0
  0
LINE
  5
18DD
330
2
100
AcDbEntity
  8
YKK_Z1
  6
Continuous
 48
1.5
100
AcDbLine
 10
4478.69999999
 20
3415.75005361
 30
0.0
 11
4450.49999956
 21
3415.75005361
 31
0.0
  0
LINE
  5
18DE
330
2
100
AcDbEntity
  8
YKK_Z1
  6
Continuous
 48
1.5
100
AcDbLine
 10
4450.49999956
 20
3415.75005361
 30
0.0
 11
4450.49999956
 21
3460.25005361
 31
0.0
  0
LINE
  5
18DF
330
2
100
AcDbEntity
  8
YKK_Z1
  6
Continuous
 48
1.5
100
AcDbLine
 10
6205.49999999
 20
3460.25005363
 30
0.0
 11
6177.29985594
 21
3460.25005363
 31
0.0
  0
LINE
  5
18E0
330
2
100
AcDbEntity
  8
YKK_Z1
  6
Continuous
 48
1.5
100
AcDbLine
 10
6177.29985594
 20
3460.25005363
 30
0.0
 11
6177.29985594
 21
3415.75005363
 31
0.0
  0
LINE
  5
18E1
330
2
100
AcDbEntity
  8
YKK_Z1
  6
Continuous
 48
1.5
100
AcDbLine
 10
6177.29985594
 20
3415.75005363
 30
0.0
 11
6205.49999999
 21
3415.75005363
 31
0.0
  0
LINE
  5
18E2
330
2
100
AcDbEntity
  8
YKK_Z1
  6
Continuous
 48
1.5
100
AcDbLine
 10
6205.49999999
 20
3415.75005363
 30
0.0
 11
6205.49999999
 21
3460.25005363
 31
0.0
  0
LINE
  5
18E3
330
2
100
AcDbEntity
  8
YKK_Z1
  6
Continuous
 48
1.5
100
AcDbLine
 10
4452.99999999
 20
3478.65005361
 30
0.0
 11
4457.99999999
 21
3478.65005361
 31
0.0
  0
LINE
  5
18E4
330
2
100
AcDbEntity
  8
YKK_Z1
  6
Continuous
 48
1.5
100
AcDbLine
 10
4457.99999999
 20
3478.65005361
 30
0.0
 11
4457.99999999
 21
3460.25005361
 31
0.0
  0
LINE
  5
18E5
330
2
100
AcDbEntity
  8
YKK_Z1
  6
Continuous
 48
1.5
100
AcDbLine
 10
4457.99999999
 20
3460.25005361
 30
0.0
 11
4452.99999999
 21
3460.25005361
 31
0.0
  0
LINE
  5
18E6
330
2
100
AcDbEntity
  8
YKK_Z1
  6
Continuous
 48
1.5
100
AcDbLine
 10
4452.99999999
 20
3460.25005361
 30
0.0
 11
4452.99999999
 21
3478.65005361
 31
0.0
  0
LINE
  5
18E7
330
2
100
AcDbEntity
  8
YKK_Z1
  6
Continuous
 48
1.5
100
AcDbLine
 10
6202.99999275
 20
3478.65005353
 30
0.0
 11
6197.99999999
 21
3478.65005353
 31
0.0
  0
LINE
  5
18E8
330
2
100
AcDbEntity
  8
YKK_Z1
  6
Continuous
 48
1.5
100
AcDbLine
 10
6197.99999999
 20
3478.65005353
 30
0.0
 11
6197.99999999
 21
3460.25005363
 31
0.0
  0
LINE
  5
18E9
330
2
100
AcDbEntity
  8
YKK_Z1
  6
Continuous
 48
1.5
100
AcDbLine
 10
6197.99999999
 20
3460.25005363
 30
0.0
 11
6202.99999275
 21
3460.25005363
 31
0.0
  0
LINE
  5
18EA
330
2
100
AcDbEntity
  8
YKK_Z1
  6
Continuous
 48
1.5
100
AcDbLine
 10
6202.99999275
 20
3460.25005363
 30
0.0
 11
6202.99999275
 21
3478.65005353
 31
0.0
  0
LINE
  5
18EB
330
2
100
AcDbEntity
  8
YKK_C2
  6
Continuous
 48
1.5
100
AcDbLine
 10
8218.0
 20
6681.25009757
 30
0.0
 11
8218.0
 21
6673.25009757
 31
0.0
  0
LINE
  5
18EC
330
2
100
AcDbEntity
  8
YKK_C2
  6
Continuous
 48
1.5
100
AcDbLine
 10
8218.0
 20
6673.25009757
 30
0.0
 11
8226.0
 21
6681.25009757
 31
0.0
  0
LINE
  5
18ED
330
2
100
AcDbEntity
  8
YKK_C2
  6
Continuous
 48
1.5
100
AcDbLine
 10
8226.0
 20
6681.25009757
 30
0.0
 11
8218.0
 21
6681.25009757
 31
0.0
  0
LINE
  5
18EE
330
2
100
AcDbEntity
  8
YKK_C2
  6
Continuous
 48
1.5
100
AcDbLine
 10
8218.0
 20
6679.65554273
 30
0.0
 11
8219.59455483
 21
6681.25009757
 31
0.0
  0
LINE
  5
18EF
330
2
100
AcDbEntity
  8
YKK_C2
  6
Continuous
 48
1.5
100
AcDbLine
 10
8218.0
 20
6676.82711561
 30
0.0
 11
8222.42298196
 21
6681.25009757
 31
0.0
  0
LINE
  5
18F0
330
2
100
AcDbEntity
  8
YKK_C2
  6
Continuous
 48
1.5
100
AcDbLine
 10
8218.0
 20
6673.99868848
 30
0.0
 11
8225.25140908
 21
6681.25009757
 31
0.0
  0
LINE
  5
18F1
330
2
100
AcDbEntity
  8
YKK_C2
  6
Continuous
 48
1.5
100
AcDbLine
 10
8218.0
 20
5468.7497651
 30
0.0
 11
8218.0
 21
5476.25011262
 31
0.0
  0
LINE
  5
18F2
330
2
100
AcDbEntity
  8
YKK_C2
  6
Continuous
 48
1.5
100
AcDbLine
 10
8218.0
 20
5476.25011262
 30
0.0
 11
8225.50034752
 21
5468.7497651
 31
0.0
  0
LINE
  5
18F3
330
2
100
AcDbEntity
  8
YKK_C2
  6
Continuous
 48
1.5
100
AcDbLine
 10
8225.50034752
 20
5468.7497651
 30
0.0
 11
8218.0
 21
5468.7497651
 31
0.0
  0
LINE
  5
18F4
330
2
100
AcDbEntity
  8
YKK_C2
  6
Continuous
 48
1.5
100
AcDbLine
 10
8218.87468321
 20
5468.7497651
 30
0.0
 11
8218.0
 21
5469.62444831
 31
0.0
  0
LINE
  5
18F5
330
2
100
AcDbEntity
  8
YKK_C2
  6
Continuous
 48
1.5
100
AcDbLine
 10
8221.70311033
 20
5468.7497651
 30
0.0
 11
8218.0
 21
5472.45287543
 31
0.0
  0
LINE
  5
18F6
330
2
100
AcDbEntity
  8
YKK_C2
  6
Continuous
 48
1.5
100
AcDbLine
 10
8224.53153746
 20
5468.7497651
 30
0.0
 11
8218.0
 21
5475.28130256
 31
0.0
  0
LINE
  5
18F7
330
2
100
AcDbEntity
  8
YKK_B2
  6
Continuous
 48
1.5
100
AcDbLine
 10
4450.49999956
 20
3408.75005361
 30
0.0
 11
4457.49999956
 21
3408.75005361
 31
0.0
  0
LINE
  5
18F8
330
2
100
AcDbEntity
  8
YKK_B2
  6
Continuous
 48
1.5
100
AcDbLine
 10
4457.49999956
 20
3408.75005361
 30
0.0
 11
4450.49999956
 21
3401.75005361
 31
0.0
  0
LINE
  5
18F9
330
2
100
AcDbEntity
  8
YKK_B2
  6
Continuous
 48
1.5
100
AcDbLine
 10
4450.49999956
 20
3401.75005361
 30
0.0
 11
4450.49999956
 21
3408.75005361
 31
0.0
  0
LINE
  5
18FA
330
2
100
AcDbEntity
  8
YKK_B2
  6
Continuous
 48
1.5
100
AcDbLine
 10
4450.49999956
 20
3407.69527599
 30
0.0
 11
4451.55477718
 21
3408.75005361
 31
0.0
  0
LINE
  5
18FB
330
2
100
AcDbEntity
  8
YKK_B2
  6
Continuous
 48
1.5
100
AcDbLine
 10
4450.49999956
 20
3404.86684886
 30
0.0
 11
4454.38320431
 21
3408.75005361
 31
0.0
  0
LINE
  5
18FC
330
2
100
AcDbEntity
  8
YKK_B2
  6
Continuous
 48
1.5
100
AcDbLine
 10
4450.49999956
 20
3402.03842174
 30
0.0
 11
4457.21163143
 21
3408.75005361
 31
0.0
  0
LINE
  5
18FD
330
2
100
AcDbEntity
  8
YKK_B2
  6
Continuous
 48
1.5
100
AcDbLine
 10
6205.50000207
 20
3408.75005363
 30
0.0
 11
6198.50000207
 21
3408.75005363
 31
0.0
  0
LINE
  5
18FE
330
2
100
AcDbEntity
  8
YKK_B2
  6
Continuous
 48
1.5
100
AcDbLine
 10
6198.50000207
 20
3408.75005363
 30
0.0
 11
6205.50000207
 21
3401.75005363
 31
0.0
  0
LINE
  5
18FF
330
2
100
AcDbEntity
  8
YKK_B2
  6
Continuous
 48
1.5
100
AcDbLine
 10
6205.50000207
 20
3401.75005363
 30
0.0
 11
6205.50000207
 21
3408.75005363
 31
0.0
  0
LINE
  5
1900
330
2
100
AcDbEntity
  8
YKK_B2
  6
Continuous
 48
1.5
100
AcDbLine
 10
6199.74268428
 20
3407.50737142
 30
0.0
 11
6200.9853665
 21
3408.75005363
 31
0.0
  0
LINE
  5
1901
330
2
100
AcDbEntity
  8
YKK_B2
  6
Continuous
 48
1.5
100
AcDbLine
 10
6201.15689784
 20
3406.09315786
 30
0.0
 11
6203.81379362
 21
3408.75005363
 31
0.0
  0
LINE
  5
1902
330
2
100
AcDbEntity
  8
YKK_B2
  6
Continuous
 48
1.5
100
AcDbLine
 10
6202.57111141
 20
3404.6789443
 30
0.0
 11
6205.50000207
 21
3407.60783496
 31
0.0
  0
LINE
  5
1903
330
2
100
AcDbEntity
  8
YKK_B2
  6
Continuous
 48
1.5
100
AcDbLine
 10
6203.98532497
 20
3403.26473073
 30
0.0
 11
6205.50000207
 21
3404.77940783
 31
0.0
  0
LINE
  5
1904
330
2
100
AcDbEntity
  8
YKK_B2
  6
Continuous
 48
1.5
100
AcDbLine
 10
6205.39953853
 20
3401.85051717
 30
0.0
 11
6205.50000207
 21
3401.95098071
 31
0.0
  0
LINE
  5
1905
330
2
100
AcDbEntity
  8
YKK_C1
100
AcDbLine
 10
8072.0
 20
6707.25012075
 30
0.0
 11
8071.99999999
 21
6641.25012111
 31
0.0
  0
LINE
  5
1906
330
2
100
AcDbEntity
  8
YKK_C1
100
AcDbLine
 10
8071.99999999
 20
6641.25012111
 30
0.0
 11
8089.00001266
 21
6641.25012111
 31
0.0
  0
LINE
  5
1907
330
2
100
AcDbEntity
  8
YKK_C1
100
AcDbLine
 10
8181.00001266
 20
6648.75012033
 30
0.0
 11
8088.99999603
 21
6648.75012033
 31
0.0
  0
LINE
  5
1908
330
2
100
AcDbEntity
  8
YKK_C1
100
AcDbLine
 10
8088.99999603
 20
6648.75012033
 30
0.0
 11
8088.99999603
 21
6598.75011979
 31
0.0
  0
LINE
  5
1909
330
2
100
AcDbEntity
  8
YKK_C1
100
AcDbLine
 10
8210.99999999
 20
6665.75012016
 30
0.0
 11
8147.49999999
 21
6665.75012059
 31
0.0
  0
LINE
  5
190A
330
2
100
AcDbEntity
  8
YKK_C1
100
AcDbLine
 10
8147.49999999
 20
6665.75012059
 30
0.0
 11
8109.00000105
 21
6651.85012021
 31
0.0
  0
LINE
  5
190B
330
2
100
AcDbEntity
  8
YKK_C1
100
AcDbLine
 10
8109.00000105
 20
6651.85012021
 30
0.0
 11
8088.99999999
 21
6651.85012021
 31
0.0
  0
LINE
  5
190C
330
2
100
AcDbEntity
  8
YKK_C1
100
AcDbLine
 10
8088.99999999
 20
6665.75012021
 30
0.0
 11
8088.99999999
 21
6648.75012033
 31
0.0
  0
LINE
  5
190D
330
2
100
AcDbEntity
  8
YKK_C1
100
AcDbLine
 10
8147.49999999
 20
6665.75012021
 30
0.0
 11
8147.49999999
 21
6648.75012033
 31
0.0
  0
LINE
  5
190E
330
2
100
AcDbEntity
  8
YKK_C1
100
AcDbLine
 10
8163.29999999
 20
6648.75011979
 30
0.0
 11
8163.29999999
 21
6665.75011966
 31
0.0
  0
LINE
  5
190F
330
2
100
AcDbEntity
  8
YKK_C1
100
AcDbLine
 10
8163.29999999
 20
6657.95012021
 30
0.0
 11
8147.49999999
 21
6657.95012021
 31
0.0
  0
LINE
  5
1910
330
2
100
AcDbEntity
  8
YKK_C1
100
AcDbLine
 10
8181.00001266
 20
6597.75011979
 30
0.0
 11
8181.00001266
 21
6648.75012033
 31
0.0
  0
LINE
  5
1911
330
2
100
AcDbEntity
  8
YKK_C1
100
AcDbLine
 10
8181.00001266
 20
6648.75012033
 30
0.0
 11
8180.99999999
 21
6665.75012021
 31
0.0
  0
LINE
  5
1912
330
2
100
AcDbEntity
  8
YKK_C1
100
AcDbLine
 10
8181.00001266
 20
6618.75011979
 30
0.0
 11
8196.00001266
 21
6618.75011979
 31
0.0
  0
LINE
  5
1913
330
2
100
AcDbEntity
  8
YKK_C1
100
AcDbLine
 10
8196.00001266
 20
6618.75011979
 30
0.0
 11
8196.00001266
 21
6621.25011979
 31
0.0
  0
LINE
  5
1914
330
2
100
AcDbEntity
  8
YKK_C1
100
AcDbLine
 10
8181.00001266
 20
6621.25012022
 30
0.0
 11
8217.99999999
 21
6621.25012022
 31
0.0
  0
LINE
  5
1915
330
2
100
AcDbEntity
  8
YKK_C1
100
AcDbLine
 10
8217.99999999
 20
6621.25012022
 30
0.0
 11
8217.99999999
 21
6676.25012022
 31
0.0
  0
LINE
  5
1916
330
2
100
AcDbEntity
  8
YKK_C1
100
AcDbLine
 10
8089.00001266
 20
6635.75011979
 30
0.0
 11
8072.00001266
 21
6635.75011979
 31
0.0
  0
LINE
  5
1917
330
2
100
AcDbEntity
  8
YKK_C1
100
AcDbLine
 10
8072.00001266
 20
6635.75011979
 30
0.0
 11
8072.00001266
 21
6598.75012021
 31
0.0
  0
LINE
  5
1918
330
2
100
AcDbEntity
  8
YKK_C1
100
AcDbLine
 10
8088.99999603
 20
6627.75011979
 30
0.0
 11
8181.00001266
 21
6627.75011979
 31
0.0
  0
LINE
  5
1919
330
2
100
AcDbEntity
  8
YKK_C1
100
AcDbLine
 10
8127.30001266
 20
6627.75011979
 30
0.0
 11
8127.30001266
 21
6597.75011979
 31
0.0
  0
LINE
  5
191A
330
2
100
AcDbEntity
  8
YKK_C1
100
AcDbLine
 10
8127.30001266
 20
6597.75011979
 30
0.0
 11
8138.30001266
 21
6597.75011979
 31
0.0
  0
LINE
  5
191B
330
2
100
AcDbEntity
  8
YKK_C1
100
AcDbLine
 10
8138.30001266
 20
6597.75011979
 30
0.0
 11
8138.30001266
 21
6627.75011979
 31
0.0
  0
LINE
  5
191C
330
2
100
AcDbEntity
  8
YKK_C1
100
AcDbLine
 10
8091.30001266
 20
6571.7501199
 30
0.0
 11
8091.30001266
 21
6609.75011979
 31
0.0
  0
LINE
  5
191D
330
2
100
AcDbEntity
  8
YKK_C1
100
AcDbLine
 10
8091.30001266
 20
6609.75011979
 30
0.0
 11
8125.30001266
 21
6609.75011979
 31
0.0
  0
LINE
  5
191E
330
2
100
AcDbEntity
  8
YKK_C1
100
AcDbLine
 10
8125.30001266
 20
6609.75011979
 30
0.0
 11
8125.30001266
 21
6571.75011979
 31
0.0
  0
LINE
  5
191F
330
2
100
AcDbEntity
  8
YKK_C1
100
AcDbLine
 10
8091.30001266
 20
6588.7501199
 30
0.0
 11
8125.30001266
 21
6588.7501199
 31
0.0
  0
LINE
  5
1920
330
2
100
AcDbEntity
  8
YKK_C1
100
AcDbLine
 10
8140.30001266
 20
6571.7501199
 30
0.0
 11
8140.30001266
 21
6609.75011979
 31
0.0
  0
LINE
  5
1921
330
2
100
AcDbEntity
  8
YKK_C1
100
AcDbLine
 10
8140.30001266
 20
6609.75011979
 30
0.0
 11
8174.30001266
 21
6609.75011979
 31
0.0
  0
LINE
  5
1922
330
2
100
AcDbEntity
  8
YKK_C1
100
AcDbLine
 10
8174.30001266
 20
6609.75011979
 30
0.0
 11
8174.3
 21
6571.75012021
 31
0.0
  0
LINE
  5
1923
330
2
100
AcDbEntity
  8
YKK_C1
100
AcDbLine
 10
8140.30001267
 20
6588.75011979
 30
0.0
 11
8174.30000566
 21
6588.75010846
 31
0.0
  0
LINE
  5
1924
330
2
100
AcDbEntity
  8
YKK_C1
100
AcDbLine
 10
8073.7009008
 20
5405.7501202
 30
0.0
 11
8073.7009008
 21
5478.75012021
 31
0.0
  0
LINE
  5
1925
330
2
100
AcDbEntity
  8
YKK_C1
100
AcDbLine
 10
8073.7009008
 20
5478.75012021
 30
0.0
 11
8105.10090157
 21
5478.75012021
 31
0.0
  0
LINE
  5
1926
330
2
100
AcDbEntity
  8
YKK_C1
100
AcDbLine
 10
8210.99999999
 20
5473.7501202
 30
0.0
 11
8210.99999999
 21
5478.75012021
 31
0.0
  0
LINE
  5
1927
330
2
100
AcDbEntity
  8
YKK_C1
100
AcDbLine
 10
8210.99999999
 20
5478.75012021
 30
0.0
 11
8178.29999999
 21
5478.75011977
 31
0.0
  0
LINE
  5
1928
330
2
100
AcDbEntity
  8
YKK_C1
100
AcDbLine
 10
8178.29999999
 20
5478.75011977
 30
0.0
 11
8178.29999999
 21
5473.7501202
 31
0.0
  0
LINE
  5
1929
330
2
100
AcDbEntity
  8
YKK_C1
100
AcDbLine
 10
8181.00001266
 20
5529.75011977
 30
0.0
 11
8181.00001335
 21
5478.7501198
 31
0.0
  0
LINE
  5
192A
330
2
100
AcDbEntity
  8
YKK_C1
100
AcDbLine
 10
8181.00001294
 20
5508.75011977
 30
0.0
 11
8196.00001266
 21
5508.75011977
 31
0.0
  0
LINE
  5
192B
330
2
100
AcDbEntity
  8
YKK_C1
100
AcDbLine
 10
8196.00001266
 20
5508.75011977
 30
0.0
 11
8196.00001266
 21
5506.2501202
 31
0.0
  0
LINE
  5
192C
330
2
100
AcDbEntity
  8
YKK_C1
100
AcDbLine
 10
8217.99999999
 20
5471.2390152
 30
0.0
 11
8217.99999999
 21
5506.2501202
 31
0.0
  0
LINE
  5
192D
330
2
100
AcDbEntity
  8
YKK_C1
100
AcDbLine
 10
8217.99999999
 20
5506.2501202
 30
0.0
 11
8180.99999999
 21
5506.2501202
 31
0.0
  0
LINE
  5
192E
330
2
100
AcDbEntity
  8
YKK_C1
100
AcDbLine
 10
8089.00001266
 20
5478.75011977
 30
0.0
 11
8089.00001266
 21
5528.75011977
 31
0.0
  0
LINE
  5
192F
330
2
100
AcDbEntity
  8
YKK_C1
100
AcDbLine
 10
8089.00001266
 20
5491.75011977
 30
0.0
 11
8072.00001266
 21
5491.75011977
 31
0.0
  0
LINE
  5
1930
330
2
100
AcDbEntity
  8
YKK_C1
100
AcDbLine
 10
8072.00001266
 20
5491.75011977
 30
0.0
 11
8072.00001266
 21
5528.75012021
 31
0.0
  0
LINE
  5
1931
330
2
100
AcDbEntity
  8
YKK_C1
100
AcDbLine
 10
8089.00001266
 20
5478.75012021
 30
0.0
 11
8181.00001335
 21
5478.75011977
 31
0.0
  0
LINE
  5
1932
330
2
100
AcDbEntity
  8
YKK_C1
100
AcDbLine
 10
8089.00001266
 20
5499.75011977
 30
0.0
 11
8180.99999999
 21
5499.75011977
 31
0.0
  0
LINE
  5
1933
330
2
100
AcDbEntity
  8
YKK_C1
100
AcDbLine
 10
8108.30001266
 20
5529.75012006
 30
0.0
 11
8108.30001266
 21
5499.75011977
 31
0.0
  0
LINE
  5
1934
330
2
100
AcDbEntity
  8
YKK_C1
100
AcDbLine
 10
8157.30001266
 20
5529.75012006
 30
0.0
 11
8157.30001266
 21
5499.75011977
 31
0.0
  0
LINE
  5
1935
330
2
100
AcDbEntity
  8
YKK_C1
100
AcDbLine
 10
8127.30001266
 20
5499.75011977
 30
0.0
 11
8127.30001266
 21
5529.75011977
 31
0.0
  0
LINE
  5
1936
330
2
100
AcDbEntity
  8
YKK_C1
100
AcDbLine
 10
8127.30001266
 20
5529.75011977
 30
0.0
 11
8138.30001266
 21
5529.75011977
 31
0.0
  0
LINE
  5
1937
330
2
100
AcDbEntity
  8
YKK_C1
100
AcDbLine
 10
8138.30001266
 20
5529.75011977
 30
0.0
 11
8138.30001266
 21
5499.75011977
 31
0.0
  0
LINE
  5
1938
330
2
100
AcDbEntity
  8
YKK_C1
100
AcDbLine
 10
8091.30001266
 20
5577.75011966
 30
0.0
 11
8091.30001266
 21
5519.75011977
 31
0.0
  0
LINE
  5
1939
330
2
100
AcDbEntity
  8
YKK_C1
100
AcDbLine
 10
8125.30001266
 20
5519.75011977
 30
0.0
 11
8125.30001266
 21
5577.75011977
 31
0.0
  0
LINE
  5
193A
330
2
100
AcDbEntity
  8
YKK_C1
100
AcDbLine
 10
8091.30001266
 20
5560.75011977
 30
0.0
 11
8125.30001266
 21
5560.75011977
 31
0.0
  0
LINE
  5
193B
330
2
100
AcDbEntity
  8
YKK_C1
100
AcDbLine
 10
8091.30001266
 20
5539.75011977
 30
0.0
 11
8125.30001266
 21
5539.75011977
 31
0.0
  0
LINE
  5
193C
330
2
100
AcDbEntity
  8
YKK_C1
100
AcDbLine
 10
8140.30001266
 20
5577.75011966
 30
0.0
 11
8140.30001266
 21
5519.75011977
 31
0.0
  0
LINE
  5
193D
330
2
100
AcDbEntity
  8
YKK_C1
100
AcDbLine
 10
8174.30001266
 20
5519.75011977
 30
0.0
 11
8174.30001266
 21
5577.75011977
 31
0.0
  0
LINE
  5
193E
330
2
100
AcDbEntity
  8
YKK_C1
100
AcDbLine
 10
8140.30001266
 20
5560.75011966
 30
0.0
 11
8174.30001266
 21
5560.75011966
 31
0.0
  0
LINE
  5
193F
330
2
100
AcDbEntity
  8
YKK_C1
100
AcDbLine
 10
8140.30001266
 20
5539.75011977
 30
0.0
 11
8174.30001266
 21
5539.75011977
 31
0.0
  0
LINE
  5
1940
330
2
100
AcDbEntity
  8
YKK_C1
100
AcDbLine
 10
8097.30001267
 20
6584.75011978
 30
0.0
 11
8097.30001267
 21
5564.75011978
 31
0.0
  0
LINE
  5
1941
330
2
100
AcDbEntity
  8
YKK_C1
100
AcDbLine
 10
8119.30001267
 20
5564.75011978
 30
0.0
 11
8119.30001267
 21
6584.75011978
 31
0.0
  0
LINE
  5
1942
330
2
100
AcDbEntity
  8
YKK_C1
100
AcDbLine
 10
8146.30001267
 20
6584.75011978
 30
0.0
 11
8146.30001267
 21
5564.75011978
 31
0.0
  0
LINE
  5
1943
330
2
100
AcDbEntity
  8
YKK_C1
100
AcDbLine
 10
8168.30001267
 20
5564.75011978
 30
0.0
 11
8168.30001267
 21
6584.75011978
 31
0.0
  0
LINE
  5
1944
330
2
100
AcDbEntity
  8
YKK_C1
100
AcDbLine
 10
8072.00001267
 20
6588.75012021
 30
0.0
 11
8072.00001267
 21
5538.75012021
 31
0.0
  0
LINE
  5
1945
330
2
100
AcDbEntity
  8
YKK_C1
100
AcDbLine
 10
8218.0
 20
6611.25012021
 30
0.0
 11
8218.0
 21
5516.2501202
 31
0.0
  0
TEXT
  5
1946
330
2
100
AcDbEntity
  8
YKK_N1
  6
Continuous
100
AcDbText
 10
8709.0
 20
5815.91273513
 30
0.0
 40
60.0
  1
新設窓H=1170
 50
90.0
 41
1.122581
  7
MX_NOTE_STANDARD
 11
8679.0
 21
5815.91273513
 31
0.0
100
AcDbText
 73
     2
  0
TEXT
  5
1947
330
2
100
AcDbEntity
  8
YKK_N1
  6
Continuous
100
AcDbText
 10
8709.0
 20
6698.25012021
 30
0.0
 40
60.0
  1
17
 50
90.0
  7
MX_NOTE_STANDARD
 11
8679.0
 21
6698.25012021
 31
0.0
100
AcDbText
 73
     2
  0
LINE
  5
1948
330
2
100
AcDbEntity
  8
YKK_N1
  6
Continuous
100
AcDbLine
 10
8671.0
 20
6562.14757921
 30
0.0
 11
8771.0
 21
6562.14757921
 31
0.0
  0
LINE
  5
1949
330
2
100
AcDbEntity
  8
YKK_N1
  6
Continuous
100
AcDbLine
 10
8671.0
 20
6562.14757921
 30
0.0
 11
8721.0
 21
6648.75012021
 31
0.0
  0
CIRCLE
  5
194A
330
2
100
AcDbEntity
  8
YKK_N1
  6
Continuous
100
AcDbCircle
 10
8521.0
 20
6648.75012021
 30
0.0
 40
5.0
  0
CIRCLE
  5
194B
330
2
100
AcDbEntity
  8
YKK_N1
  6
Continuous
100
AcDbCircle
 10
8521.0
 20
6618.75012021
 30
0.0
 40
5.0
  0
LINE
  5
194C
330
2
100
AcDbEntity
  8
YKK_N1
  6
Continuous
100
AcDbLine
 10
8521.0
 20
6618.75012021
 30
0.0
 11
8521.0
 21
6648.75012021
 31
0.0
  0
LINE
  5
194D
330
2
100
AcDbEntity
  8
YKK_N1
  6
Continuous
100
AcDbLine
 10
8721.0
 20
6665.75012021
 30
0.0
 11
8721.0
 21
6648.75012021
 31
0.0
  0
CIRCLE
  5
194E
330
2
100
AcDbEntity
  8
YKK_N1
  6
Continuous
100
AcDbCircle
 10
8721.0
 20
6665.75012021
 30
0.0
 40
5.0
  0
LINE
  5
194F
330
2
100
AcDbEntity
  8
YKK_N1
  6
Continuous
100
AcDbLine
 10
8771.0
 20
6562.14757921
 30
0.0
 11
8721.0
 21
6648.75012021
 31
0.0
  0
LINE
  5
1950
330
2
100
AcDbEntity
  8
YKK_N1
  6
Continuous
100
AcDbLine
 10
8671.0
 20
5565.35306021
 30
0.0
 11
8771.0
 21
5565.35306021
 31
0.0
  0
LINE
  5
1951
330
2
100
AcDbEntity
  8
YKK_N1
  6
Continuous
100
AcDbLine
 10
8671.0
 20
5565.35306021
 30
0.0
 11
8721.0
 21
5478.75052021
 31
0.0
  0
LINE
  5
1952
330
2
100
AcDbEntity
  8
YKK_N1
  6
Continuous
100
AcDbLine
 10
8521.0
 20
5508.75012021
 30
0.0
 11
8521.0
 21
5478.75012021
 31
0.0
  0
CIRCLE
  5
1953
330
2
100
AcDbEntity
  8
YKK_N1
  6
Continuous
100
AcDbCircle
 10
8521.0
 20
5478.75014521
 30
0.0
 40
5.0
  0
CIRCLE
  5
1954
330
2
100
AcDbEntity
  8
YKK_N1
  6
Continuous
100
AcDbCircle
 10
8521.0
 20
5508.75012021
 30
0.0
 40
5.0
  0
LINE
  5
1955
330
2
100
AcDbEntity
  8
YKK_N1
  6
Continuous
100
AcDbLine
 10
8771.0
 20
5565.35306021
 30
0.0
 11
8721.0
 21
5478.75052021
 31
0.0
  0
LINE
  5
1956
330
2
100
AcDbEntity
  8
YKK_N1
  6
Continuous
100
AcDbLine
 10
8721.0
 20
6648.75012021
 30
0.0
 11
8721.0
 21
5478.75012021
 31
0.0
  0
LINE
  5
1957
330
2
100
AcDbEntity
  8
YKK_N1
  6
Continuous
100
AcDbLine
 10
8396.0
 20
5478.75012021
 30
0.0
 11
8721.0
 21
5478.75012021
 31
0.0
  0
LINE
  5
1958
330
2
100
AcDbEntity
  8
YKK_N1
  6
Continuous
100
AcDbLine
 10
8396.0
 20
5508.75012021
 30
0.0
 11
8521.0
 21
5508.75012021
 31
0.0
  0
TEXT
  5
1959
330
2
100
AcDbEntity
  8
YKK_N1
  6
Continuous
100
AcDbText
 10
8509.0
 20
5518.59017521
 30
0.0
 40
60.0
  1
30
 50
90.0
  7
MX_NOTE_STANDARD
 11
8479.0
 21
5518.59017521
 31
0.0
100
AcDbText
 73
     2
  0
LINE
  5
195A
330
2
100
AcDbEntity
  8
YKK_N1
  6
Continuous
100
AcDbLine
 10
8396.0
 20
6665.75012021
 30
0.0
 11
8921.0
 21
6665.75012021
 31
0.0
  0
LINE
  5
195B
330
2
100
AcDbEntity
  8
YKK_N1
  6
Continuous
100
AcDbLine
 10
8396.0
 20
6648.75012021
 30
0.0
 11
8721.0
 21
6648.75012021
 31
0.0
  0
LINE
  5
195C
330
2
100
AcDbEntity
  8
YKK_N1
  6
Continuous
100
AcDbLine
 10
8396.0
 20
6618.75012021
 30
0.0
 11
8521.0
 21
6618.75012021
 31
0.0
  0
TEXT
  5
195D
330
2
100
AcDbEntity
  8
YKK_N1
  6
Continuous
100
AcDbText
 10
8509.0
 20
6510.72824721
 30
0.0
 40
60.0
  1
30
 50
90.0
  7
MX_NOTE_STANDARD
 11
8479.0
 21
6510.72824721
 31
0.0
100
AcDbText
 73
     2
  0
TEXT
  5
195E
330
2
100
AcDbEntity
  8
YKK_N1
  6
Continuous
100
AcDbText
 10
8074.04667381
 20
5111.60104979
 30
0.0
 40
60.0
  1
92
  7
MX_NOTE_STANDARD
 11
8074.04667381
 21
5141.60104979
 31
0.0
100
AcDbText
 73
     2
  0
TEXT
  5
195F
330
2
100
AcDbEntity
  8
YKK_N1
  6
Continuous
100
AcDbText
 10
8231.0915334
 20
5195.60104979
 30
0.0
 40
60.0
  1
15
  7
MX_NOTE_STANDARD
 11
8231.0915334
 21
5225.60104979
 31
0.0
100
AcDbText
 73
     2
  0
LINE
  5
1960
330
2
100
AcDbEntity
  8
YKK_N1
  6
Continuous
100
AcDbLine
 10
8073.70090081
 20
5183.60104979
 30
0.0
 11
8089.00090081
 21
5183.60104979
 31
0.0
  0
CIRCLE
  5
1961
330
2
100
AcDbEntity
  8
YKK_N1
  6
Continuous
100
AcDbCircle
 10
8073.70090081
 20
5183.49479979
 30
0.0
 40
5.0
  0
CIRCLE
  5
1962
330
2
100
AcDbEntity
  8
YKK_N1
  6
Continuous
100
AcDbCircle
 10
8073.70090081
 20
5183.60104979
 30
0.0
 40
0.10625
  0
LINE
  5
1963
330
2
100
AcDbEntity
  8
YKK_N1
  6
Continuous
100
AcDbLine
 10
8181.00090081
 20
5183.60104979
 30
0.0
 11
8089.00090081
 21
5183.60104979
 31
0.0
  0
CIRCLE
  5
1964
330
2
100
AcDbEntity
  8
YKK_N1
  6
Continuous
100
AcDbCircle
 10
8089.00090081
 20
5183.60104979
 30
0.0
 40
5.0
  0
LINE
  5
1965
330
2
100
AcDbEntity
  8
YKK_N1
  6
Continuous
100
AcDbLine
 10
8196.00090081
 20
5183.60104979
 30
0.0
 11
8181.00090081
 21
5183.60104979
 31
0.0
  0
CIRCLE
  5
1966
330
2
100
AcDbEntity
  8
YKK_N1
  6
Continuous
100
AcDbCircle
 10
8181.00090081
 20
5183.60104979
 30
0.0
 40
5.0
  0
CIRCLE
  5
1967
330
2
100
AcDbEntity
  8
YKK_N1
  6
Continuous
100
AcDbCircle
 10
8196.00090081
 20
5183.60104979
 30
0.0
 40
5.0
  0
LINE
  5
1968
330
2
100
AcDbEntity
  8
YKK_N1
  6
Continuous
100
AcDbLine
 10
8073.70090081
 20
5308.60104979
 30
0.0
 11
8073.70090081
 21
5183.60104979
 31
0.0
  0
LINE
  5
1969
330
2
100
AcDbEntity
  8
YKK_N1
  6
Continuous
100
AcDbLine
 10
8181.00090081
 20
5308.60104979
 30
0.0
 11
8181.00090081
 21
5183.60104979
 31
0.0
  0
LINE
  5
196A
330
2
100
AcDbEntity
  8
YKK_N1
  6
Continuous
100
AcDbLine
 10
8196.00090081
 20
5183.60104979
 30
0.0
 11
8196.00090081
 21
5308.60104979
 31
0.0
  0
LINE
  5
196B
330
2
100
AcDbEntity
  8
YKK_N1
  6
Continuous
100
AcDbLine
 10
8089.00090081
 20
5308.60104979
 30
0.0
 11
8089.00090081
 21
5183.60104979
 31
0.0
  0
TEXT
  5
196C
330
2
100
AcDbEntity
  8
YKK_N1
  6
Continuous
100
AcDbText
 10
7883.94275554
 20
5195.60104979
 30
0.0
 40
60.0
  1
15.3
  7
MX_NOTE_STANDARD
 11
7883.94275554
 21
5225.60104979
 31
0.0
100
AcDbText
 73
     2
  0
TEXT
  5
196D
330
2
100
AcDbEntity
  8
YKK_N1
  6
Continuous
100
AcDbText
 10
7942.00001267
 20
6136.08284459
 30
0.0
 40
60.0
  1
109
  7
MX_NOTE_STANDARD
 11
7942.00001267
 21
6166.08284459
 31
0.0
100
AcDbText
 73
     2
  0
CIRCLE
  5
196E
330
2
100
AcDbEntity
  8
YKK_N1
  6
Continuous
100
AcDbCircle
 10
8181.00000067
 20
6123.97659459
 30
0.0
 40
5.0
  0
CIRCLE
  5
196F
330
2
100
AcDbEntity
  8
YKK_N1
  6
Continuous
100
AcDbCircle
 10
8072.00001267
 20
6124.08284459
 30
0.0
 40
5.0
  0
LINE
  5
1970
330
2
100
AcDbEntity
  8
YKK_N1
  6
Continuous
100
AcDbLine
 10
8072.00001267
 20
6123.97659459
 30
0.0
 11
8181.00000067
 21
6123.97659459
 31
0.0
  0
LINE
  5
1971
330
2
100
AcDbEntity
  8
YKK_N1
  6
Continuous
100
AcDbLine
 10
8181.00000067
 20
5998.97659459
 30
0.0
 11
8181.00000067
 21
6123.97659459
 31
0.0
  0
LINE
  5
1972
330
2
100
AcDbEntity
  8
YKK_N1
  6
Continuous
100
AcDbLine
 10
8072.00001267
 20
5998.97659459
 30
0.0
 11
8072.00001267
 21
6123.97659459
 31
0.0
  0
LINE
  5
1973
330
2
100
AcDbEntity
  8
YKK_N1
  6
Continuous
100
AcDbLine
 10
8921.0
 20
6665.75012021
 30
0.0
 11
8921.0
 21
5472.25012021
 31
0.0
  0
LINE
  5
1974
330
2
100
AcDbEntity
  8
YKK_N1
  6
Continuous
100
AcDbLine
 10
9121.0
 20
6675.75012021
 30
0.0
 11
9121.0
 21
5472.25012021
 31
0.0
  0
LINE
  5
1975
330
2
100
AcDbEntity
  8
YKK_N1
  6
Continuous
100
AcDbLine
 10
8396.0
 20
6675.75012021
 30
0.0
 11
9121.0
 21
6675.75012021
 31
0.0
  0
LINE
  5
1976
330
2
100
AcDbEntity
  8
YKK_N1
100
AcDbLine
 10
8921.0
 20
6665.75012021
 30
0.0
 11
8921.0
 21
6675.75012021
 31
0.0
  0
LINE
  5
1977
330
2
100
AcDbEntity
  8
YKK_N1
  6
Continuous
100
AcDbLine
 10
8871.0
 20
6579.14757921
 30
0.0
 11
8971.0
 21
6579.14757921
 31
0.0
  0
LINE
  5
1978
330
2
100
AcDbEntity
  8
YKK_N1
  6
Continuous
100
AcDbLine
 10
8871.0
 20
6579.14757921
 30
0.0
 11
8921.0
 21
6665.75012021
 31
0.0
  0
LINE
  5
1979
330
2
100
AcDbEntity
  8
YKK_N1
  6
Continuous
100
AcDbLine
 10
8971.0
 20
6579.14757921
 30
0.0
 11
8921.0
 21
6665.75012021
 31
0.0
  0
LINE
  5
197A
330
2
100
AcDbEntity
  8
YKK_N1
  6
Continuous
100
AcDbLine
 10
9071.0
 20
6589.14757921
 30
0.0
 11
9171.0
 21
6589.14757921
 31
0.0
  0
LINE
  5
197B
330
2
100
AcDbEntity
  8
YKK_N1
  6
Continuous
100
AcDbLine
 10
9071.0
 20
6589.14757921
 30
0.0
 11
9121.0
 21
6675.75012021
 31
0.0
  0
LINE
  5
197C
330
2
100
AcDbEntity
  8
YKK_N1
  6
Continuous
100
AcDbLine
 10
9171.0
 20
6589.14757921
 30
0.0
 11
9121.0
 21
6675.75012021
 31
0.0
  0
CIRCLE
  5
197D
330
2
100
AcDbEntity
  8
YKK_N1
  6
Continuous
100
AcDbCircle
 10
8921.0
 20
6675.75012021
 30
0.0
 40
5.0
  0
LINE
  5
197E
330
2
100
AcDbEntity
  8
YKK_N1
  6
Continuous
100
AcDbLine
 10
8871.0
 20
5558.85266021
 30
0.0
 11
8971.0
 21
5558.85266021
 31
0.0
  0
LINE
  5
197F
330
2
100
AcDbEntity
  8
YKK_N1
  6
Continuous
100
AcDbLine
 10
8871.0
 20
5558.85266021
 30
0.0
 11
8921.0
 21
5472.25012021
 31
0.0
  0
LINE
  5
1980
330
2
100
AcDbEntity
  8
YKK_N1
  6
Continuous
100
AcDbLine
 10
8971.0
 20
5558.85266021
 30
0.0
 11
8921.0
 21
5472.25012021
 31
0.0
  0
LINE
  5
1981
330
2
100
AcDbEntity
  8
YKK_N1
  6
Continuous
100
AcDbLine
 10
9071.0
 20
5558.85266021
 30
0.0
 11
9171.0
 21
5558.85266021
 31
0.0
  0
LINE
  5
1982
330
2
100
AcDbEntity
  8
YKK_N1
  6
Continuous
100
AcDbLine
 10
9071.0
 20
5558.85266021
 30
0.0
 11
9121.0
 21
5472.25012021
 31
0.0
  0
LINE
  5
1983
330
2
100
AcDbEntity
  8
YKK_N1
  6
Continuous
100
AcDbLine
 10
9171.0
 20
5558.85266021
 30
0.0
 11
9121.0
 21
5472.25012021
 31
0.0
  0
TEXT
  5
1984
330
2
100
AcDbEntity
  8
YKK_N1
  6
Continuous
100
AcDbText
 10
8901.5
 20
5597.85570136
 30
0.0
 40
45.0
  1
ジョイント枠出来高JH=1193.5
 50
90.0
 41
1.122581
  7
MX_NOTE_STANDARD
 11
8879.0
 21
5597.85570136
 31
0.0
100
AcDbText
 73
     2
  0
TEXT
  5
1985
330
2
100
AcDbEntity
  8
YKK_N1
  6
Continuous
100
AcDbText
 10
9104.0
 20
5620.26669083
 30
0.0
 40
50.0
  1
既設窓枠開口高KH=1203.5
 50
90.0
 41
1.122581
  7
MX_NOTE_STANDARD
 11
9079.0
 21
5620.26669083
 31
0.0
100
AcDbText
 73
     2
  0
TEXT
  5
1986
330
2
100
AcDbEntity
  8
YKK_N1
  6
Continuous
100
AcDbText
 10
8909.0
 20
6708.25012021
 30
0.0
 40
60.0
  1
10
 50
90.0
  7
MX_NOTE_STANDARD
 11
8879.0
 21
6708.25012021
 31
0.0
100
AcDbText
 73
     2
  0
CIRCLE
  5
1987
330
2
100
AcDbEntity
  8
YKK_N1
  6
Continuous
100
AcDbCircle
 10
8196.00000067
 20
6123.97659459
 30
0.0
 40
5.0
  0
LINE
  5
1988
330
2
100
AcDbEntity
  8
YKK_N1
  6
Continuous
100
AcDbLine
 10
8196.00000067
 20
5998.97659459
 30
0.0
 11
8196.00000067
 21
6123.97659459
 31
0.0
  0
LINE
  5
1989
330
2
100
AcDbEntity
  8
YKK_N1
100
AcDbLine
 10
8181.00000067
 20
6123.97659459
 30
0.0
 11
8196.00000067
 21
6123.97659459
 31
0.0
  0
TEXT
  5
198A
330
2
100
AcDbEntity
  8
YKK_N1
  6
Continuous
100
AcDbText
 10
8193.92696785
 20
6136.08284459
 30
0.0
 40
60.0
  1
15
  7
MX_NOTE_STANDARD
 11
8193.92696785
 21
6166.08284459
 31
0.0
100
AcDbText
 73
     2
  0
LINE
  5
198B
330
2
100
AcDbEntity
  8
YKK_N1
  6
Continuous
100
AcDbLine
 10
8211.00090081
 20
5183.60104979
 30
0.0
 11
8196.00090081
 21
5183.60104979
 31
0.0
  0
CIRCLE
  5
198C
330
2
100
AcDbEntity
  8
YKK_N1
  6
Continuous
100
AcDbCircle
 10
8211.00090081
 20
5183.60104979
 30
0.0
 40
5.0
  0
LINE
  5
198D
330
2
100
AcDbEntity
  8
YKK_N1
  6
Continuous
100
AcDbLine
 10
8211.00090081
 20
5183.60104979
 30
0.0
 11
8211.00090081
 21
5308.60104979
 31
0.0
  0
LINE
  5
198E
330
2
100
AcDbEntity
  8
YKK_N1
100
AcDbLine
 10
8188.50090081
 20
5183.60104979
 30
0.0
 11
8213.6546295
 21
5077.72392501
 31
-0.00000002
  0
LINE
  5
198F
330
2
100
AcDbEntity
  8
YKK_N1
100
AcDbLine
 10
8213.6546295
 20
5077.72392501
 30
-0.00000002
 11
8313.87518604
 21
5077.72392501
 31
-0.00000002
  0
TEXT
  5
1990
330
2
100
AcDbEntity
  8
YKK_N1
  6
Continuous
100
AcDbText
 10
8218.00090081
 20
5087.59928523
 30
0.0
 40
60.0
  1
15
  7
MX_NOTE_STANDARD
 11
8218.00090081
 21
5117.59928523
 31
0.0
100
AcDbText
 73
     2
  0
LINE
  5
1991
330
2
100
AcDbEntity
  8
YKK_N1
  6
Continuous
100
AcDbLine
 10
8396.0
 20
5472.25012021
 30
0.0
 11
9121.0
 21
5472.25012021
 31
0.0
  0
LINE
  5
1992
330
2
100
AcDbEntity
  8
YKK_N1
100
AcDbLine
 10
8721.0
 20
5478.75012021
 30
0.0
 11
8721.0
 21
5472.25012021
 31
0.0
  0
CIRCLE
  5
1993
330
2
100
AcDbEntity
  8
YKK_N1
  6
Continuous
100
AcDbCircle
 10
8721.0
 20
5472.25012021
 30
0.0
 40
5.0
  0
TEXT
  5
1994
330
2
100
AcDbEntity
  8
YKK_N1
  6
Continuous
100
AcDbText
 10
8709.0
 20
5324.45801032
 30
0.0
 40
60.0
  1
6.5
 50
90.0
  7
MX_NOTE_STANDARD
 11
8679.0
 21
5324.45801032
 31
0.0
100
AcDbText
 73
     2
  0
LINE
  5
1995
330
2
100
AcDbEntity
  8
YKK_B1
  6
Continuous
370
    13
100
AcDbLine
 10
4470.19999998
 20
3503.93533498
 30
0.0
 11
4476.61471861
 21
3510.3500536
 31
0.0
  0
LINE
  5
1996
330
2
100
AcDbEntity
  8
YKK_B1
  6
Continuous
370
    13
100
AcDbLine
 10
4470.19999998
 20
3498.27848073
 30
0.0
 11
4477.99999998
 21
3506.07848073
 31
0.0
  0
LINE
  5
1997
330
2
100
AcDbEntity
  8
YKK_B1
  6
Continuous
370
    13
100
AcDbLine
 10
4472.1284271
 20
3494.5500536
 30
0.0
 11
4477.99999998
 21
3500.42162648
 31
0.0
  0
LINE
  5
1998
330
2
100
AcDbEntity
  8
YKK_B1
100
AcDbLine
 10
5308.99999951
 20
3501.4500537
 30
0.0
 11
5346.99999951
 21
3501.4500537
 31
0.0
  0
LINE
  5
1999
330
2
100
AcDbEntity
  8
YKK_B1
100
AcDbLine
 10
5346.99999951
 20
3501.4500537
 30
0.0
 11
5346.99999951
 21
3535.4500537
 31
0.0
  0
LINE
  5
199A
330
2
100
AcDbEntity
  8
YKK_B1
100
AcDbLine
 10
5346.99999951
 20
3535.4500537
 30
0.0
 11
5308.99999964
 21
3535.4500537
 31
0.0
  0
LINE
  5
199B
330
2
100
AcDbEntity
  8
YKK_B1
100
AcDbLine
 10
5325.99999951
 20
3535.45005371
 30
0.0
 11
5325.99999951
 21
3501.4500537
 31
0.0
  0
LINE
  5
199C
330
2
100
AcDbEntity
  8
YKK_B1
100
AcDbLine
 10
5346.9999994
 20
3486.45005372
 30
0.0
 11
5308.99999951
 21
3486.45005372
 31
0.0
  0
LINE
  5
199D
330
2
100
AcDbEntity
  8
YKK_B1
100
AcDbLine
 10
5308.99999951
 20
3486.45005372
 30
0.0
 11
5308.99999952
 21
3452.45005372
 31
0.0
  0
LINE
  5
199E
330
2
100
AcDbEntity
  8
YKK_B1
100
AcDbLine
 10
5308.99999952
 20
3452.45005372
 30
0.0
 11
5346.99999951
 21
3452.45005372
 31
0.0
  0
LINE
  5
199F
330
2
100
AcDbEntity
  8
YKK_B1
100
AcDbLine
 10
5329.9999994
 20
3486.45005372
 30
0.0
 11
5329.9999994
 21
3452.45005372
 31
0.0
  0
LINE
  5
19A0
330
2
100
AcDbEntity
  8
YKK_B1
100
AcDbLine
 10
4434.99999998
 20
3548.7500536
 30
0.0
 11
4434.99999998
 21
3553.7500536
 31
0.0
  0
LINE
  5
19A1
330
2
100
AcDbEntity
  8
YKK_B1
100
AcDbLine
 10
4434.99999998
 20
3553.7500536
 30
0.0
 11
4490.99999998
 21
3553.7500536
 31
0.0
  0
LINE
  5
19A2
330
2
100
AcDbEntity
  8
YKK_B1
100
AcDbLine
 10
4490.99999998
 20
3553.7500536
 30
0.0
 11
4490.99999998
 21
3537.75005372
 31
0.0
  0
LINE
  5
19A3
330
2
100
AcDbEntity
  8
YKK_B1
100
AcDbLine
 10
4457.99999998
 20
3460.2500536
 30
0.0
 11
4457.99999998
 21
3553.7500536
 31
0.0
  0
LINE
  5
19A4
330
2
100
AcDbEntity
  8
YKK_B1
100
AcDbLine
 10
4477.99999998
 20
3475.2500536
 30
0.0
 11
4457.99999998
 21
3475.2500536
 31
0.0
  0
LINE
  5
19A5
330
2
100
AcDbEntity
  8
YKK_B1
100
AcDbLine
 10
4477.99999998
 20
3475.2500536
 30
0.0
 11
4477.99999998
 21
3553.7500536
 31
0.0
  0
LINE
  5
19A6
330
2
100
AcDbEntity
  8
YKK_B1
100
AcDbLine
 10
4477.99999998
 20
3494.5500536
 30
0.0
 11
4457.99999998
 21
3494.5500536
 31
0.0
  0
LINE
  5
19A7
330
2
100
AcDbEntity
  8
YKK_B1
100
AcDbLine
 10
4470.19999998
 20
3494.5500536
 30
0.0
 11
4470.19999998
 21
3510.3500536
 31
0.0
  0
LINE
  5
19A8
330
2
100
AcDbEntity
  8
YKK_B1
100
AcDbLine
 10
4457.99999998
 20
3510.3500536
 30
0.0
 11
4477.99999998
 21
3510.3500536
 31
0.0
  0
LINE
  5
19A9
330
2
100
AcDbEntity
  8
YKK_B1
100
AcDbLine
 10
4533.99999951
 20
3445.75005372
 30
0.0
 11
4482.99999951
 21
3445.75005372
 31
0.0
  0
LINE
  5
19AA
330
2
100
AcDbEntity
  8
YKK_B1
100
AcDbLine
 10
4482.99999951
 20
3445.75005372
 30
0.0
 11
4482.99999951
 21
3537.75005372
 31
0.0
  0
LINE
  5
19AB
330
2
100
AcDbEntity
  8
YKK_B1
100
AcDbLine
 10
4482.99999951
 20
3537.75005372
 30
0.0
 11
4532.99999951
 21
3537.75005372
 31
0.0
  0
LINE
  5
19AC
330
2
100
AcDbEntity
  8
YKK_B1
100
AcDbLine
 10
4495.99999951
 20
3537.75005372
 30
0.0
 11
4495.99999951
 21
3554.75005372
 31
0.0
  0
LINE
  5
19AD
330
2
100
AcDbEntity
  8
YKK_B1
100
AcDbLine
 10
4495.99999951
 20
3554.75005372
 30
0.0
 11
4532.99999951
 21
3554.75005372
 31
0.0
  0
LINE
  5
19AE
330
2
100
AcDbEntity
  8
YKK_B1
100
AcDbLine
 10
4503.99999951
 20
3537.75005372
 30
0.0
 11
4503.99999951
 21
3445.75005362
 31
0.0
  0
LINE
  5
19AF
330
2
100
AcDbEntity
  8
YKK_B1
100
AcDbLine
 10
4464.49999998
 20
3474.4500536
 30
0.0
 11
4481.29999998
 21
3474.4500536
 31
0.0
  0
LINE
  5
19B0
330
2
100
AcDbEntity
  8
YKK_B1
100
AcDbLine
 10
4481.29999998
 20
3474.4500536
 30
0.0
 11
4481.29999998
 21
3415.7500536
 31
0.0
  0
LINE
  5
19B1
330
2
100
AcDbEntity
  8
YKK_B1
100
AcDbLine
 10
4481.29999998
 20
3415.7500536
 30
0.0
 11
4478.69999998
 21
3415.7500536
 31
0.0
  0
LINE
  5
19B2
330
2
100
AcDbEntity
  8
YKK_B1
100
AcDbLine
 10
4481.29999998
 20
3472.2500536
 30
0.0
 11
4482.99999998
 21
3472.2500536
 31
0.0
  0
LINE
  5
19B3
330
2
100
AcDbEntity
  8
YKK_B1
100
AcDbLine
 10
4481.29999998
 20
3445.7500536
 30
0.0
 11
4482.99999951
 21
3445.7500536
 31
0.0
  0
LINE
  5
19B4
330
2
100
AcDbEntity
  8
YKK_B1
100
AcDbLine
 10
4510.49999951
 20
3430.75005372
 30
0.0
 11
4512.99999951
 21
3430.75005372
 31
0.0
  0
LINE
  5
19B5
330
2
100
AcDbEntity
  8
YKK_B1
100
AcDbLine
 10
4512.99999951
 20
3430.75005372
 30
0.0
 11
4512.99999951
 21
3445.75005372
 31
0.0
  0
LINE
  5
19B6
330
2
100
AcDbEntity
  8
YKK_B1
100
AcDbLine
 10
4503.99999951
 20
3499.45005372
 30
0.0
 11
4533.99999951
 21
3499.45005372
 31
0.0
  0
LINE
  5
19B7
330
2
100
AcDbEntity
  8
YKK_B1
100
AcDbLine
 10
4533.99999951
 20
3499.45005372
 30
0.0
 11
4533.99999951
 21
3488.45005372
 31
0.0
  0
LINE
  5
19B8
330
2
100
AcDbEntity
  8
YKK_B1
100
AcDbLine
 10
4533.99999951
 20
3488.45005372
 30
0.0
 11
4503.99999951
 21
3488.45005372
 31
0.0
  0
LINE
  5
19B9
330
2
100
AcDbEntity
  8
YKK_B1
100
AcDbLine
 10
4450.49999998
 20
3408.75005362
 30
0.0
 11
4510.49999998
 21
3408.75005362
 31
0.0
  0
LINE
  5
19BA
330
2
100
AcDbEntity
  8
YKK_B1
100
AcDbLine
 10
4510.49999998
 20
3408.75005362
 30
0.0
 11
4510.49999998
 21
3445.75005362
 31
0.0
  0
LINE
  5
19BB
330
2
100
AcDbEntity
  8
YKK_B1
100
AcDbLine
 10
4524.99999951
 20
3535.45005372
 30
0.0
 11
4582.9999994
 21
3535.45005372
 31
0.0
  0
LINE
  5
19BC
330
2
100
AcDbEntity
  8
YKK_B1
100
AcDbLine
 10
4582.99999951
 20
3501.45005372
 30
0.0
 11
4524.99999951
 21
3501.45005372
 31
0.0
  0
LINE
  5
19BD
330
2
100
AcDbEntity
  8
YKK_B1
100
AcDbLine
 10
4544.99999951
 20
3535.45005372
 30
0.0
 11
4544.99999951
 21
3501.45005372
 31
0.0
  0
LINE
  5
19BE
330
2
100
AcDbEntity
  8
YKK_B1
100
AcDbLine
 10
4565.9999994
 20
3535.45005371
 30
0.0
 11
4565.9999994
 21
3501.45005372
 31
0.0
  0
LINE
  5
19BF
330
2
100
AcDbEntity
  8
YKK_B1
  6
Continuous
370
    13
100
AcDbLine
 10
6185.8
 20
3503.93533498
 30
0.0
 11
6179.38528137
 21
3510.3500536
 31
0.0
  0
LINE
  5
19C0
330
2
100
AcDbEntity
  8
YKK_B1
  6
Continuous
370
    13
100
AcDbLine
 10
6185.8
 20
3498.27848073
 30
0.0
 11
6178.0
 21
3506.07848073
 31
0.0
  0
LINE
  5
19C1
330
2
100
AcDbEntity
  8
YKK_B1
  6
Continuous
370
    13
100
AcDbLine
 10
6183.87157288
 20
3494.5500536
 30
0.0
 11
6178.0
 21
3500.42162648
 31
0.0
  0
LINE
  5
19C2
330
2
100
AcDbEntity
  8
YKK_B1
100
AcDbLine
 10
6221.0
 20
3548.7500536
 30
0.0
 11
6221.0
 21
3553.7500536
 31
0.0
  0
LINE
  5
19C3
330
2
100
AcDbEntity
  8
YKK_B1
100
AcDbLine
 10
6221.0
 20
3553.7500536
 30
0.0
 11
6165.0
 21
3553.7500536
 31
0.0
  0
LINE
  5
19C4
330
2
100
AcDbEntity
  8
YKK_B1
100
AcDbLine
 10
6165.0
 20
3553.7500536
 30
0.0
 11
6165.0
 21
3537.75005372
 31
0.0
  0
LINE
  5
19C5
330
2
100
AcDbEntity
  8
YKK_B1
100
AcDbLine
 10
6198.0
 20
3460.2500536
 30
0.0
 11
6198.0
 21
3553.7500536
 31
0.0
  0
LINE
  5
19C6
330
2
100
AcDbEntity
  8
YKK_B1
100
AcDbLine
 10
6178.0
 20
3475.2500536
 30
0.0
 11
6198.0
 21
3475.2500536
 31
0.0
  0
LINE
  5
19C7
330
2
100
AcDbEntity
  8
YKK_B1
100
AcDbLine
 10
6178.0
 20
3475.2500536
 30
0.0
 11
6178.0
 21
3553.7500536
 31
0.0
  0
LINE
  5
19C8
330
2
100
AcDbEntity
  8
YKK_B1
100
AcDbLine
 10
6178.0
 20
3494.5500536
 30
0.0
 11
6198.0
 21
3494.5500536
 31
0.0
  0
LINE
  5
19C9
330
2
100
AcDbEntity
  8
YKK_B1
100
AcDbLine
 10
6185.8
 20
3494.5500536
 30
0.0
 11
6185.8
 21
3510.3500536
 31
0.0
  0
LINE
  5
19CA
330
2
100
AcDbEntity
  8
YKK_B1
100
AcDbLine
 10
6198.0
 20
3510.3500536
 30
0.0
 11
6178.0
 21
3510.3500536
 31
0.0
  0
LINE
  5
19CB
330
2
100
AcDbEntity
  8
YKK_B1
100
AcDbLine
 10
6122.00000047
 20
3445.75005372
 30
0.0
 11
6173.00000047
 21
3445.75005372
 31
0.0
  0
LINE
  5
19CC
330
2
100
AcDbEntity
  8
YKK_B1
100
AcDbLine
 10
6173.00000047
 20
3445.75005372
 30
0.0
 11
6173.00000047
 21
3537.75005372
 31
0.0
  0
LINE
  5
19CD
330
2
100
AcDbEntity
  8
YKK_B1
100
AcDbLine
 10
6173.00000047
 20
3537.75005372
 30
0.0
 11
6123.00000047
 21
3537.75005372
 31
0.0
  0
LINE
  5
19CE
330
2
100
AcDbEntity
  8
YKK_B1
100
AcDbLine
 10
6160.00000047
 20
3537.75005372
 30
0.0
 11
6160.00000047
 21
3554.75005372
 31
0.0
  0
LINE
  5
19CF
330
2
100
AcDbEntity
  8
YKK_B1
100
AcDbLine
 10
6160.00000047
 20
3554.75005372
 30
0.0
 11
6123.00000047
 21
3554.75005372
 31
0.0
  0
LINE
  5
19D0
330
2
100
AcDbEntity
  8
YKK_B1
100
AcDbLine
 10
6152.00000047
 20
3537.75005372
 30
0.0
 11
6152.00000047
 21
3445.75005362
 31
0.0
  0
LINE
  5
19D1
330
2
100
AcDbEntity
  8
YKK_B1
100
AcDbLine
 10
6191.5
 20
3474.4500536
 30
0.0
 11
6174.7
 21
3474.4500536
 31
0.0
  0
LINE
  5
19D2
330
2
100
AcDbEntity
  8
YKK_B1
100
AcDbLine
 10
6174.7
 20
3474.4500536
 30
0.0
 11
6174.7
 21
3415.7500536
 31
0.0
  0
LINE
  5
19D3
330
2
100
AcDbEntity
  8
YKK_B1
100
AcDbLine
 10
6174.7
 20
3415.7500536
 30
0.0
 11
6177.3
 21
3415.7500536
 31
0.0
  0
LINE
  5
19D4
330
2
100
AcDbEntity
  8
YKK_B1
100
AcDbLine
 10
6174.7
 20
3472.2500536
 30
0.0
 11
6173.0
 21
3472.2500536
 31
0.0
  0
LINE
  5
19D5
330
2
100
AcDbEntity
  8
YKK_B1
100
AcDbLine
 10
6174.7
 20
3445.7500536
 30
0.0
 11
6173.00000047
 21
3445.7500536
 31
0.0
  0
LINE
  5
19D6
330
2
100
AcDbEntity
  8
YKK_B1
100
AcDbLine
 10
6145.50000047
 20
3430.75005372
 30
0.0
 11
6143.00000047
 21
3430.75005372
 31
0.0
  0
LINE
  5
19D7
330
2
100
AcDbEntity
  8
YKK_B1
100
AcDbLine
 10
6143.00000047
 20
3430.75005372
 30
0.0
 11
6143.00000047
 21
3445.75005372
 31
0.0
  0
LINE
  5
19D8
330
2
100
AcDbEntity
  8
YKK_B1
100
AcDbLine
 10
6152.00000047
 20
3499.45005372
 30
0.0
 11
6122.00000047
 21
3499.45005372
 31
0.0
  0
LINE
  5
19D9
330
2
100
AcDbEntity
  8
YKK_B1
100
AcDbLine
 10
6122.00000047
 20
3499.45005372
 30
0.0
 11
6122.00000047
 21
3488.45005372
 31
0.0
  0
LINE
  5
19DA
330
2
100
AcDbEntity
  8
YKK_B1
100
AcDbLine
 10
6122.00000047
 20
3488.45005372
 30
0.0
 11
6152.00000047
 21
3488.45005372
 31
0.0
  0
LINE
  5
19DB
330
2
100
AcDbEntity
  8
YKK_B1
100
AcDbLine
 10
6205.5
 20
3408.75005362
 30
0.0
 11
6145.5
 21
3408.75005362
 31
0.0
  0
LINE
  5
19DC
330
2
100
AcDbEntity
  8
YKK_B1
100
AcDbLine
 10
6145.5
 20
3408.75005362
 30
0.0
 11
6145.5
 21
3445.75005362
 31
0.0
  0
LINE
  5
19DD
330
2
100
AcDbEntity
  8
YKK_B1
100
AcDbLine
 10
6130.99999953
 20
3486.45005372
 30
0.0
 11
6072.99999964
 21
3486.45005372
 31
0.0
  0
LINE
  5
19DE
330
2
100
AcDbEntity
  8
YKK_B1
100
AcDbLine
 10
6072.99999953
 20
3452.45005372
 30
0.0
 11
6130.99999953
 21
3452.45005372
 31
0.0
  0
LINE
  5
19DF
330
2
100
AcDbEntity
  8
YKK_B1
100
AcDbLine
 10
6110.99999953
 20
3486.45005372
 30
0.0
 11
6110.99999953
 21
3452.45005372
 31
0.0
  0
LINE
  5
19E0
330
2
100
AcDbEntity
  8
YKK_B1
100
AcDbLine
 10
6089.99999964
 20
3486.45005371
 30
0.0
 11
6089.99999964
 21
3452.45005372
 31
0.0
  0
LINE
  5
19E1
330
2
100
AcDbEntity
  8
YKK_B1
100
AcDbLine
 10
4569.99999952
 20
3529.45005371
 30
0.0
 11
5321.99999952
 21
3529.45005371
 31
0.0
  0
LINE
  5
19E2
330
2
100
AcDbEntity
  8
YKK_B1
100
AcDbLine
 10
5321.99999952
 20
3507.45005371
 30
0.0
 11
4569.99999952
 21
3507.45005371
 31
0.0
  0
LINE
  5
19E3
330
2
100
AcDbEntity
  8
YKK_B1
100
AcDbLine
 10
5333.99999952
 20
3480.45005371
 30
0.0
 11
6085.99999952
 21
3480.45005371
 31
0.0
  0
LINE
  5
19E4
330
2
100
AcDbEntity
  8
YKK_B1
100
AcDbLine
 10
6085.99999952
 20
3458.45005371
 30
0.0
 11
5333.99999952
 21
3458.45005371
 31
0.0
  0
LINE
  5
19E5
330
2
100
AcDbEntity
  8
YKK_B1
100
AcDbLine
 10
4542.99999951
 20
3554.75005371
 30
0.0
 11
6113.00000047
 21
3554.75005371
 31
0.0
  0
LINE
  5
19E6
330
2
100
AcDbEntity
  8
YKK_B1
100
AcDbLine
 10
6135.5
 20
3408.75005362
 30
0.0
 11
4520.49999998
 21
3408.75005362
 31
0.0
  0
TEXT
  5
19E7
330
2
100
AcDbEntity
  8
YKK_N1
  6
Continuous
100
AcDbText
 10
5165.50033367
 20
2927.7501202
 30
0.0
 40
40.0
  1
新設窓W=1690
  7
MX_NOTE_STANDARD
 11
5165.50033367
 21
2947.7501202
 31
0.0
100
AcDbText
 73
     2
  0
TEXT
  5
19E8
330
2
100
AcDbEntity
  8
YKK_N1
  6
Continuous
100
AcDbText
 10
6222.99999999
 20
2917.7501232
 30
0.0
 40
60.0
  1
25
  7
MX_NOTE_STANDARD
100
AcDbText
  0
LINE
  5
19E9
330
2
100
AcDbEntity
  8
YKK_N1
  6
Continuous
100
AcDbLine
 10
6197.99999999
 20
3230.7501202
 30
0.0
 11
6197.99999999
 21
2705.7501202
 31
0.0
  0
LINE
  5
19EA
330
2
100
AcDbEntity
  8
YKK_N1
  6
Continuous
100
AcDbLine
 10
6172.99999999
 20
3230.7501202
 30
0.0
 11
6172.99999999
 21
2905.7501202
 31
0.0
  0
LINE
  5
19EB
330
2
100
AcDbEntity
  8
YKK_N1
  6
Continuous
100
AcDbLine
 10
6172.99999999
 20
2905.7501202
 30
0.0
 11
6197.99999999
 21
2905.7501202
 31
0.0
  0
CIRCLE
  5
19EC
330
2
100
AcDbEntity
  8
YKK_N1
  6
Continuous
100
AcDbCircle
 10
6197.99999999
 20
2905.7501202
 30
0.0
 40
5.0
  0
LINE
  5
19ED
330
2
100
AcDbEntity
  8
YKK_N1
  6
Continuous
100
AcDbLine
 10
6172.99999999
 20
3105.7501202
 30
0.0
 11
6142.99999999
 21
3105.7501202
 31
0.0
  0
LINE
  5
19EE
330
2
100
AcDbEntity
  8
YKK_N1
  6
Continuous
100
AcDbLine
 10
6142.99999999
 20
3230.7501202
 30
0.0
 11
6142.99999999
 21
3105.7501202
 31
0.0
  0
CIRCLE
  5
19EF
330
2
100
AcDbEntity
  8
YKK_N1
  6
Continuous
100
AcDbCircle
 10
6142.99999999
 20
3105.7501202
 30
0.0
 40
5.0
  0
CIRCLE
  5
19F0
330
2
100
AcDbEntity
  8
YKK_N1
  6
Continuous
100
AcDbCircle
 10
6172.99999999
 20
3105.7501202
 30
0.0
 40
5.0
  0
LINE
  5
19F1
330
2
100
AcDbEntity
  8
YKK_N1
  6
Continuous
100
AcDbLine
 10
6086.39745999
 20
2955.7501202
 30
0.0
 11
6086.39745999
 21
2855.7501202
 31
0.0
  0
LINE
  5
19F2
330
2
100
AcDbEntity
  8
YKK_N1
  6
Continuous
100
AcDbLine
 10
6086.39745999
 20
2955.7501202
 30
0.0
 11
6172.99999999
 21
2905.7501202
 31
0.0
  0
LINE
  5
19F3
330
2
100
AcDbEntity
  8
YKK_N1
  6
Continuous
100
AcDbLine
 10
6172.99999999
 20
2905.7501202
 30
0.0
 11
6086.39745999
 21
2855.7501202
 31
0.0
  0
TEXT
  5
19F4
330
2
100
AcDbEntity
  8
YKK_N1
  6
Continuous
100
AcDbText
 10
6023.15047787
 20
3118.53336854
 30
0.0
 40
60.0
  1
30
  7
MX_NOTE_STANDARD
 11
6023.15047787
 21
3148.53336854
 31
0.0
100
AcDbText
 73
     2
  0
LINE
  5
19F5
330
2
100
AcDbEntity
  8
YKK_N1
  6
Continuous
100
AcDbLine
 10
4569.60253999
 20
2955.7501202
 30
0.0
 11
4482.99999999
 21
2905.7501202
 31
0.0
  0
LINE
  5
19F6
330
2
100
AcDbEntity
  8
YKK_N1
  6
Continuous
100
AcDbLine
 10
4482.99999999
 20
2905.7501202
 30
0.0
 11
4569.60253999
 21
2855.7501202
 31
0.0
  0
TEXT
  5
19F7
330
2
100
AcDbEntity
  8
YKK_N1
  6
Continuous
100
AcDbText
 10
4527.41851112
 20
3118.53336854
 30
0.0
 40
60.0
  1
30
  7
MX_NOTE_STANDARD
 11
4527.41851112
 21
3148.53336854
 31
0.0
100
AcDbText
 73
     2
  0
CIRCLE
  5
19F8
330
2
100
AcDbEntity
  8
YKK_N1
  6
Continuous
100
AcDbCircle
 10
4457.99999999
 20
2905.7501202
 30
0.0
 40
5.0
  0
LINE
  5
19F9
330
2
100
AcDbEntity
  8
YKK_N1
  6
Continuous
100
AcDbLine
 10
4457.99999999
 20
2905.7501202
 30
0.0
 11
4482.99999999
 21
2905.7501202
 31
0.0
  0
CIRCLE
  5
19FA
330
2
100
AcDbEntity
  8
YKK_N1
  6
Continuous
100
AcDbCircle
 10
4512.99999999
 20
3105.7501202
 30
0.0
 40
5.0
  0
CIRCLE
  5
19FB
330
2
100
AcDbEntity
  8
YKK_N1
  6
Continuous
100
AcDbCircle
 10
4482.99999999
 20
3105.7501202
 30
0.0
 40
5.0
  0
LINE
  5
19FC
330
2
100
AcDbEntity
  8
YKK_N1
  6
Continuous
100
AcDbLine
 10
4482.99999999
 20
3105.7501202
 30
0.0
 11
4512.99999999
 21
3105.7501202
 31
0.0
  0
LINE
  5
19FD
330
2
100
AcDbEntity
  8
YKK_N1
  6
Continuous
100
AcDbLine
 10
4569.60253999
 20
2955.7501202
 30
0.0
 11
4569.60253999
 21
2855.7501202
 31
0.0
  0
TEXT
  5
19FE
330
2
100
AcDbEntity
  8
YKK_N1
  6
Continuous
100
AcDbText
 10
4332.99999999
 20
2917.7501232
 30
0.0
 40
60.0
  1
25
  7
MX_NOTE_STANDARD
100
AcDbText
  0
LINE
  5
19FF
330
2
100
AcDbEntity
  8
YKK_N1
  6
Continuous
100
AcDbLine
 10
6172.99999999
 20
2905.7501202
 30
0.0
 11
4482.99999999
 21
2905.7501202
 31
0.0
  0
LINE
  5
1A00
330
2
100
AcDbEntity
  8
YKK_N1
  6
Continuous
100
AcDbLine
 10
4512.99999999
 20
3230.7501202
 30
0.0
 11
4512.99999999
 21
3105.7501202
 31
0.0
  0
LINE
  5
1A01
330
2
100
AcDbEntity
  8
YKK_N1
  6
Continuous
100
AcDbLine
 10
4482.99999999
 20
3230.7501202
 30
0.0
 11
4482.99999999
 21
2905.7501202
 31
0.0
  0
LINE
  5
1A02
330
2
100
AcDbEntity
  8
YKK_N1
  6
Continuous
100
AcDbLine
 10
4457.99999999
 20
3230.7501202
 30
0.0
 11
4457.99999999
 21
2705.7501202
 31
0.0
  0
LINE
  5
1A03
330
2
100
AcDbEntity
  8
YKK_N1
  6
Continuous
100
AcDbLine
 10
6197.99999999
 20
2705.7501202
 30
0.0
 11
4457.99999999
 21
2705.7501202
 31
0.0
  0
LINE
  5
1A04
330
2
100
AcDbEntity
  8
YKK_N1
  6
Continuous
100
AcDbLine
 10
6202.99999999
 20
2505.7501202
 30
0.0
 11
4452.99999999
 21
2505.7501202
 31
0.0
  0
LINE
  5
1A05
330
2
100
AcDbEntity
  8
YKK_N1
  6
Continuous
100
AcDbLine
 10
4452.99999999
 20
3230.7501202
 30
0.0
 11
4452.99999999
 21
2505.7501202
 31
0.0
  0
LINE
  5
1A06
330
2
100
AcDbEntity
  8
YKK_N1
  6
Continuous
100
AcDbLine
 10
6202.99999999
 20
3230.7501202
 30
0.0
 11
6202.99999999
 21
2505.7501202
 31
0.0
  0
LINE
  5
1A07
330
2
100
AcDbEntity
  8
YKK_N1
100
AcDbLine
 10
4457.99999999
 20
2705.7501202
 30
0.0
 11
4452.99999999
 21
2705.7501202
 31
0.0
  0
LINE
  5
1A08
330
2
100
AcDbEntity
  8
YKK_N1
100
AcDbLine
 10
6197.99999999
 20
2705.7501202
 30
0.0
 11
6202.99999999
 21
2705.7501202
 31
0.0
  0
LINE
  5
1A09
330
2
100
AcDbEntity
  8
YKK_N1
  6
Continuous
100
AcDbLine
 10
4544.60253999
 20
2755.7501202
 30
0.0
 11
4457.99999999
 21
2705.7501202
 31
0.0
  0
LINE
  5
1A0A
330
2
100
AcDbEntity
  8
YKK_N1
  6
Continuous
100
AcDbLine
 10
4457.99999999
 20
2705.7501202
 30
0.0
 11
4544.60253999
 21
2655.7501202
 31
0.0
  0
LINE
  5
1A0B
330
2
100
AcDbEntity
  8
YKK_N1
  6
Continuous
100
AcDbLine
 10
4544.60253999
 20
2755.7501202
 30
0.0
 11
4544.60253999
 21
2655.7501202
 31
0.0
  0
LINE
  5
1A0C
330
2
100
AcDbEntity
  8
YKK_N1
  6
Continuous
100
AcDbLine
 10
4539.60253999
 20
2555.7501202
 30
0.0
 11
4452.99999999
 21
2505.7501202
 31
0.0
  0
LINE
  5
1A0D
330
2
100
AcDbEntity
  8
YKK_N1
  6
Continuous
100
AcDbLine
 10
4452.99999999
 20
2505.7501202
 30
0.0
 11
4539.60253999
 21
2455.7501202
 31
0.0
  0
LINE
  5
1A0E
330
2
100
AcDbEntity
  8
YKK_N1
  6
Continuous
100
AcDbLine
 10
4539.60253999
 20
2555.7501202
 30
0.0
 11
4539.60253999
 21
2455.7501202
 31
0.0
  0
LINE
  5
1A0F
330
2
100
AcDbEntity
  8
YKK_N1
  6
Continuous
100
AcDbLine
 10
6111.39745999
 20
2755.7501202
 30
0.0
 11
6111.39745999
 21
2655.7501202
 31
0.0
  0
LINE
  5
1A10
330
2
100
AcDbEntity
  8
YKK_N1
  6
Continuous
100
AcDbLine
 10
6111.39745999
 20
2755.7501202
 30
0.0
 11
6197.99999999
 21
2705.7501202
 31
0.0
  0
LINE
  5
1A11
330
2
100
AcDbEntity
  8
YKK_N1
  6
Continuous
100
AcDbLine
 10
6197.99999999
 20
2705.7501202
 30
0.0
 11
6111.39745999
 21
2655.7501202
 31
0.0
  0
LINE
  5
1A12
330
2
100
AcDbEntity
  8
YKK_N1
  6
Continuous
100
AcDbLine
 10
6116.39745999
 20
2555.7501202
 30
0.0
 11
6116.39745999
 21
2455.7501202
 31
0.0
  0
LINE
  5
1A13
330
2
100
AcDbEntity
  8
YKK_N1
  6
Continuous
100
AcDbLine
 10
6116.39745999
 20
2555.7501202
 30
0.0
 11
6202.99999999
 21
2505.7501202
 31
0.0
  0
LINE
  5
1A14
330
2
100
AcDbEntity
  8
YKK_N1
  6
Continuous
100
AcDbLine
 10
6202.99999999
 20
2505.7501202
 30
0.0
 11
6116.39745999
 21
2455.7501202
 31
0.0
  0
CIRCLE
  5
1A15
330
2
100
AcDbEntity
  8
YKK_N1
  6
Continuous
100
AcDbCircle
 10
4452.99999999
 20
2705.7501202
 30
0.0
 40
5.0
  0
CIRCLE
  5
1A16
330
2
100
AcDbEntity
  8
YKK_N1
  6
Continuous
100
AcDbCircle
 10
6202.99999999
 20
2705.7501202
 30
0.0
 40
5.0
  0
TEXT
  5
1A17
330
2
100
AcDbEntity
  8
YKK_N1
  6
Continuous
100
AcDbText
 10
5002.00998875
 20
2727.7501202
 30
0.0
 40
40.0
  1
ジョイント枠出来幅JW=1740
  7
MX_NOTE_STANDARD
 11
5002.00998875
 21
2747.7501202
 31
0.0
100
AcDbText
 73
     2
  0
TEXT
  5
1A18
330
2
100
AcDbEntity
  8
YKK_N1
  6
Continuous
100
AcDbText
 10
5044.96975992
 20
2527.7501202
 30
0.0
 40
40.0
  1
既設窓枠開口幅KW=1750
  7
MX_NOTE_STANDARD
 11
5044.96975992
 21
2547.7501202
 31
0.0
100
AcDbText
 73
     2
  0
TEXT
  5
1A19
330
2
100
AcDbEntity
  8
YKK_N1
  6
Continuous
100
AcDbText
 10
6237.59262611
 20
2717.7501232
 30
0.0
 40
60.0
  1
5
  7
MX_NOTE_STANDARD
100
AcDbText
  0
TEXT
  5
1A1A
330
2
100
AcDbEntity
  8
YKK_N1
  6
Continuous
100
AcDbText
 10
4381.89804053
 20
2717.7501232
 30
0.0
 40
60.0
  1
5
  7
MX_NOTE_STANDARD
100
AcDbText
  0
TEXT
  5
1A1B
330
2
100
AcDbEntity
  8
YKK_N1
  6
Continuous
100
AcDbText
 10
6548.99999999
 20
3452.70428071
 30
0.0
 40
60.0
  1
92
 50
90.0
  7
MX_NOTE_STANDARD
 11
6518.99999999
 21
3452.70428071
 31
0.0
100
AcDbText
 73
     2
  0
TEXT
  5
1A1C
330
2
100
AcDbEntity
  8
YKK_N1
  6
Continuous
100
AcDbText
 10
6464.99999999
 20
3315.65942112
 30
0.0
 40
60.0
  1
15
 50
90.0
  7
MX_NOTE_STANDARD
 11
6434.99999999
 21
3315.65942112
 31
0.0
100
AcDbText
 73
     2
  0
LINE
  5
1A1D
330
2
100
AcDbEntity
  8
YKK_N1
  6
Continuous
100
AcDbLine
 10
6476.99999999
 20
3554.75005371
 30
0.0
 11
6476.99999999
 21
3537.75005371
 31
0.0
  0
CIRCLE
  5
1A1E
330
2
100
AcDbEntity
  8
YKK_N1
  6
Continuous
100
AcDbCircle
 10
6477.10624999
 20
3554.75005371
 30
0.0
 40
5.0
  0
LINE
  5
1A1F
330
2
100
AcDbEntity
  8
YKK_N1
  6
Continuous
100
AcDbLine
 10
6476.99999999
 20
3445.75005371
 30
0.0
 11
6476.99999999
 21
3537.75005371
 31
0.0
  0
CIRCLE
  5
1A20
330
2
100
AcDbEntity
  8
YKK_N1
  6
Continuous
100
AcDbCircle
 10
6476.99999999
 20
3537.75005371
 30
0.0
 40
5.0
  0
LINE
  5
1A21
330
2
100
AcDbEntity
  8
YKK_N1
  6
Continuous
100
AcDbLine
 10
6476.99999999
 20
3430.75005371
 30
0.0
 11
6476.99999999
 21
3445.75005371
 31
0.0
  0
CIRCLE
  5
1A22
330
2
100
AcDbEntity
  8
YKK_N1
  6
Continuous
100
AcDbCircle
 10
6476.99999999
 20
3445.75005371
 30
0.0
 40
5.0
  0
CIRCLE
  5
1A23
330
2
100
AcDbEntity
  8
YKK_N1
  6
Continuous
100
AcDbCircle
 10
6476.99999999
 20
3430.75005371
 30
0.0
 40
5.0
  0
LINE
  5
1A24
330
2
100
AcDbEntity
  8
YKK_N1
  6
Continuous
100
AcDbLine
 10
6351.99999999
 20
3554.75005371
 30
0.0
 11
6476.99999999
 21
3554.75005371
 31
0.0
  0
LINE
  5
1A25
330
2
100
AcDbEntity
  8
YKK_N1
  6
Continuous
100
AcDbLine
 10
6351.99999999
 20
3445.75005371
 30
0.0
 11
6476.99999999
 21
3445.75005371
 31
0.0
  0
LINE
  5
1A26
330
2
100
AcDbEntity
  8
YKK_N1
  6
Continuous
100
AcDbLine
 10
6476.99999999
 20
3430.75005371
 30
0.0
 11
6351.99999999
 21
3430.75005371
 31
0.0
  0
LINE
  5
1A27
330
2
100
AcDbEntity
  8
YKK_N1
  6
Continuous
100
AcDbLine
 10
6351.99999999
 20
3537.75005371
 30
0.0
 11
6476.99999999
 21
3537.75005371
 31
0.0
  0
TEXT
  5
1A28
330
2
100
AcDbEntity
  8
YKK_N1
  6
Continuous
100
AcDbText
 10
6464.99999999
 20
3582.80819898
 30
0.0
 40
60.0
  1
17
 50
90.0
  7
MX_NOTE_STANDARD
 11
6434.99999999
 21
3582.80819898
 31
0.0
100
AcDbText
 73
     2
  0
TEXT
  5
1A29
330
2
100
AcDbEntity
  8
YKK_N1
  6
Continuous
100
AcDbText
 10
5728.85129533
 20
3554.75005371
 30
0.0
 40
60.0
  1
109
 50
90.0
  7
MX_NOTE_STANDARD
 11
5698.85129533
 21
3554.75005371
 31
0.0
100
AcDbText
 73
     2
  0
CIRCLE
  5
1A2A
330
2
100
AcDbEntity
  8
YKK_N1
  6
Continuous
100
AcDbCircle
 10
5740.95754533
 20
3445.75006571
 30
0.0
 40
5.0
  0
CIRCLE
  5
1A2B
330
2
100
AcDbEntity
  8
YKK_N1
  6
Continuous
100
AcDbCircle
 10
5740.85129533
 20
3554.75005371
 30
0.0
 40
5.0
  0
LINE
  5
1A2C
330
2
100
AcDbEntity
  8
YKK_N1
  6
Continuous
100
AcDbLine
 10
5740.95754533
 20
3554.75005371
 30
0.0
 11
5740.95754533
 21
3445.75006571
 31
0.0
  0
LINE
  5
1A2D
330
2
100
AcDbEntity
  8
YKK_N1
  6
Continuous
100
AcDbLine
 10
5865.95754533
 20
3445.75006571
 30
0.0
 11
5740.95754533
 21
3445.75006571
 31
0.0
  0
LINE
  5
1A2E
330
2
100
AcDbEntity
  8
YKK_N1
  6
Continuous
100
AcDbLine
 10
5865.95754533
 20
3554.75005371
 30
0.0
 11
5740.95754533
 21
3554.75005371
 31
0.0
  0
CIRCLE
  5
1A2F
330
2
100
AcDbEntity
  8
YKK_N1
  6
Continuous
100
AcDbCircle
 10
5740.95754533
 20
3430.75006571
 30
0.0
 40
5.0
  0
LINE
  5
1A30
330
2
100
AcDbEntity
  8
YKK_N1
  6
Continuous
100
AcDbLine
 10
5865.95754533
 20
3430.75006571
 30
0.0
 11
5740.95754533
 21
3430.75006571
 31
0.0
  0
LINE
  5
1A31
330
2
100
AcDbEntity
  8
YKK_N1
100
AcDbLine
 10
5740.95754533
 20
3445.75006571
 30
0.0
 11
5740.95754533
 21
3430.75006571
 31
0.0
  0
TEXT
  5
1A32
330
2
100
AcDbEntity
  8
YKK_N1
  6
Continuous
100
AcDbText
 10
5728.85129533
 20
3352.82309853
 30
0.0
 40
60.0
  1
15
 50
90.0
  7
MX_NOTE_STANDARD
 11
5698.85129533
 21
3352.82309853
 31
0.0
100
AcDbText
 73
     2
  0
LINE
  5
1A33
330
2
100
AcDbEntity
  8
YKK_C1E
100
AcDbLine
 10
8149.0
 20
6708.75012021
 30
0.0
 11
8149.0
 21
6678.75012021
 31
0.0
  0
LINE
  5
1A34
330
2
100
AcDbEntity
  8
YKK_C1E
100
AcDbLine
 10
8149.0
 20
6678.75012021
 30
0.0
 11
8164.0
 21
6678.75012021
 31
0.0
  0
LINE
  5
1A35
330
2
100
AcDbEntity
  8
YKK_C1E
100
AcDbLine
 10
8164.0
 20
6678.75012021
 30
0.0
 11
8164.0
 21
6681.25012021
 31
0.0
  0
LINE
  5
1A36
330
2
100
AcDbEntity
  8
YKK_C1E
100
AcDbLine
 10
8094.4
 20
6697.95012021
 30
0.0
 11
8149.0
 21
6697.95012021
 31
0.0
  0
LINE
  5
1A37
330
2
100
AcDbEntity
  8
YKK_C1E
100
AcDbLine
 10
8122.0
 20
6733.75012021
 30
0.0
 11
8122.0
 21
6708.75012021
 31
0.0
  0
LINE
  5
1A38
330
2
100
AcDbEntity
  8
YKK_C1E
100
AcDbLine
 10
8078.0
 20
6678.75012037
 30
0.0
 11
8078.0
 21
6707.25012075
 31
0.0
  0
LINE
  5
1A39
330
2
100
AcDbEntity
  8
YKK_C1E
100
AcDbLine
 10
8078.0
 20
6707.25012075
 30
0.0
 11
8106.62170234
 21
6708.75012021
 31
0.0
  0
LINE
  5
1A3A
330
2
100
AcDbEntity
  8
YKK_C1E
100
AcDbLine
 10
8106.62170234
 20
6708.75012021
 30
0.0
 11
8122.0
 21
6708.75012021
 31
0.0
  0
LINE
  5
1A3B
330
2
100
AcDbEntity
  8
YKK_C1E
100
AcDbLine
 10
8094.4
 20
6697.95012021
 30
0.0
 11
8094.4
 21
6708.10960759
 31
0.0
  0
LINE
  5
1A3C
330
2
100
AcDbEntity
  8
YKK_C1E
100
AcDbLine
 10
8133.5
 20
6708.75005621
 30
0.0
 11
8133.5
 21
6675.75012021
 31
0.0
  0
LINE
  5
1A3D
330
2
100
AcDbEntity
  8
YKK_C1E
100
AcDbLine
 10
8098.5
 20
6675.75012021
 30
0.0
 11
8098.5
 21
6697.95012021
 31
0.0
  0
LINE
  5
1A3E
330
2
100
AcDbEntity
  8
YKK_C1E
100
AcDbLine
 10
8148.99999991
 20
5431.25012021
 30
0.0
 11
8148.99999991
 21
5471.25012021
 31
0.0
  0
LINE
  5
1A3F
330
2
100
AcDbEntity
  8
YKK_C1E
100
AcDbLine
 10
8148.99999991
 20
5471.25012021
 30
0.0
 11
8163.99999991
 21
5471.25012021
 31
0.0
  0
LINE
  5
1A40
330
2
100
AcDbEntity
  8
YKK_C1E
100
AcDbLine
 10
8163.99999991
 20
5472.25012021
 30
0.0
 11
8163.99999991
 21
5468.75012021
 31
0.0
  0
LINE
  5
1A41
330
2
100
AcDbEntity
  8
YKK_C1E
100
AcDbLine
 10
8121.99999991
 20
5399.25012021
 30
0.0
 11
8121.99999991
 21
5431.25012021
 31
0.0
  0
LINE
  5
1A42
330
2
100
AcDbEntity
  8
YKK_C1E
100
AcDbLine
 10
8148.99999991
 20
5431.25012021
 30
0.0
 11
8121.99999991
 21
5431.25012021
 31
0.0
  0
LINE
  5
1A43
330
2
100
AcDbEntity
  8
YKK_C1E
100
AcDbLine
 10
8077.99999991
 20
5434.75012005
 30
0.0
 11
8077.99999991
 21
5414.25012021
 31
0.0
  0
LINE
  5
1A44
330
2
100
AcDbEntity
  8
YKK_C1E
100
AcDbLine
 10
8077.99999991
 20
5428.25012061
 30
0.0
 11
8096.79999991
 21
5428.25012061
 31
0.0
  0
LINE
  5
1A45
330
2
100
AcDbEntity
  8
YKK_C1E
100
AcDbLine
 10
8096.79999991
 20
5446.25012051
 30
0.0
 11
8096.79999991
 21
5428.25012061
 31
0.0
  0
LINE
  5
1A46
330
2
100
AcDbEntity
  8
YKK_C1E
100
AcDbLine
 10
8077.99999991
 20
5419.25012021
 30
0.0
 11
8121.99999991
 21
5419.25012021
 31
0.0
  0
LINE
  5
1A47
330
2
100
AcDbEntity
  8
YKK_C1E
100
AcDbLine
 10
8131.79999991
 20
5453.25012021
 30
0.0
 11
8131.79999991
 21
5431.25012021
 31
0.0
  0
LINE
  5
1A48
330
2
100
AcDbEntity
  8
YKK_C1E
100
AcDbLine
 10
8096.79999991
 20
5435.2501203
 30
0.0
 11
8131.79999991
 21
5435.2501203
 31
0.0
  0
LINE
  5
1A49
330
2
100
AcDbEntity
  8
YKK_C1E
100
AcDbLine
 10
8131.79999991
 20
5453.25012021
 30
0.0
 11
8148.99999991
 21
5453.25012021
 31
0.0
  0
LINE
  5
1A4A
330
2
100
AcDbEntity
  8
YKK_C1E
100
AcDbLine
 10
8133.49999984
 20
5464.25011966
 30
0.0
 11
8133.49999984
 21
5453.25012021
 31
0.0
  0
LINE
  5
1A4B
330
2
100
AcDbEntity
  8
YKK_B1E
100
AcDbLine
 10
4450.49999999
 20
3462.75005361
 30
0.0
 11
4452.99999999
 21
3462.75005361
 31
0.0
  0
LINE
  5
1A4C
330
2
100
AcDbEntity
  8
YKK_B1E
100
AcDbLine
 10
4452.99999999
 20
3462.75005361
 30
0.0
 11
4452.99999999
 21
3477.75005361
 31
0.0
  0
LINE
  5
1A4D
330
2
100
AcDbEntity
  8
YKK_B1E
100
AcDbLine
 10
4452.99999999
 20
3477.75005361
 30
0.0
 11
4432.99999999
 21
3477.75005361
 31
0.0
  0
LINE
  5
1A4E
330
2
100
AcDbEntity
  8
YKK_B1E
100
AcDbLine
 10
4432.99999999
 20
3477.75005361
 30
0.0
 11
4432.99999999
 21
3479.75005361
 31
0.0
  0
LINE
  5
1A4F
330
2
100
AcDbEntity
  8
YKK_B1E
100
AcDbLine
 10
4441.99999999
 20
3477.75005361
 30
0.0
 11
4441.99999999
 21
3548.75005361
 31
0.0
  0
LINE
  5
1A50
330
2
100
AcDbEntity
  8
YKK_B1E
100
AcDbLine
 10
4452.99999983
 20
3548.75005361
 30
0.0
 11
4437.99999999
 21
3548.75005361
 31
0.0
  0
LINE
  5
1A51
330
2
100
AcDbEntity
  8
YKK_B1E
100
AcDbLine
 10
4437.99999999
 20
3548.75005361
 30
0.0
 11
4437.99999999
 21
3545.75005361
 31
0.0
  0
LINE
  5
1A52
330
2
100
AcDbEntity
  8
YKK_B1E
100
AcDbLine
 10
4452.99998499
 20
3529.95005361
 30
0.0
 11
4441.99999999
 21
3529.95005361
 31
0.0
  0
LINE
  5
1A53
330
2
100
AcDbEntity
  8
YKK_B1E
100
AcDbLine
 10
4448.99999943
 20
3510.05005361
 30
0.0
 11
4441.99999999
 21
3510.05005361
 31
0.0
  0
LINE
  5
1A54
330
2
100
AcDbEntity
  8
YKK_B1E
100
AcDbLine
 10
4405.99999999
 20
3504.75005361
 30
0.0
 11
4441.99999999
 21
3504.75005361
 31
0.0
  0
LINE
  5
1A55
330
2
100
AcDbEntity
  8
YKK_B1E
100
AcDbLine
 10
4432.99999999
 20
3501.75005361
 30
0.0
 11
4432.99999999
 21
3504.75005361
 31
0.0
  0
LINE
  5
1A56
330
2
100
AcDbEntity
  8
YKK_B1E
100
AcDbLine
 10
6205.49999275
 20
3462.75005353
 30
0.0
 11
6202.99999275
 21
3462.75005353
 31
0.0
  0
LINE
  5
1A57
330
2
100
AcDbEntity
  8
YKK_B1E
100
AcDbLine
 10
6202.99999275
 20
3462.75005353
 30
0.0
 11
6202.99999275
 21
3477.75005353
 31
0.0
  0
LINE
  5
1A58
330
2
100
AcDbEntity
  8
YKK_B1E
100
AcDbLine
 10
6202.99999275
 20
3477.75005353
 30
0.0
 11
6222.99999275
 21
3477.75005353
 31
0.0
  0
LINE
  5
1A59
330
2
100
AcDbEntity
  8
YKK_B1E
100
AcDbLine
 10
6222.99999275
 20
3477.75005353
 30
0.0
 11
6222.99999275
 21
3479.75005353
 31
0.0
  0
LINE
  5
1A5A
330
2
100
AcDbEntity
  8
YKK_B1E
100
AcDbLine
 10
6213.99999275
 20
3477.75005353
 30
0.0
 11
6213.99999275
 21
3548.75005353
 31
0.0
  0
LINE
  5
1A5B
330
2
100
AcDbEntity
  8
YKK_B1E
100
AcDbLine
 10
6202.99999291
 20
3548.75005353
 30
0.0
 11
6217.99999275
 21
3548.75005353
 31
0.0
  0
LINE
  5
1A5C
330
2
100
AcDbEntity
  8
YKK_B1E
100
AcDbLine
 10
6217.99999275
 20
3548.75005353
 30
0.0
 11
6217.99999275
 21
3545.75005353
 31
0.0
  0
LINE
  5
1A5D
330
2
100
AcDbEntity
  8
YKK_B1E
100
AcDbLine
 10
6202.99997775
 20
3492.25007953
 30
0.0
 11
6213.99996275
 21
3492.25007953
 31
0.0
  0
LINE
  5
1A5E
330
2
100
AcDbEntity
  8
YKK_B1E
100
AcDbLine
 10
6206.99999331
 20
3510.05005353
 30
0.0
 11
6213.99999275
 21
3510.05005353
 31
0.0
  0
LINE
  5
1A5F
330
2
100
AcDbEntity
  8
YKK_B1E
100
AcDbLine
 10
6249.99999275
 20
3504.75005353
 30
0.0
 11
6213.99999275
 21
3504.75005353
 31
0.0
  0
LINE
  5
1A60
330
2
100
AcDbEntity
  8
YKK_B1E
100
AcDbLine
 10
6222.99999275
 20
3501.75005353
 30
0.0
 11
6222.99999275
 21
3504.75005353
 31
0.0
  0
LINE
  5
1A61
330
2
100
AcDbEntity
  8
YKK_B1
100
AcDbLine
 10
4450.49999956
 20
3321.72836019
 30
0.0
 11
4415.49999666
 21
3321.72836019
 31
0.0
  0
LINE
  5
1A62
330
2
100
AcDbEntity
  8
YKK_B1
100
AcDbLine
 10
4450.49999956
 20
3476.75005395
 30
0.0
 11
4450.49999956
 21
3321.72836019
 31
0.0
  0
LINE
  5
1A63
330
2
100
AcDbEntity
  8
YKK_B1
100
AcDbLine
 10
4450.49999956
 20
3476.75005395
 30
0.0
 11
4442.49999956
 21
3476.75005395
 31
0.0
  0
LINE
  5
1A64
330
2
100
AcDbEntity
  8
YKK_B1
100
AcDbLine
 10
4442.49999956
 20
3476.75005395
 30
0.0
 11
4442.49999956
 21
3334.75051626
 31
0.0
  0
LINE
  5
1A65
330
2
100
AcDbEntity
  8
YKK_B1
100
AcDbLine
 10
4415.49999666
 20
3321.72836019
 30
0.0
 11
4415.49999666
 21
3334.75051626
 31
0.0
  0
LINE
  5
1A66
330
2
100
AcDbEntity
  8
YKK_B1
100
AcDbLine
 10
4415.49999666
 20
3334.75051626
 30
0.0
 11
4450.49999956
 21
3334.75051626
 31
0.0
  0
LINE
  5
1A67
330
2
100
AcDbEntity
  8
YKK_B1
100
AcDbLine
 10
6205.49999999
 20
3321.72836022
 30
0.0
 11
6240.50000289
 21
3321.72836022
 31
0.0
  0
LINE
  5
1A68
330
2
100
AcDbEntity
  8
YKK_B1
100
AcDbLine
 10
6205.49999999
 20
3476.75005397
 30
0.0
 11
6205.49999999
 21
3321.72836022
 31
0.0
  0
LINE
  5
1A69
330
2
100
AcDbEntity
  8
YKK_B1
100
AcDbLine
 10
6205.49999999
 20
3476.75005397
 30
0.0
 11
6213.49999999
 21
3476.75005397
 31
0.0
  0
LINE
  5
1A6A
330
2
100
AcDbEntity
  8
YKK_B1
100
AcDbLine
 10
6213.49999999
 20
3476.75005397
 30
0.0
 11
6213.49999999
 21
3334.75051628
 31
0.0
  0
LINE
  5
1A6B
330
2
100
AcDbEntity
  8
YKK_B1
100
AcDbLine
 10
6240.50000289
 20
3321.72836022
 30
0.0
 11
6240.50000289
 21
3334.75051628
 31
0.0
  0
LINE
  5
1A6C
330
2
100
AcDbEntity
  8
YKK_B1
100
AcDbLine
 10
6240.50000289
 20
3334.75051628
 30
0.0
 11
6205.49999999
 21
3334.75051628
 31
0.0
  0
LINE
  5
1A6D
330
2
100
AcDbEntity
  8
YKK_C1
100
AcDbLine
 10
8302.51079266
 20
5468.7497651
 30
0.0
 11
8302.51079266
 21
5433.7497622
 31
0.0
  0
LINE
  5
1A6E
330
2
100
AcDbEntity
  8
YKK_C1
100
AcDbLine
 10
8149.99999891
 20
5468.7497651
 30
0.0
 11
8302.51079266
 21
5468.7497651
 31
0.0
  0
LINE
  5
1A6F
330
2
100
AcDbEntity
  8
YKK_C1
100
AcDbLine
 10
8149.99999891
 20
5468.7497651
 30
0.0
 11
8149.99999891
 21
5460.7497651
 31
0.0
  0
LINE
  5
1A70
330
2
100
AcDbEntity
  8
YKK_C1
100
AcDbLine
 10
8149.99999891
 20
5460.7497651
 30
0.0
 11
8291.9995366
 21
5460.7497651
 31
0.0
  0
LINE
  5
1A71
330
2
100
AcDbEntity
  8
YKK_C1
100
AcDbLine
 10
8302.51079266
 20
5433.7497622
 30
0.0
 11
8291.9995366
 21
5433.7497622
 31
0.0
  0
LINE
  5
1A72
330
2
100
AcDbEntity
  8
YKK_C1
100
AcDbLine
 10
8291.9995366
 20
5433.7497622
 30
0.0
 11
8291.9995366
 21
5468.7497651
 31
0.0
  0
LINE
  5
1A73
330
2
100
AcDbEntity
  8
YKK_C1
100
AcDbLine
 10
8302.51079376
 20
6681.25009757
 30
0.0
 11
8302.51079376
 21
6716.25010047
 31
0.0
  0
LINE
  5
1A74
330
2
100
AcDbEntity
  8
YKK_C1
100
AcDbLine
 10
8150.0
 20
6681.25009757
 30
0.0
 11
8302.51079376
 21
6681.25009757
 31
0.0
  0
LINE
  5
1A75
330
2
100
AcDbEntity
  8
YKK_C1
100
AcDbLine
 10
8150.0
 20
6681.25009757
 30
0.0
 11
8150.0
 21
6689.25009757
 31
0.0
  0
LINE
  5
1A76
330
2
100
AcDbEntity
  8
YKK_C1
100
AcDbLine
 10
8150.0
 20
6689.25009757
 30
0.0
 11
8291.9995377
 21
6689.25009757
 31
0.0
  0
LINE
  5
1A77
330
2
100
AcDbEntity
  8
YKK_C1
100
AcDbLine
 10
8302.51079376
 20
6716.25010047
 30
0.0
 11
8291.9995377
 21
6716.25010047
 31
0.0
  0
LINE
  5
1A78
330
2
100
AcDbEntity
  8
YKK_C1
100
AcDbLine
 10
8291.9995377
 20
6716.25010047
 30
0.0
 11
8291.9995377
 21
6681.25009757
 31
0.0
  0
LINE
  5
1A79
330
2
100
AcDbEntity
  8
YKK_C1
100
AcDbLine
 10
8296.01538596
 20
6671.25009889
 30
0.0
 11
8296.01538596
 21
5478.7497651
 31
0.0
  0
LINE
  5
1A7A
330
2
100
AcDbEntity
  8
YKK_B1
100
AcDbLine
 10
6195.49999999
 20
3324.33047366
 30
0.0
 11
4460.49999956
 21
3324.33047366
 31
0.0
  0
LINE
  5
1A7B
330
2
100
AcDbEntity
  8
YKK_A1
100
AcDbLine
 10
6221.0
 20
6707.25012075
 30
0.0
 11
4434.99999998
 21
6707.25012075
 31
0.0
  0
LINE
  5
1A7C
330
2
100
AcDbEntity
  8
YKK_A1
100
AcDbLine
 10
6165.0
 20
6641.25012112
 30
0.0
 11
4490.99999998
 21
6641.25012112
 31
0.0
  0
LINE
  5
1A7D
330
2
100
AcDbEntity
  8
YKK_A1
100
AcDbLine
 10
6160.00000047
 20
6635.75011979
 30
0.0
 11
4495.99999951
 21
6635.75011979
 31
0.0
  0
LINE
  5
1A7E
330
2
100
AcDbEntity
  8
YKK_A1
100
AcDbLine
 10
6123.00000047
 20
6598.75012021
 30
0.0
 11
4532.99999951
 21
6598.75012021
 31
0.0
  0
LINE
  5
1A7F
330
2
100
AcDbEntity
  8
YKK_A1
100
AcDbLine
 10
5346.99999951
 20
6571.7501199
 30
0.0
 11
6072.99999964
 21
6571.7501199
 31
0.0
  0
LINE
  5
1A80
330
2
100
AcDbEntity
  8
YKK_A1
100
AcDbLine
 10
5308.99999964
 20
6571.7501199
 30
0.0
 11
4582.9999994
 21
6571.7501199
 31
0.0
  0
LINE
  5
1A81
330
2
100
AcDbEntity
  8
YKK_A1
100
AcDbLine
 10
5346.99999951
 20
5577.75011966
 30
0.0
 11
6072.99999964
 21
5577.75011966
 31
0.0
  0
LINE
  5
1A82
330
2
100
AcDbEntity
  8
YKK_A1
100
AcDbLine
 10
5308.99999964
 20
5577.75011966
 30
0.0
 11
4582.9999994
 21
5577.75011966
 31
0.0
  0
LINE
  5
1A83
330
2
100
AcDbEntity
  8
YKK_A1
100
AcDbLine
 10
4532.99999951
 20
5528.75012021
 30
0.0
 11
6123.00000047
 21
5528.75012021
 31
0.0
  0
LINE
  5
1A84
330
2
100
AcDbEntity
  8
YKK_A1
100
AcDbLine
 10
4495.99999951
 20
5491.75011977
 30
0.0
 11
6160.00000047
 21
5491.75011977
 31
0.0
  0
LINE
  5
1A85
330
2
100
AcDbEntity
  8
YKK_A1
100
AcDbLine
 10
4490.99999998
 20
5478.75012021
 30
0.0
 11
6165.0
 21
5478.75012021
 31
0.0
  0
LINE
  5
1A86
330
2
100
AcDbEntity
  8
YKK_A1
100
AcDbLine
 10
4434.99999998
 20
5405.7501202
 30
0.0
 11
6221.0
 21
5405.7501202
 31
0.0
  0
LINE
  5
1A87
330
2
100
AcDbEntity
  8
YKK_A1
100
AcDbLine
 10
4434.99999998
 20
5405.7501202
 30
0.0
 11
4434.99999998
 21
6707.25012075
 31
0.0
  0
LINE
  5
1A88
330
2
100
AcDbEntity
  8
YKK_A1
100
AcDbLine
 10
4490.99999998
 20
5478.75012021
 30
0.0
 11
4490.99999998
 21
6641.25012112
 31
0.0
  0
LINE
  5
1A89
330
2
100
AcDbEntity
  8
YKK_A1
100
AcDbLine
 10
4495.99999951
 20
5491.75011977
 30
0.0
 11
4495.99999951
 21
6635.75011979
 31
0.0
  0
LINE
  5
1A8A
330
2
100
AcDbEntity
  8
YKK_A1
100
AcDbLine
 10
4532.99999951
 20
5528.75012021
 30
0.0
 11
4532.99999951
 21
6598.75012021
 31
0.0
  0
LINE
  5
1A8B
330
2
100
AcDbEntity
  8
YKK_A1
100
AcDbLine
 10
4582.9999994
 20
6571.7501199
 30
0.0
 11
4582.9999994
 21
5577.75011966
 31
0.0
  0
LINE
  5
1A8C
330
2
100
AcDbEntity
  8
YKK_A1
100
AcDbLine
 10
5308.99999964
 20
6598.75012021
 30
0.0
 11
5308.99999964
 21
5528.75012021
 31
0.0
  0
LINE
  5
1A8D
330
2
100
AcDbEntity
  8
YKK_A1
100
AcDbLine
 10
5346.99999951
 20
6571.7501199
 30
0.0
 11
5346.99999951
 21
5577.75011966
 31
0.0
  0
LINE
  5
1A8E
330
2
100
AcDbEntity
  8
YKK_A1
100
AcDbLine
 10
6072.99999964
 20
5577.75011966
 30
0.0
 11
6072.99999964
 21
6571.7501199
 31
0.0
  0
LINE
  5
1A8F
330
2
100
AcDbEntity
  8
YKK_A1
100
AcDbLine
 10
6123.00000047
 20
6598.75012021
 30
0.0
 11
6123.00000047
 21
5528.75012021
 31
0.0
  0
LINE
  5
1A90
330
2
100
AcDbEntity
  8
YKK_A1
100
AcDbLine
 10
6160.00000047
 20
6635.75011979
 30
0.0
 11
6160.00000047
 21
5491.75011977
 31
0.0
  0
LINE
  5
1A91
330
2
100
AcDbEntity
  8
YKK_A1
100
AcDbLine
 10
6165.0
 20
6641.25012112
 30
0.0
 11
6165.0
 21
5478.75012021
 31
0.0
  0
LINE
  5
1A92
330
2
100
AcDbEntity
  8
YKK_A1
100
AcDbLine
 10
6221.0
 20
6707.25012075
 30
0.0
 11
6221.0
 21
5405.7501202
 31
0.0
  0
TEXT
  5
1A93
330
2
100
AcDbEntity
  8
YKK_N1
  6
Continuous
100
AcDbText
 10
5165.50033367
 20
5227.7501202
 30
0.0
 40
40.0
  1
新設窓W=1690
  7
MX_NOTE_STANDARD
 11
5165.50033367
 21
5247.7501202
 31
0.0
100
AcDbText
 73
     2
  0
TEXT
  5
1A94
330
2
100
AcDbEntity
  8
YKK_N1
  6
Continuous
100
AcDbText
 10
6222.99999999
 20
5217.7501232
 30
0.0
 40
60.0
  1
25
  7
MX_NOTE_STANDARD
100
AcDbText
  0
LINE
  5
1A95
330
2
100
AcDbEntity
  8
YKK_N1
  6
Continuous
100
AcDbLine
 10
6197.99999999
 20
5330.7501202
 30
0.0
 11
6197.99999999
 21
5005.7501202
 31
0.0
  0
LINE
  5
1A96
330
2
100
AcDbEntity
  8
YKK_N1
  6
Continuous
100
AcDbLine
 10
6172.99999999
 20
5330.7501202
 30
0.0
 11
6172.99999999
 21
5205.7501202
 31
0.0
  0
LINE
  5
1A97
330
2
100
AcDbEntity
  8
YKK_N1
  6
Continuous
100
AcDbLine
 10
6172.99999999
 20
5205.7501202
 30
0.0
 11
6197.99999999
 21
5205.7501202
 31
0.0
  0
CIRCLE
  5
1A98
330
2
100
AcDbEntity
  8
YKK_N1
  6
Continuous
100
AcDbCircle
 10
6197.99999999
 20
5205.7501202
 30
0.0
 40
5.0
  0
LINE
  5
1A99
330
2
100
AcDbEntity
  8
YKK_N1
  6
Continuous
100
AcDbLine
 10
6086.39745999
 20
5255.7501202
 30
0.0
 11
6086.39745999
 21
5155.7501202
 31
0.0
  0
LINE
  5
1A9A
330
2
100
AcDbEntity
  8
YKK_N1
  6
Continuous
100
AcDbLine
 10
6086.39745999
 20
5255.7501202
 30
0.0
 11
6172.99999999
 21
5205.7501202
 31
0.0
  0
LINE
  5
1A9B
330
2
100
AcDbEntity
  8
YKK_N1
  6
Continuous
100
AcDbLine
 10
6172.99999999
 20
5205.7501202
 30
0.0
 11
6086.39745999
 21
5155.7501202
 31
0.0
  0
LINE
  5
1A9C
330
2
100
AcDbEntity
  8
YKK_N1
  6
Continuous
100
AcDbLine
 10
4569.60253999
 20
5255.7501202
 30
0.0
 11
4482.99999999
 21
5205.7501202
 31
0.0
  0
LINE
  5
1A9D
330
2
100
AcDbEntity
  8
YKK_N1
  6
Continuous
100
AcDbLine
 10
4482.99999999
 20
5205.7501202
 30
0.0
 11
4569.60253999
 21
5155.7501202
 31
0.0
  0
CIRCLE
  5
1A9E
330
2
100
AcDbEntity
  8
YKK_N1
  6
Continuous
100
AcDbCircle
 10
4457.99999999
 20
5205.7501202
 30
0.0
 40
5.0
  0
LINE
  5
1A9F
330
2
100
AcDbEntity
  8
YKK_N1
  6
Continuous
100
AcDbLine
 10
4457.99999999
 20
5205.7501202
 30
0.0
 11
4482.99999999
 21
5205.7501202
 31
0.0
  0
LINE
  5
1AA0
330
2
100
AcDbEntity
  8
YKK_N1
  6
Continuous
100
AcDbLine
 10
4569.60253999
 20
5255.7501202
 30
0.0
 11
4569.60253999
 21
5155.7501202
 31
0.0
  0
TEXT
  5
1AA1
330
2
100
AcDbEntity
  8
YKK_N1
  6
Continuous
100
AcDbText
 10
4332.99999999
 20
5217.7501232
 30
0.0
 40
60.0
  1
25
  7
MX_NOTE_STANDARD
100
AcDbText
  0
LINE
  5
1AA2
330
2
100
AcDbEntity
  8
YKK_N1
  6
Continuous
100
AcDbLine
 10
6172.99999999
 20
5205.7501202
 30
0.0
 11
4482.99999999
 21
5205.7501202
 31
0.0
  0
LINE
  5
1AA3
330
2
100
AcDbEntity
  8
YKK_N1
  6
Continuous
100
AcDbLine
 10
4482.99999999
 20
5330.7501202
 30
0.0
 11
4482.99999999
 21
5205.7501202
 31
0.0
  0
LINE
  5
1AA4
330
2
100
AcDbEntity
  8
YKK_N1
  6
Continuous
100
AcDbLine
 10
4457.99999999
 20
5330.7501202
 30
0.0
 11
4457.99999999
 21
5005.7501202
 31
0.0
  0
LINE
  5
1AA5
330
2
100
AcDbEntity
  8
YKK_N1
  6
Continuous
100
AcDbLine
 10
6197.99999999
 20
5005.7501202
 30
0.0
 11
4457.99999999
 21
5005.7501202
 31
0.0
  0
LINE
  5
1AA6
330
2
100
AcDbEntity
  8
YKK_N1
  6
Continuous
100
AcDbLine
 10
4544.60253999
 20
5055.7501202
 30
0.0
 11
4457.99999999
 21
5005.7501202
 31
0.0
  0
LINE
  5
1AA7
330
2
100
AcDbEntity
  8
YKK_N1
  6
Continuous
100
AcDbLine
 10
4457.99999999
 20
5005.7501202
 30
0.0
 11
4544.60253999
 21
4955.7501202
 31
0.0
  0
LINE
  5
1AA8
330
2
100
AcDbEntity
  8
YKK_N1
  6
Continuous
100
AcDbLine
 10
4544.60253999
 20
5055.7501202
 30
0.0
 11
4544.60253999
 21
4955.7501202
 31
0.0
  0
LINE
  5
1AA9
330
2
100
AcDbEntity
  8
YKK_N1
  6
Continuous
100
AcDbLine
 10
6111.39745999
 20
5055.7501202
 30
0.0
 11
6111.39745999
 21
4955.7501202
 31
0.0
  0
LINE
  5
1AAA
330
2
100
AcDbEntity
  8
YKK_N1
  6
Continuous
100
AcDbLine
 10
6111.39745999
 20
5055.7501202
 30
0.0
 11
6197.99999999
 21
5005.7501202
 31
0.0
  0
LINE
  5
1AAB
330
2
100
AcDbEntity
  8
YKK_N1
  6
Continuous
100
AcDbLine
 10
6197.99999999
 20
5005.7501202
 30
0.0
 11
6111.39745999
 21
4955.7501202
 31
0.0
  0
TEXT
  5
1AAC
330
2
100
AcDbEntity
  8
YKK_N1
  6
Continuous
100
AcDbText
 10
5002.00998875
 20
5027.7501202
 30
0.0
 40
40.0
  1
ジョイント枠出来幅JW=1740
  7
MX_NOTE_STANDARD
 11
5002.00998875
 21
5047.7501202
 31
0.0
100
AcDbText
 73
     2
  0
LINE
  5
1AAD
330
2
100
AcDbEntity
  8
YKK_A1
  6
Continuous
 48
0.5
100
AcDbLine
 10
5067.29226637
 20
6264.6180655
 30
0.0
 11
5097.28835833
 21
6284.61684361
 31
0.0
  0
LINE
  5
1AAE
330
2
100
AcDbEntity
  8
YKK_A1
  6
Continuous
 48
0.5
100
AcDbLine
 10
5067.29226637
 20
6264.6180655
 30
0.0
 11
5067.29226637
 21
6277.11318194
 31
0.0
  0
LINE
  5
1AAF
330
2
100
AcDbEntity
  8
YKK_A1
  6
Continuous
 48
0.5
100
AcDbLine
 10
5067.28836012
 20
6292.11440175
 30
0.0
 11
5067.28836012
 21
6304.61562171
 31
0.0
  0
LINE
  5
1AB0
330
2
100
AcDbEntity
  8
YKK_A1
  6
Continuous
 48
0.5
100
AcDbLine
 10
4883.95503772
 20
6277.10707843
 30
0.0
 11
5067.29226637
 21
6277.11318194
 31
0.0
  0
LINE
  5
1AB1
330
2
100
AcDbEntity
  8
YKK_A1
  6
Continuous
 48
0.5
100
AcDbLine
 10
4883.94722522
 20
6292.10512441
 30
0.0
 11
5067.28836012
 21
6292.11440175
 31
0.0
  0
LINE
  5
1AB2
330
2
100
AcDbEntity
  8
YKK_A1
  6
Continuous
 48
0.5
100
AcDbLine
 10
5067.28836012
 20
6304.61562171
 30
0.0
 11
5097.28835833
 21
6284.61684361
 31
0.0
  0
LINE
  5
1AB3
330
2
100
AcDbEntity
  8
YKK_A1
  6
Continuous
 48
0.5
100
AcDbLine
 10
4883.95503772
 20
6277.10707843
 30
0.0
 11
4883.95503772
 21
6292.10512441
 31
0.0
  0
LINE
  5
1AB4
330
2
100
AcDbEntity
  8
YKK_A1
  6
Continuous
 48
0.5
100
AcDbLine
 10
5591.70764752
 20
6154.6180655
 30
0.0
 11
5561.71155556
 21
6174.61684361
 31
0.0
  0
LINE
  5
1AB5
330
2
100
AcDbEntity
  8
YKK_A1
  6
Continuous
 48
0.5
100
AcDbLine
 10
5591.70764752
 20
6154.6180655
 30
0.0
 11
5591.70764752
 21
6167.11318194
 31
0.0
  0
LINE
  5
1AB6
330
2
100
AcDbEntity
  8
YKK_A1
  6
Continuous
 48
0.5
100
AcDbLine
 10
5591.71155377
 20
6182.11440175
 30
0.0
 11
5591.71155377
 21
6194.61562171
 31
0.0
  0
LINE
  5
1AB7
330
2
100
AcDbEntity
  8
YKK_A1
  6
Continuous
 48
0.5
100
AcDbLine
 10
5773.0448763
 20
6167.10707843
 30
0.0
 11
5591.70764752
 21
6167.11318194
 31
0.0
  0
LINE
  5
1AB8
330
2
100
AcDbEntity
  8
YKK_A1
  6
Continuous
 48
0.5
100
AcDbLine
 10
5773.0526888
 20
6182.10512441
 30
0.0
 11
5591.71155377
 21
6182.11440175
 31
0.0
  0
LINE
  5
1AB9
330
2
100
AcDbEntity
  8
YKK_A1
  6
Continuous
 48
0.5
100
AcDbLine
 10
5591.71155377
 20
6194.61562171
 30
0.0
 11
5561.71155556
 21
6174.61684361
 31
0.0
  0
LINE
  5
1ABA
330
2
100
AcDbEntity
  8
YKK_A1
  6
Continuous
 48
0.5
100
AcDbLine
 10
5773.0448763
 20
6167.10707843
 30
0.0
 11
5773.0448763
 21
6182.10512441
 31
0.0
  0
TEXT
  5
1ABB
330
2
100
AcDbEntity
  8
YKK_N1
  6
Continuous
100
AcDbText
 10
6409.0
 20
5815.91273513
 30
0.0
 40
60.0
  1
新設窓H=1170
 50
90.0
 41
1.122581
  7
MX_NOTE_STANDARD
 11
6379.0
 21
5815.91273513
 31
0.0
100
AcDbText
 73
     2
  0
TEXT
  5
1ABC
330
2
100
AcDbEntity
  8
YKK_N1
  6
Continuous
100
AcDbText
 10
6409.0
 20
6698.25012021
 30
0.0
 40
60.0
  1
17
 50
90.0
  7
MX_NOTE_STANDARD
 11
6379.0
 21
6698.25012021
 31
0.0
100
AcDbText
 73
     2
  0
LINE
  5
1ABD
330
2
100
AcDbEntity
  8
YKK_N1
  6
Continuous
100
AcDbLine
 10
6371.0
 20
6562.14757921
 30
0.0
 11
6471.0
 21
6562.14757921
 31
0.0
  0
LINE
  5
1ABE
330
2
100
AcDbEntity
  8
YKK_N1
  6
Continuous
100
AcDbLine
 10
6371.0
 20
6562.14757921
 30
0.0
 11
6421.0
 21
6648.75012021
 31
0.0
  0
LINE
  5
1ABF
330
2
100
AcDbEntity
  8
YKK_N1
  6
Continuous
100
AcDbLine
 10
6421.0
 20
6665.75012021
 30
0.0
 11
6421.0
 21
6648.75012021
 31
0.0
  0
CIRCLE
  5
1AC0
330
2
100
AcDbEntity
  8
YKK_N1
  6
Continuous
100
AcDbCircle
 10
6421.0
 20
6665.75012021
 30
0.0
 40
5.0
  0
LINE
  5
1AC1
330
2
100
AcDbEntity
  8
YKK_N1
  6
Continuous
100
AcDbLine
 10
6471.0
 20
6562.14757921
 30
0.0
 11
6421.0
 21
6648.75012021
 31
0.0
  0
LINE
  5
1AC2
330
2
100
AcDbEntity
  8
YKK_N1
  6
Continuous
100
AcDbLine
 10
6371.0
 20
5565.35306021
 30
0.0
 11
6471.0
 21
5565.35306021
 31
0.0
  0
LINE
  5
1AC3
330
2
100
AcDbEntity
  8
YKK_N1
  6
Continuous
100
AcDbLine
 10
6371.0
 20
5565.35306021
 30
0.0
 11
6421.0
 21
5478.75052021
 31
0.0
  0
LINE
  5
1AC4
330
2
100
AcDbEntity
  8
YKK_N1
  6
Continuous
100
AcDbLine
 10
6471.0
 20
5565.35306021
 30
0.0
 11
6421.0
 21
5478.75052021
 31
0.0
  0
LINE
  5
1AC5
330
2
100
AcDbEntity
  8
YKK_N1
  6
Continuous
100
AcDbLine
 10
6421.0
 20
6648.75012021
 30
0.0
 11
6421.0
 21
5478.75012021
 31
0.0
  0
LINE
  5
1AC6
330
2
100
AcDbEntity
  8
YKK_N1
  6
Continuous
100
AcDbLine
 10
6296.0
 20
5478.75012021
 30
0.0
 11
6421.0
 21
5478.75012021
 31
0.0
  0
LINE
  5
1AC7
330
2
100
AcDbEntity
  8
YKK_N1
  6
Continuous
100
AcDbLine
 10
6296.0
 20
6665.75012021
 30
0.0
 11
6621.0
 21
6665.75012021
 31
0.0
  0
LINE
  5
1AC8
330
2
100
AcDbEntity
  8
YKK_N1
  6
Continuous
100
AcDbLine
 10
6296.0
 20
6648.75012021
 30
0.0
 11
6421.0
 21
6648.75012021
 31
0.0
  0
LINE
  5
1AC9
330
2
100
AcDbEntity
  8
YKK_N1
  6
Continuous
100
AcDbLine
 10
6621.0
 20
6665.75012021
 30
0.0
 11
6621.0
 21
5472.25012021
 31
0.0
  0
LINE
  5
1ACA
330
2
100
AcDbEntity
  8
YKK_N1
  6
Continuous
100
AcDbLine
 10
6571.0
 20
6579.14757921
 30
0.0
 11
6671.0
 21
6579.14757921
 31
0.0
  0
LINE
  5
1ACB
330
2
100
AcDbEntity
  8
YKK_N1
  6
Continuous
100
AcDbLine
 10
6571.0
 20
6579.14757921
 30
0.0
 11
6621.0
 21
6665.75012021
 31
0.0
  0
LINE
  5
1ACC
330
2
100
AcDbEntity
  8
YKK_N1
  6
Continuous
100
AcDbLine
 10
6671.0
 20
6579.14757921
 30
0.0
 11
6621.0
 21
6665.75012021
 31
0.0
  0
LINE
  5
1ACD
330
2
100
AcDbEntity
  8
YKK_N1
  6
Continuous
100
AcDbLine
 10
6571.0
 20
5558.85266021
 30
0.0
 11
6671.0
 21
5558.85266021
 31
0.0
  0
LINE
  5
1ACE
330
2
100
AcDbEntity
  8
YKK_N1
  6
Continuous
100
AcDbLine
 10
6571.0
 20
5558.85266021
 30
0.0
 11
6621.0
 21
5472.25012021
 31
0.0
  0
LINE
  5
1ACF
330
2
100
AcDbEntity
  8
YKK_N1
  6
Continuous
100
AcDbLine
 10
6671.0
 20
5558.85266021
 30
0.0
 11
6621.0
 21
5472.25012021
 31
0.0
  0
TEXT
  5
1AD0
330
2
100
AcDbEntity
  8
YKK_N1
  6
Continuous
100
AcDbText
 10
6601.5
 20
5597.85570136
 30
0.0
 40
45.0
  1
ジョイント枠出来高JH=1193.5
 50
90.0
 41
1.122581
  7
MX_NOTE_STANDARD
 11
6579.0
 21
5597.85570136
 31
0.0
100
AcDbText
 73
     2
  0
LINE
  5
1AD1
330
2
100
AcDbEntity
  8
YKK_N1
  6
Continuous
100
AcDbLine
 10
6296.0
 20
5472.25012021
 30
0.0
 11
6621.0
 21
5472.25012021
 31
0.0
  0
LINE
  5
1AD2
330
2
100
AcDbEntity
  8
YKK_N1
100
AcDbLine
 10
6421.0
 20
5478.75012021
 30
0.0
 11
6421.0
 21
5472.25012021
 31
0.0
  0
CIRCLE
  5
1AD3
330
2
100
AcDbEntity
  8
YKK_N1
  6
Continuous
100
AcDbCircle
 10
6421.0
 20
5472.25012021
 30
0.0
 40
5.0
  0
TEXT
  5
1AD4
330
2
100
AcDbEntity
  8
YKK_N1
  6
Continuous
100
AcDbText
 10
6409.0
 20
5324.45801032
 30
0.0
 40
60.0
  1
6.5
 50
90.0
  7
MX_NOTE_STANDARD
 11
6379.0
 21
5324.45801032
 31
0.0
100
AcDbText
 73
     2
  0
ENDSEC
  0
SECTION
  2
OBJECTS
  0
DICTIONARY
  5
1E
330
0
100
AcDbDictionary
281
     1
  3
ACAD_BACKGROUND
350
6EF
  3
ACAD_CIP_PREVIOUS_PRODUCT_INFO
350
9D
  3
ACAD_COLOR
350
7B
  3
ACAD_DETAILVIEWSTYLE
350
95
  3
ACAD_GROUP
350
1C
  3
ACAD_LAYOUT
350
7C
  3
ACAD_MATERIAL
350
49
  3
ACAD_MLEADERSTYLE
350
91
  3
ACAD_MLINESTYLE
350
1D
  3
ACAD_PLOTSETTINGS
350
97
  3
ACAD_PLOTSTYLENAME
350
47
  3
ACAD_RENDER_ACTIVE_RAPIDRT_SETTINGS
350
A7
  3
ACAD_RENDER_ACTIVE_SETTINGS
350
744
  3
ACAD_SCALELIST
350
7F
  3
ACAD_SECTIONVIEWSTYLE
350
93
  3
ACAD_TABLESTYLE
350
7D
  3
ACAD_VISUALSTYLE
350
62
  3
ACDB_RECOMPOSE_DATA
350
1B32
  3
AcDbVariableDictionary
350
74B
  0
DICTIONARY
  5
705
330
16
100
AcDbDictionary
280
     1
281
     1
  0
DICTIONARY
  5
116
330
E
100
AcDbDictionary
280
     1
281
     1
  3
ACAD_LAYERSTATES
360
117
  0
DICTIONARY
  5
B2
330
6
100
AcDbDictionary
280
     1
281
     1
  3
ADSK_XREC_LAYER_RECONCILED
360
B3
  0
DICTIONARY
  5
B4
330
24
100
AcDbDictionary
280
     1
281
     1
  3
ADSK_XREC_LAYER_RECONCILED
360
B5
  0
DICTIONARY
  5
105
330
104
100
AcDbDictionary
280
     1
281
     1
  0
DICTIONARY
  5
107
330
106
100
AcDbDictionary
280
     1
281
     1
  0
DICTIONARY
  5
109
330
108
100
AcDbDictionary
280
     1
281
     1
  0
DICTIONARY
  5
10B
330
10A
100
AcDbDictionary
280
     1
281
     1
  0
DICTIONARY
  5
10D
330
10C
100
AcDbDictionary
280
     1
281
     1
  0
DICTIONARY
  5
10F
330
10E
100
AcDbDictionary
280
     1
281
     1
  0
DICTIONARY
  5
3
330
2
100
AcDbDictionary
280
     1
281
     1
  3
ACAD_LAYOUTSELFREF
360
4
  0
DICTIONARY
  5
A
330
9
100
AcDbDictionary
280
     1
281
     1
  3
ACAD_LAYOUTSELFREF
360
B
  0
DICTIONARY
  5
6EF
102
{ACAD_REACTORS
330
1E
102
}
330
1E
100
AcDbDictionary
281
     1
  0
XRECORD
  5
9D
102
{ACAD_REACTORS
330
1E
102
}
330
1E
100
AcDbXrecord
280
     1
300
ACD
300
2018
300
86830ACD_2018_0F
  0
DICTIONARY
  5
7B
102
{ACAD_REACTORS
330
1E
102
}
330
1E
100
AcDbDictionary
281
     1
  0
DICTIONARY
  5
95
102
{ACAD_REACTORS
330
1E
102
}
330
1E
100
AcDbDictionary
281
     1
  3
Imperial24
350
96
  3
Metric50
350
119
  0
DICTIONARY
  5
1C
102
{ACAD_REACTORS
330
1E
102
}
330
1E
100
AcDbDictionary
281
     1
  0
DICTIONARY
  5
7C
102
{ACAD_REACTORS
330
1E
102
}
330
1E
100
AcDbDictionary
281
     1
  3
Model
350
98
  3
レイアウト1
350
99
  0
DICTIONARY
  5
49
102
{ACAD_REACTORS
330
1E
102
}
330
1E
100
AcDbDictionary
281
     1
  3
ByBlock
350
52
  3
ByLayer
350
4A
  3
Global
350
5A
  0
DICTIONARY
  5
91
102
{ACAD_REACTORS
330
1E
102
}
330
1E
100
AcDbDictionary
281
     1
  3
Standard
350
92
  0
DICTIONARY
  5
1D
102
{ACAD_REACTORS
330
1E
102
}
330
1E
100
AcDbDictionary
281
     1
  3
STANDARD
350
1F
  0
DICTIONARY
  5
97
102
{ACAD_REACTORS
330
1E
102
}
330
1E
100
AcDbDictionary
281
     1
  0
ACDBDICTIONARYWDFLT
  5
47
102
{ACAD_REACTORS
330
1E
102
}
330
1E
100
AcDbDictionary
281
     1
  3
Normal
350
48
100
AcDbDictionaryWithDefault
340
48
  0
RAPIDRTRENDERSETTINGS
  5
A7
102
{ACAD_REACTORS
330
1E
102
}
330
1E
100
AcDbRenderSettings
 90
        2
  1
中
290
     1
290
     0
290
     1
290
     1
  1

  1
5 レンダリング レベルを適用
 90
        0
100
AcDbRapidRTRenderSettings
 90
        3
 70
     0
 90
        5
 90
        1
 70
     1
 70
     2
 40
3.0
 40
3.0
290
     1
  0
MENTALRAYRENDERSETTINGS
  5
744
102
{ACAD_XDICTIONARY
360
745
102
}
102
{ACAD_REACTORS
330
1E
102
}
330
1E
100
AcDbRenderSettings
 90
        2
  1
中間
290
     1
290
     1
290
     1
290
     1
  1

  1

 90
        0
100
AcDbMentalRayRenderSettings
 90
        2
 90
        0
 90
        1
 70
     2
 40
3.0
 40
3.0
 40
0.05
 40
0.05
 40
0.05
 40
0.05
 70
     0
290
     0
290
     1
 90
        5
 90
        5
 90
        5
290
     0
 90
      500
290
     0
 40
1.0
 90
    10000
 90
        5
 90
        5
 90
        5
290
     0
 90
      200
290
     0
290
     0
290
     0
 40
1.0
 40
1.0
 40
1500.0
 70
     0
 70
     0
 40
10.0
 70
     0
 70
     0
290
     0
  1

 90
       32
 70
     0
 90
     1048
290
     0
 40
1.0
  0
DICTIONARY
  5
7F
102
{ACAD_REACTORS
330
1E
102
}
330
1E
100
AcDbDictionary
281
     1
  3
A0
350
80
  3
A1
350
81
  3
A2
350
82
  3
A3
350
83
  3
A4
350
84
  3
A5
350
85
  3
A6
350
86
  3
A7
350
87
  3
A8
350
88
  3
A9
350
89
  3
B0
350
8A
  3
B1
350
8B
  3
B2
350
8C
  3
B3
350
8D
  3
B4
350
8E
  3
B5
350
8F
  3
B6
350
90
  0
DICTIONARY
  5
93
102
{ACAD_REACTORS
330
1E
102
}
330
1E
100
AcDbDictionary
281
     1
  3
Imperial24
350
94
  3
Metric50
350
118
  0
DICTIONARY
  5
7D
102
{ACAD_REACTORS
330
1E
102
}
330
1E
100
AcDbDictionary
281
     1
  3
Standard
350
7E
  0
DICTIONARY
  5
62
102
{ACAD_REACTORS
330
1E
102
}
330
1E
100
AcDbDictionary
281
     1
  3
2dWireframe
350
68
  3
Basic
350
67
  3
Brighten
350
6E
  3
ColorChange
350
72
  3
Conceptual
350
6B
  3
Dim
350
6D
  3
EdgeColorOff
350
7A
  3
Facepattern
350
71
  3
Flat
350
63
  3
FlatWithEdges
350
64
  3
Gouraud
350
65
  3
GouraudWithEdges
350
66
  3
Hidden
350
6A
  3
JitterOff
350
78
  3
Linepattern
350
70
  3
OverhangOff
350
79
  3
Realistic
350
6C
  3
Shaded
350
77
  3
Shaded with edges
350
76
  3
Shades of Gray
350
73
  3
Sketchy
350
74
  3
Thicken
350
6F
  3
Wireframe
350
69
  3
X-Ray
350
75
  0
XRECORD
  5
1B32
102
{ACAD_REACTORS
330
1E
102
}
330
1E
100
AcDbXrecord
280
     1
 90
        1
330
7E
  0
DICTIONARY
  5
74B
102
{ACAD_REACTORS
330
1E
102
}
330
1E
100
AcDbDictionary
281
     1
  3
CANNOSCALE
350
750
  3
CMLEADERSTYLE
350
74D
  3
CTABLESTYLE
350
74C
  3
CVIEWDETAILSTYLE
350
74E
  3
CVIEWSECTIONSTYLE
350
74F
  3
XCLIPFRAME
350
1B30
  0
DICTIONARY
  5
117
102
{ACAD_REACTORS
330
116
102
}
330
116
100
AcDbDictionary
281
     1
  0
XRECORD
  5
B3
102
{ACAD_REACTORS
330
B2
102
}
330
B2
100
AcDbXrecord
280
     1
290
     1
  0
XRECORD
  5
B5
102
{ACAD_REACTORS
330
B4
102
}
330
B4
100
AcDbXrecord
280
     1
290
     1
  0
XRECORD
  5
4
102
{ACAD_REACTORS
330
3
102
}
330
3
100
AcDbXrecord
280
     1
340
2
  0
XRECORD
  5
B
102
{ACAD_REACTORS
330
A
102
}
330
A
100
AcDbXrecord
280
     1
340
9
  0
ACDBDETAILVIEWSTYLE
  5
96
102
{ACAD_XDICTIONARY
360
1B6B
102
}
102
{ACAD_REACTORS
330
95
102
}
330
95
100
AcDbModelDocViewStyle
 70
     0
  3
Imperial24
290
     0
100
AcDbDetailViewStyle
 70
     0
 71
     0
 90
        3
 71
     1
340
10
 62
   256
 40
0.24
340
0
 62
   256
 40
0.24
300

 40
0.36
280
     3
 71
     2
340
7
 90
       25
 62
   256
 71
     3
340
10
 62
   256
 40
0.24
 90
        1
 40
0.75
 90
        1
300
%<\AcVar ViewType \f "%tc1">% %<\AcVar ViewDetailId>%\PSCALE %<\AcVar ViewScale \f "%sn">%
 71
     4
340
7
 90
       25
 62
   256
340
7
 90
       25
 62
   256
280
     0
  0
ACDBDETAILVIEWSTYLE
  5
119
102
{ACAD_XDICTIONARY
360
1B6F
102
}
102
{ACAD_REACTORS
330
95
102
}
330
95
100
AcDbModelDocViewStyle
 70
     0
  3
Metric50
290
     0
100
AcDbDetailViewStyle
 70
     0
 71
     0
 90
        3
 71
     1
340
10
 62
   256
 40
5.0
340
0
 62
   256
 40
5.0
300

 40
0.0
280
     1
 71
     2
340
7
 90
       25
 62
   256
 71
     3
340
10
 62
   256
 40
5.0
 90
        0
 40
15.0
 90
        1
300
%<\AcVar ViewDetailId>% (%<\AcVar ViewScale \f "%sn">%)
 71
     4
340
7
 90
       25
 62
   256
340
7
 90
       25
 62
   256
280
     0
  0
LAYOUT
  5
98
102
{ACAD_XDICTIONARY
360
742
102
}
102
{ACAD_REACTORS
330
7C
102
}
330
7C
100
AcDbPlotSettings
  1

  2
FX ApeosPort-V C7776
  4
A4
  6

 40
4.90008307
 41
4.90005493
 42
4.90008545
 43
4.90008545
 44
210.01567078
 45
297.01065063
 46
0.0
 47
0.0
 48
0.0
 49
0.0
140
0.0
141
0.0
142
1.0
143
6240.87038063
 70
  1712
 72
     0
 73
     0
 74
     0
  7
monochrome.ctb
 75
     0
147
0.00016023
 76
     0
 77
     2
 78
   300
148
38988.52545419
149
1987.59756046
100
AcDbLayout
  1
Model
 70
     1
 71
     0
 10
0.0
 20
0.0
 11
12.0
 21
9.0
 12
0.0
 22
0.0
 32
0.0
 14
0.0
 24
0.0
 34
0.0
 15
0.0
 25
0.0
 35
0.0
146
0.0
 13
0.0
 23
0.0
 33
0.0
 16
1.0
 26
0.0
 36
0.0
 17
0.0
 27
1.0
 37
0.0
 76
     0
330
2
331
45
  0
LAYOUT
  5
99
102
{ACAD_REACTORS
330
7C
102
}
330
7C
100
AcDbPlotSettings
  1

  2
FX ApeosPort-V C7776
  4
A4
  6

 40
4.90008307
 41
4.90005493
 42
4.90008545
 43
4.90008545
 44
210.01567078
 45
297.01065063
 46
0.0
 47
0.0
 48
0.0
 49
0.0
140
0.0
141
0.0
142
1.0
143
1.0
 70
   688
 72
     0
 73
     0
 74
     5
  7
monochrome.ctb
 75
    16
147
1.0
 76
     0
 77
     2
 78
   300
148
0.0
149
0.0
100
AcDbLayout
  1
レイアウト1
 70
     0
 71
     1
 10
0.0
 20
0.0
 11
12.0
 21
9.0
 12
0.0
 22
0.0
 32
0.0
 14
1.00000000E+20
 24
1.00000000E+20
 34
1.00000000E+20
 15
-1.00000000E+20
 25
-1.00000000E+20
 35
-1.00000000E+20
146
0.0
 13
0.0
 23
0.0
 33
0.0
 16
1.0
 26
0.0
 36
0.0
 17
0.0
 27
1.0
 37
0.0
 76
     0
330
9
  0
MATERIAL
  5
52
102
{ACAD_XDICTIONARY
360
53
102
}
102
{ACAD_REACTORS
330
49
102
}
330
49
100
AcDbMaterial
  1
ByBlock
 72
     0
 43
0.02083333
 43
0.0
 43
0.0
 43
0.0
 43
0.0
 43
0.02083333
 43
0.0
 43
0.0
 43
0.0
 43
0.0
 43
1.0
 43
0.0
 43
0.0
 43
0.0
 43
0.0
 43
1.0
 77
     0
 47
0.02083333
 47
0.0
 47
0.0
 47
0.0
 47
0.0
 47
0.02083333
 47
0.0
 47
0.0
 47
0.0
 47
0.0
 47
1.0
 47
0.0
 47
0.0
 47
0.0
 47
0.0
 47
1.0
171
     0
 49
0.02083333
 49
0.0
 49
0.0
 49
0.0
 49
0.0
 49
0.02083333
 49
0.0
 49
0.0
 49
0.0
 49
0.0
 49
1.0
 49
0.0
 49
0.0
 49
0.0
 49
0.0
 49
1.0
175
     0
142
0.02083333
142
0.0
142
0.0
142
0.0
142
0.0
142
0.02083333
142
0.0
142
0.0
142
0.0
142
0.0
142
1.0
142
0.0
142
0.0
142
0.0
142
0.0
142
1.0
179
     0
144
0.02083333
144
0.0
144
0.0
144
0.0
144
0.0
144
0.02083333
144
0.0
144
0.0
144
0.0
144
0.0
144
1.0
144
0.0
144
0.0
144
0.0
144
0.0
144
1.0
147
0.02083333
147
0.0
147
0.0
147
0.0
147
0.0
147
0.02083333
147
0.0
147
0.0
147
0.0
147
0.0
147
1.0
147
0.0
147
0.0
147
0.0
147
0.0
147
1.0
  0
MATERIAL
  5
4A
102
{ACAD_XDICTIONARY
360
4B
102
}
102
{ACAD_REACTORS
330
49
102
}
330
49
100
AcDbMaterial
  1
ByLayer
 72
     0
 43
0.02083333
 43
0.0
 43
0.0
 43
0.0
 43
0.0
 43
0.02083333
 43
0.0
 43
0.0
 43
0.0
 43
0.0
 43
1.0
 43
0.0
 43
0.0
 43
0.0
 43
0.0
 43
1.0
 77
     0
 47
0.02083333
 47
0.0
 47
0.0
 47
0.0
 47
0.0
 47
0.02083333
 47
0.0
 47
0.0
 47
0.0
 47
0.0
 47
1.0
 47
0.0
 47
0.0
 47
0.0
 47
0.0
 47
1.0
171
     0
 49
0.02083333
 49
0.0
 49
0.0
 49
0.0
 49
0.0
 49
0.02083333
 49
0.0
 49
0.0
 49
0.0
 49
0.0
 49
1.0
 49
0.0
 49
0.0
 49
0.0
 49
0.0
 49
1.0
175
     0
142
0.02083333
142
0.0
142
0.0
142
0.0
142
0.0
142
0.02083333
142
0.0
142
0.0
142
0.0
142
0.0
142
1.0
142
0.0
142
0.0
142
0.0
142
0.0
142
1.0
179
     0
144
0.02083333
144
0.0
144
0.0
144
0.0
144
0.0
144
0.02083333
144
0.0
144
0.0
144
0.0
144
0.0
144
1.0
144
0.0
144
0.0
144
0.0
144
0.0
144
1.0
147
0.02083333
147
0.0
147
0.0
147
0.0
147
0.0
147
0.02083333
147
0.0
147
0.0
147
0.0
147
0.0
147
1.0
147
0.0
147
0.0
147
0.0
147
0.0
147
1.0
  0
MATERIAL
  5
5A
102
{ACAD_XDICTIONARY
360
5B
102
}
102
{ACAD_REACTORS
330
49
102
}
330
49
100
AcDbMaterial
  1
Global
 72
     0
 43
0.02083333
 43
0.0
 43
0.0
 43
0.0
 43
0.0
 43
0.02083333
 43
0.0
 43
0.0
 43
0.0
 43
0.0
 43
1.0
 43
0.0
 43
0.0
 43
0.0
 43
0.0
 43
1.0
 77
     0
 47
0.02083333
 47
0.0
 47
0.0
 47
0.0
 47
0.0
 47
0.02083333
 47
0.0
 47
0.0
 47
0.0
 47
0.0
 47
1.0
 47
0.0
 47
0.0
 47
0.0
 47
0.0
 47
1.0
171
     0
 49
0.02083333
 49
0.0
 49
0.0
 49
0.0
 49
0.0
 49
0.02083333
 49
0.0
 49
0.0
 49
0.0
 49
0.0
 49
1.0
 49
0.0
 49
0.0
 49
0.0
 49
0.0
 49
1.0
175
     0
142
0.02083333
142
0.0
142
0.0
142
0.0
142
0.0
142
0.02083333
142
0.0
142
0.0
142
0.0
142
0.0
142
1.0
142
0.0
142
0.0
142
0.0
142
0.0
142
1.0
179
     0
144
0.02083333
144
0.0
144
0.0
144
0.0
144
0.0
144
0.02083333
144
0.0
144
0.0
144
0.0
144
0.0
144
1.0
144
0.0
144
0.0
144
0.0
144
0.0
144
1.0
147
0.02083333
147
0.0
147
0.0
147
0.0
147
0.0
147
0.02083333
147
0.0
147
0.0
147
0.0
147
0.0
147
1.0
147
0.0
147
0.0
147
0.0
147
0.0
147
1.0
  0
MLEADERSTYLE
  5
92
102
{ACAD_XDICTIONARY
360
1B67
102
}
102
{ACAD_REACTORS
330
91
102
}
330
91
100
AcDbMLeaderStyle
170
     2
171
     1
172
     0
 90
        2
 40
0.0
 41
0.0
173
     1
 91
-1056964608
340
12
 92
       -2
290
     1
 42
0.09
291
     1
 43
0.36
  3
Standard
 44
0.18
300

342
10
174
     1
178
     6
175
     1
176
     0
 93
-1056964608
 45
0.18
292
     0
297
     0
 46
0.18
 94
-1056964608
 47
1.0
 49
1.0
140
1.0
293
     1
141
0.0
294
     1
177
     0
142
1.0
295
     0
296
     0
143
0.125
1001
ACAD_MLEADERVER
1070
     2
  0
MLINESTYLE
  5
1F
102
{ACAD_REACTORS
330
1D
102
}
330
1D
100
AcDbMlineStyle
  2
STANDARD
 70
     0
  3

 62
   256
 51
90.0
 52
90.0
 71
     2
 49
0.5
 62
   256
  6
BYLAYER
 49
-0.5
 62
   256
  6
BYLAYER
  0
ACDBPLACEHOLDER
  5
48
102
{ACAD_REACTORS
330
47
102
}
330
47
  0
DICTIONARY
  5
745
330
744
100
AcDbDictionary
280
     1
281
     1
  3
ADSK_XREC_MENTALRAYSETTINGSINFO
360
746
  0
SCALE
  5
80
102
{ACAD_REACTORS
330
7F
102
}
330
7F
100
AcDbScale
 70
     0
300
1:1
140
1.0
141
1.0
290
     1
  0
SCALE
  5
81
102
{ACAD_REACTORS
330
7F
102
}
330
7F
100
AcDbScale
 70
     0
300
1/128" = 1'-0"
140
0.0078125
141
12.0
290
     0
  0
SCALE
  5
82
102
{ACAD_REACTORS
330
7F
102
}
330
7F
100
AcDbScale
 70
     0
300
1/64" = 1'-0"
140
0.015625
141
12.0
290
     0
  0
SCALE
  5
83
102
{ACAD_REACTORS
330
7F
102
}
330
7F
100
AcDbScale
 70
     0
300
1/32" = 1'-0"
140
0.03125
141
12.0
290
     0
  0
SCALE
  5
84
102
{ACAD_REACTORS
330
7F
102
}
330
7F
100
AcDbScale
 70
     0
300
1/16" = 1'-0"
140
0.0625
141
12.0
290
     0
  0
SCALE
  5
85
102
{ACAD_REACTORS
330
7F
102
}
330
7F
100
AcDbScale
 70
     0
300
3/32" = 1'-0"
140
0.09375
141
12.0
290
     0
  0
SCALE
  5
86
102
{ACAD_REACTORS
330
7F
102
}
330
7F
100
AcDbScale
 70
     0
300
1/8" = 1'-0"
140
0.125
141
12.0
290
     0
  0
SCALE
  5
87
102
{ACAD_REACTORS
330
7F
102
}
330
7F
100
AcDbScale
 70
     0
300
3/16" = 1'-0"
140
0.1875
141
12.0
290
     0
  0
SCALE
  5
88
102
{ACAD_REACTORS
330
7F
102
}
330
7F
100
AcDbScale
 70
     0
300
1/4" = 1'-0"
140
0.25
141
12.0
290
     0
  0
SCALE
  5
89
102
{ACAD_REACTORS
330
7F
102
}
330
7F
100
AcDbScale
 70
     0
300
3/8" = 1'-0"
140
0.375
141
12.0
290
     0
  0
SCALE
  5
8A
102
{ACAD_REACTORS
330
7F
102
}
330
7F
100
AcDbScale
 70
     0
300
1/2" = 1'-0"
140
0.5
141
12.0
290
     0
  0
SCALE
  5
8B
102
{ACAD_REACTORS
330
7F
102
}
330
7F
100
AcDbScale
 70
     0
300
3/4" = 1'-0"
140
0.75
141
12.0
290
     0
  0
SCALE
  5
8C
102
{ACAD_REACTORS
330
7F
102
}
330
7F
100
AcDbScale
 70
     0
300
1" = 1'-0"
140
1.0
141
12.0
290
     0
  0
SCALE
  5
8D
102
{ACAD_REACTORS
330
7F
102
}
330
7F
100
AcDbScale
 70
     0
300
1-1/2" = 1'-0"
140
1.5
141
12.0
290
     0
  0
SCALE
  5
8E
102
{ACAD_REACTORS
330
7F
102
}
330
7F
100
AcDbScale
 70
     0
300
3" = 1'-0"
140
3.0
141
12.0
290
     0
  0
SCALE
  5
8F
102
{ACAD_REACTORS
330
7F
102
}
330
7F
100
AcDbScale
 70
     0
300
6" = 1'-0"
140
6.0
141
12.0
290
     0
  0
SCALE
  5
90
102
{ACAD_REACTORS
330
7F
102
}
330
7F
100
AcDbScale
 70
     0
300
1'-0" = 1'-0"
140
12.0
141
12.0
290
     0
  0
ACDBSECTIONVIEWSTYLE
  5
94
102
{ACAD_XDICTIONARY
360
1B69
102
}
102
{ACAD_REACTORS
330
93
102
}
330
93
100
AcDbModelDocViewStyle
 70
     0
  3
Imperial24
290
     0
100
AcDbSectionViewStyle
 70
     0
 71
     0
 90
       78
 71
     1
340
10
 62
   256
 40
0.24
340
0
340
0
 62
   256
 40
0.24
300
I, O, Q, S, X, Z
 40
0.48
 90
        3
 40
0.18
 90
        1
 71
     2
340
7
 90
       25
 62
   256
340
7
 90
       50
 62
   256
 40
0.24
 40
0.0
 40
0.24
 71
     3
340
10
 62
   256
 40
0.24
 90
        1
 40
0.75
 90
        1
300
%<\AcVar ViewType \f "%tc1">% %<\AcVar ViewSectionStartId>%-%<\AcVar ViewSectionEndId>%\PSCALE %<\AcVar ViewScale \f "%sn">%
 71
     4
 62
   256
 62
   257
300
ANSI31
 40
1.0
 90
        0
290
     0
290
     0
 90
        6
 40
0.0
 40
1.57079633
 40
0.26179939
 40
1.30899694
 40
-0.26179939
 40
1.83259571
  0
ACDBSECTIONVIEWSTYLE
  5
118
102
{ACAD_XDICTIONARY
360
1B6D
102
}
102
{ACAD_REACTORS
330
93
102
}
330
93
100
AcDbModelDocViewStyle
 70
     0
  3
Metric50
290
     0
100
AcDbSectionViewStyle
 70
     0
 71
     0
 90
      102
 71
     1
340
10
 62
   256
 40
5.0
340
0
340
0
 62
   256
 40
5.0
300
I, O, Q, S, X, Z
 40
10.0
 90
        0
 40
2.5
 90
        0
 71
     2
340
7
 90
       25
 62
   256
340
7
 90
       50
 62
   256
 40
5.0
 40
2.5
 40
5.0
 71
     3
340
10
 62
   256
 40
5.0
 90
        0
 40
15.0
 90
        1
300
%<\AcVar ViewSectionStartId>%-%<\AcVar ViewSectionEndId>% (%<\AcVar ViewScale \f "%sn">%)
 71
     4
 62
   256
 62
   257
300
ANSI31
 40
1.0
 90
        0
290
     0
290
     0
 90
        6
 40
0.0
 40
1.57079633
 40
0.26179939
 40
1.30899694
 40
-0.26179939
 40
1.83259571
  0
TABLESTYLE
  5
7E
102
{ACAD_XDICTIONARY
360
6FA
102
}
102
{ACAD_REACTORS
330
7D
102
}
330
7D
100
AcDbTableStyle
  3
Standard
 70
     0
 71
     0
 40
0.06
 41
0.06
280
     0
281
     0
  7
STANDARD
140
0.18
170
     2
 62
     0
 63
     7
283
     0
274
    -2
284
     1
 64
     0
275
    -2
285
     1
 65
     0
276
    -2
286
     1
 66
     0
277
    -2
287
     1
 67
     0
278
    -2
288
     1
 68
     0
279
    -2
289
     1
 69
     0
  7
STANDARD
140
0.25
170
     5
 62
     0
 63
     7
283
     0
274
    -2
284
     1
 64
     0
275
    -2
285
     1
 65
     0
276
    -2
286
     1
 66
     0
277
    -2
287
     1
 67
     0
278
    -2
288
     1
 68
     0
279
    -2
289
     1
 69
     0
  7
STANDARD
140
0.18
170
     5
 62
     0
 63
     7
283
     0
274
    -2
284
     1
 64
     0
275
    -2
285
     1
 65
     0
276
    -2
286
     1
 66
     0
277
    -2
287
     1
 67
     0
278
    -2
288
     1
 68
     0
279
    -2
289
     1
 69
     0
  0
VISUALSTYLE
  5
68
102
{ACAD_XDICTIONARY
360
1B40
102
}
102
{ACAD_REACTORS
330
62
102
}
330
62
100
AcDbVisualStyle
  2
2dWireframe
 70
     4
 71
     0
 72
     2
 73
     0
 90
        0
 40
-0.6
 41
-30.0
 62
     5
 63
     7
421
 16777215
 74
     1
 91
        4
 64
     7
 65
   257
 75
     1
175
     1
 42
1.0
 92
        0
 66
   257
 43
1.0
 76
     1
 77
     6
 78
     2
 67
     7
 79
     5
170
     0
171
     0
290
     0
174
     0
 93
        1
 44
0.0
173
     0
291
     0
 45
0.0
1001
ACAD
1000
AcDbSavedByObjectVersion
1070
     0
  0
VISUALSTYLE
  5
67
102
{ACAD_XDICTIONARY
360
1B3E
102
}
102
{ACAD_REACTORS
330
62
102
}
330
62
100
AcDbVisualStyle
  2
Basic
 70
     7
 71
     1
 72
     0
 73
     1
 90
        0
 40
-0.6
 41
-30.0
 62
     5
 63
     7
421
 16777215
 74
     0
 91
        4
 64
     7
 65
   257
 75
     1
175
     1
 42
1.0
 92
        8
 66
     7
 43
1.0
 76
     1
 77
     6
 78
     2
 67
     7
 79
     5
170
     0
171
     0
290
     0
174
     0
 93
        1
 44
0.0
173
     0
291
     1
 45
0.0
1001
ACAD
1000
AcDbSavedByObjectVersion
1070
     0
  0
VISUALSTYLE
  5
6E
102
{ACAD_XDICTIONARY
360
1B4C
102
}
102
{ACAD_REACTORS
330
62
102
}
330
62
100
AcDbVisualStyle
  2
Brighten
 70
    12
 71
     2
 72
     2
 73
     0
 90
        0
 40
-0.6
 41
-30.0
 62
     5
 63
     7
421
 16777215
 74
     1
 91
        4
 64
     7
 65
   257
 75
     1
175
     1
 42
1.0
 92
        8
 66
     7
 43
1.0
 76
     1
 77
     6
 78
     2
 67
     7
 79
     5
170
     0
171
     0
290
     0
174
     0
 93
        1
 44
50.0
173
     0
291
     1
 45
0.0
1001
ACAD
1000
AcDbSavedByObjectVersion
1070
     0
  0
VISUALSTYLE
  5
72
102
{ACAD_XDICTIONARY
360
1B54
102
}
102
{ACAD_REACTORS
330
62
102
}
330
62
100
AcDbVisualStyle
  2
ColorChange
 70
    16
 71
     2
 72
     2
 73
     3
 90
        0
 40
-0.6
 41
-30.0
 62
     5
 63
     8
421
  8421504
 74
     1
 91
        4
 64
     7
 65
   257
 75
     1
175
     1
 42
1.0
 92
        8
 66
     8
424
  8421504
 43
1.0
 76
     1
 77
     6
 78
     2
 67
     7
 79
     5
170
     0
171
     0
290
     0
174
     0
 93
        1
 44
0.0
173
     0
291
     1
 45
0.0
1001
ACAD
1000
AcDbSavedByObjectVersion
1070
     0
  0
VISUALSTYLE
  5
6B
102
{ACAD_XDICTIONARY
360
1B46
102
}
102
{ACAD_REACTORS
330
62
102
}
330
62
100
AcDbVisualStyle
  2
Conceptual
 70
     9
 71
     3
 72
     2
 73
     0
 90
        0
 40
-0.6
 41
-30.0
 62
     5
 63
     7
421
 16777215
 74
     2
 91
        2
 64
     7
 65
   257
 75
     1
175
     1
 42
179.0
 92
        8
 66
     7
 43
1.0
 76
     1
 77
     6
 78
     2
 67
     7
 79
     3
170
     0
171
     0
290
     0
174
     0
 93
        1
 44
0.0
173
     0
291
     0
 45
0.0
1001
ACAD
1000
AcDbSavedByObjectVersion
1070
     0
  0
VISUALSTYLE
  5
6D
102
{ACAD_XDICTIONARY
360
1B4A
102
}
102
{ACAD_REACTORS
330
62
102
}
330
62
100
AcDbVisualStyle
  2
Dim
 70
    11
 71
     2
 72
     2
 73
     0
 90
        0
 40
-0.6
 41
-30.0
 62
     5
 63
     7
421
 16777215
 74
     1
 91
        4
 64
     7
 65
   257
 75
     1
175
     1
 42
1.0
 92
        8
 66
     7
 43
1.0
 76
     1
 77
     6
 78
     2
 67
     7
 79
     5
170
     0
171
     0
290
     0
174
     0
 93
        1
 44
-50.0
173
     0
291
     1
 45
0.0
1001
ACAD
1000
AcDbSavedByObjectVersion
1070
     0
  0
VISUALSTYLE
  5
7A
102
{ACAD_XDICTIONARY
360
1B64
102
}
102
{ACAD_REACTORS
330
62
102
}
330
62
100
AcDbVisualStyle
  2
EdgeColorOff
 70
    22
 71
     2
 72
     2
 73
     0
 90
        0
 40
-0.6
 41
-30.0
 62
     5
 63
     7
421
 16777215
 74
     1
 91
        4
 64
     7
 65
   257
 75
     1
175
     1
 42
1.0
 92
        8
 66
     7
 43
1.0
 76
     1
 77
     6
 78
     2
 67
     7
 79
     5
170
     0
171
     0
290
     0
174
     0
 93
        1
 44
0.0
173
     0
291
     1
 45
0.0
1001
ACAD
1000
AcDbSavedByObjectVersion
1070
     0
  0
VISUALSTYLE
  5
71
102
{ACAD_XDICTIONARY
360
1B52
102
}
102
{ACAD_REACTORS
330
62
102
}
330
62
100
AcDbVisualStyle
  2
Facepattern
 70
    15
 71
     2
 72
     2
 73
     0
 90
        0
 40
-0.6
 41
-30.0
 62
     5
 63
     7
421
 16777215
 74
     1
 91
        4
 64
     7
 65
   257
 75
     1
175
     1
 42
1.0
 92
        8
 66
     7
 43
1.0
 76
     1
 77
     6
 78
     2
 67
     7
 79
     5
170
     0
171
     0
290
     0
174
     0
 93
        1
 44
0.0
173
     0
291
     1
 45
0.0
1001
ACAD
1000
AcDbSavedByObjectVersion
1070
     0
  0
VISUALSTYLE
  5
63
102
{ACAD_XDICTIONARY
360
1B36
102
}
102
{ACAD_REACTORS
330
62
102
}
330
62
100
AcDbVisualStyle
  2
Flat
 70
     0
 71
     2
 72
     1
 73
     1
 90
        2
 40
-0.6
 41
30.0
 62
     5
 63
     7
421
 16777215
 74
     0
 91
        0
 64
     7
 65
   257
 75
     1
175
     1
 42
1.0
 92
        8
 66
     7
 43
1.0
 76
     1
 77
     6
 78
     2
 67
     7
 79
     5
170
     0
171
     0
290
     0
174
     0
 93
       13
 44
0.0
173
     0
291
     1
 45
0.0
1001
ACAD
1000
AcDbSavedByObjectVersion
1070
     0
  0
VISUALSTYLE
  5
64
102
{ACAD_XDICTIONARY
360
1B38
102
}
102
{ACAD_REACTORS
330
62
102
}
330
62
100
AcDbVisualStyle
  2
FlatWithEdges
 70
     1
 71
     2
 72
     1
 73
     1
 90
        2
 40
-0.6
 41
30.0
 62
     5
 63
     7
421
 16777215
 74
     1
 91
        0
 64
     7
 65
   257
 75
     1
175
     1
 42
1.0
 92
        0
 66
   257
 43
1.0
 76
     1
 77
     6
 78
     2
 67
     7
 79
     5
170
     0
171
     0
290
     0
174
     0
 93
       13
 44
0.0
173
     0
291
     1
 45
0.0
1001
ACAD
1000
AcDbSavedByObjectVersion
1070
     0
  0
VISUALSTYLE
  5
65
102
{ACAD_XDICTIONARY
360
1B3A
102
}
102
{ACAD_REACTORS
330
62
102
}
330
62
100
AcDbVisualStyle
  2
Gouraud
 70
     2
 71
     2
 72
     2
 73
     1
 90
        2
 40
-0.6
 41
30.0
 62
     5
 63
     7
421
 16777215
 74
     0
 91
        0
 64
     7
 65
   257
 75
     1
175
     1
 42
1.0
 92
        0
 66
     7
 43
1.0
 76
     1
 77
     6
 78
     2
 67
     7
 79
     5
170
     0
171
     0
290
     0
174
     0
 93
       13
 44
0.0
173
     0
291
     1
 45
0.0
1001
ACAD
1000
AcDbSavedByObjectVersion
1070
     0
  0
VISUALSTYLE
  5
66
102
{ACAD_XDICTIONARY
360
1B3C
102
}
102
{ACAD_REACTORS
330
62
102
}
330
62
100
AcDbVisualStyle
  2
GouraudWithEdges
 70
     3
 71
     2
 72
     2
 73
     1
 90
        2
 40
-0.6
 41
30.0
 62
     5
 63
     7
421
 16777215
 74
     1
 91
        0
 64
     7
 65
   257
 75
     1
175
     1
 42
1.0
 92
        0
 66
   257
 43
1.0
 76
     1
 77
     6
 78
     2
 67
     7
 79
     5
170
     0
171
     0
290
     0
174
     0
 93
       13
 44
0.0
173
     0
291
     1
 45
0.0
1001
ACAD
1000
AcDbSavedByObjectVersion
1070
     0
  0
VISUALSTYLE
  5
6A
102
{ACAD_XDICTIONARY
360
1B44
102
}
102
{ACAD_REACTORS
330
62
102
}
330
62
100
AcDbVisualStyle
  2
Hidden
 70
     6
 71
     1
 72
     2
 73
     2
 90
        0
 40
-0.6
 41
-30.0
 62
     5
 63
     7
421
 16777215
 74
     2
 91
        2
 64
     7
 65
   257
 75
     2
175
     1
 42
40.0
 92
        0
 66
   257
 43
1.0
 76
     1
 77
     6
 78
     2
 67
     7
 79
     3
170
     0
171
     0
290
     0
174
     0
 93
        1
 44
0.0
173
     0
291
     0
 45
0.0
1001
ACAD
1000
AcDbSavedByObjectVersion
1070
     0
  0
VISUALSTYLE
  5
78
102
{ACAD_XDICTIONARY
360
1B60
102
}
102
{ACAD_REACTORS
330
62
102
}
330
62
100
AcDbVisualStyle
  2
JitterOff
 70
    20
 71
     2
 72
     2
 73
     0
 90
        0
 40
-0.6
 41
-30.0
 62
     5
 63
     7
421
 16777215
 74
     1
 91
        4
 64
     7
 65
   257
 75
     1
175
     1
 42
1.0
 92
       10
 66
     7
 43
1.0
 76
     1
 77
     6
 78
     2
 67
     7
 79
     5
170
     0
171
     0
290
     0
174
     0
 93
        1
 44
0.0
173
     0
291
     1
 45
0.0
1001
ACAD
1000
AcDbSavedByObjectVersion
1070
     0
  0
VISUALSTYLE
  5
70
102
{ACAD_XDICTIONARY
360
1B50
102
}
102
{ACAD_REACTORS
330
62
102
}
330
62
100
AcDbVisualStyle
  2
Linepattern
 70
    14
 71
     2
 72
     2
 73
     0
 90
        0
 40
-0.6
 41
-30.0
 62
     5
 63
     7
421
 16777215
 74
     1
 91
        4
 64
     7
 65
   257
 75
     7
175
     7
 42
1.0
 92
        8
 66
     7
 43
1.0
 76
     1
 77
     6
 78
     2
 67
     7
 79
     5
170
     0
171
     0
290
     0
174
     0
 93
        1
 44
0.0
173
     0
291
     1
 45
0.0
1001
ACAD
1000
AcDbSavedByObjectVersion
1070
     0
  0
VISUALSTYLE
  5
79
102
{ACAD_XDICTIONARY
360
1B62
102
}
102
{ACAD_REACTORS
330
62
102
}
330
62
100
AcDbVisualStyle
  2
OverhangOff
 70
    21
 71
     2
 72
     2
 73
     0
 90
        0
 40
-0.6
 41
-30.0
 62
     5
 63
     7
421
 16777215
 74
     1
 91
        4
 64
     7
 65
   257
 75
     1
175
     1
 42
1.0
 92
        9
 66
     7
 43
1.0
 76
     1
 77
     6
 78
     2
 67
     7
 79
     5
170
     0
171
     0
290
     0
174
     0
 93
        1
 44
0.0
173
     0
291
     1
 45
0.0
1001
ACAD
1000
AcDbSavedByObjectVersion
1070
     0
  0
VISUALSTYLE
  5
6C
102
{ACAD_XDICTIONARY
360
1B48
102
}
102
{ACAD_REACTORS
330
62
102
}
330
62
100
AcDbVisualStyle
  2
Realistic
 70
     8
 71
     2
 72
     2
 73
     0
 90
        2
 40
-0.6
 41
30.0
 62
     5
 63
     7
421
 16777215
 74
     0
 91
        0
 64
     7
 65
   257
 75
     1
175
     1
 42
1.0
 92
        8
 66
   257
 43
1.0
 76
     1
 77
     6
 78
     2
 67
     7
 79
     3
170
     0
171
     0
290
     0
174
     0
 93
       13
 44
0.0
173
     0
291
     0
 45
0.0
1001
ACAD
1000
AcDbSavedByObjectVersion
1070
     0
  0
VISUALSTYLE
  5
77
102
{ACAD_XDICTIONARY
360
1B5E
102
}
102
{ACAD_REACTORS
330
62
102
}
330
62
100
AcDbVisualStyle
  2
Shaded
 70
    27
 71
     2
 72
     2
 73
     1
 90
        2
 40
-0.6
 41
30.0
 62
     5
 63
     7
421
 16777215
 74
     0
 91
        4
 64
     7
 65
   257
 75
     1
175
     1
 42
1.0
 92
        8
 66
   257
 43
1.0
 76
     1
 77
     6
 78
     2
 67
     8
425
  7895160
 79
     3
170
     0
171
     0
290
     0
174
     0
 93
        5
 44
0.0
173
     0
291
     0
 45
0.0
1001
ACAD
1000
AcDbSavedByObjectVersion
1070
     0
  0
VISUALSTYLE
  5
76
102
{ACAD_XDICTIONARY
360
1B5C
102
}
102
{ACAD_REACTORS
330
62
102
}
330
62
100
AcDbVisualStyle
  2
Shaded with edges
 70
    26
 71
     2
 72
     2
 73
     1
 90
        2
 40
-0.6
 41
30.0
 62
     5
 63
     7
421
 16777215
 74
     1
 91
        2
 64
     7
 65
   257
 75
     2
175
     1
 42
1.0
 92
        8
 66
   257
 43
1.0
 76
     1
 77
     6
 78
     2
 67
     7
 79
     3
170
     0
171
     0
290
     0
174
     0
 93
        5
 44
0.0
173
     0
291
     0
 45
0.0
1001
ACAD
1000
AcDbSavedByObjectVersion
1070
     0
  0
VISUALSTYLE
  5
73
102
{ACAD_XDICTIONARY
360
1B56
102
}
102
{ACAD_REACTORS
330
62
102
}
330
62
100
AcDbVisualStyle
  2
Shades of Gray
 70
    23
 71
     2
 72
     2
 73
     3
 90
        0
 40
-0.6
 41
-30.0
 62
     5
 63
     7
421
 16777215
 74
     2
 91
        2
 64
     7
 65
     7
 75
     1
175
     1
 42
40.0
 92
        8
 66
     7
 43
1.0
 76
     1
 77
     6
 78
     2
 67
     7
 79
     3
170
     0
171
     0
290
     0
174
     0
 93
        1
 44
0.0
173
     0
291
     0
 45
0.0
1001
ACAD
1000
AcDbSavedByObjectVersion
1070
     0
  0
VISUALSTYLE
  5
74
102
{ACAD_XDICTIONARY
360
1B58
102
}
102
{ACAD_REACTORS
330
62
102
}
330
62
100
AcDbVisualStyle
  2
Sketchy
 70
    24
 71
     1
 72
     2
 73
     2
 90
        0
 40
-0.6
 41
-30.0
 62
     5
 63
     7
421
 16777215
 74
     2
 91
        2
 64
     7
 65
     7
 75
     1
175
     1
 42
40.0
 92
       11
 66
     7
 43
1.0
 76
     1
 77
     6
 78
     2
 67
     7
 79
     6
170
     0
171
     0
290
     0
174
     0
 93
        1
 44
0.0
173
     0
291
     0
 45
0.0
1001
ACAD
1000
AcDbSavedByObjectVersion
1070
     0
  0
VISUALSTYLE
  5
6F
102
{ACAD_XDICTIONARY
360
1B4E
102
}
102
{ACAD_REACTORS
330
62
102
}
330
62
100
AcDbVisualStyle
  2
Thicken
 70
    13
 71
     2
 72
     2
 73
     0
 90
        0
 40
-0.6
 41
-30.0
 62
     5
 63
     7
421
 16777215
 74
     1
 91
        4
 64
     7
 65
   257
 75
     1
175
     1
 42
1.0
 92
       12
 66
     7
 43
1.0
 76
     1
 77
     6
 78
     2
 67
     7
 79
     5
170
     0
171
     0
290
     0
174
     0
 93
        1
 44
0.0
173
     0
291
     1
 45
0.0
1001
ACAD
1000
AcDbSavedByObjectVersion
1070
     0
  0
VISUALSTYLE
  5
69
102
{ACAD_XDICTIONARY
360
1B42
102
}
102
{ACAD_REACTORS
330
62
102
}
330
62
100
AcDbVisualStyle
  2
Wireframe
 70
     5
 71
     0
 72
     2
 73
     0
 90
        0
 40
-0.6
 41
-30.0
 62
     5
 63
     7
421
 16777215
 74
     1
 91
        4
 64
     7
 65
   257
 75
     1
175
     1
 42
1.0
 92
        0
 66
   257
 43
1.0
 76
     1
 77
     6
 78
     2
 67
     7
 79
     3
170
     0
171
     0
290
     0
174
     0
 93
        1
 44
0.0
173
     0
291
     0
 45
0.0
1001
ACAD
1000
AcDbSavedByObjectVersion
1070
     0
  0
VISUALSTYLE
  5
75
102
{ACAD_XDICTIONARY
360
1B5A
102
}
102
{ACAD_REACTORS
330
62
102
}
330
62
100
AcDbVisualStyle
  2
X-Ray
 70
    25
 71
     2
 72
     2
 73
     1
 90
        1
 40
0.5
 41
-30.0
 62
     5
 63
     7
421
 16777215
 74
     1
 91
        0
 64
     7
 65
   257
 75
     1
175
     1
 42
1.0
 92
        8
 66
     7
 43
1.0
 76
     1
 77
     6
 78
     2
 67
     7
 79
     3
170
     0
171
     0
290
     0
174
     0
 93
       13
 44
0.0
173
     0
291
     0
 45
0.0
1001
ACAD
1000
AcDbSavedByObjectVersion
1070
     0
  0
DICTIONARYVAR
  5
750
102
{ACAD_REACTORS
330
74B
102
}
330
74B
100
DictionaryVariables
280
     0
  1
1:1
  0
DICTIONARYVAR
  5
74D
102
{ACAD_REACTORS
330
74B
102
}
330
74B
100
DictionaryVariables
280
     0
  1
STANDARD
  0
DICTIONARYVAR
  5
74C
102
{ACAD_REACTORS
330
74B
102
}
330
74B
100
DictionaryVariables
280
     0
  1
STANDARD
  0
DICTIONARYVAR
  5
74E
102
{ACAD_REACTORS
330
74B
102
}
330
74B
100
DictionaryVariables
280
     0
  1
Imperial24
  0
DICTIONARYVAR
  5
74F
102
{ACAD_REACTORS
330
74B
102
}
330
74B
100
DictionaryVariables
280
     0
  1
Imperial24
  0
DICTIONARYVAR
  5
1B30
102
{ACAD_REACTORS
330
74B
102
}
330
74B
100
DictionaryVariables
280
     0
  1
2
  0
DICTIONARY
  5
1B6B
330
96
100
AcDbDictionary
280
     1
281
     1
  3
ACAD_XREC_ROUNDTRIP
360
1B6C
  0
DICTIONARY
  5
1B6F
330
119
100
AcDbDictionary
280
     1
281
     1
  3
ACAD_XREC_ROUNDTRIP
360
1B70
  0
DICTIONARY
  5
742
330
98
100
AcDbDictionary
280
     1
281
     1
  3
ADSK_XREC_LAYOUTTHUMBNAIL
360
743
  0
DICTIONARY
  5
53
330
52
100
AcDbDictionary
280
     1
281
     1
  3
ACAD_XREC_ROUNDTRIP
360
1B34
  3
BUMPTILE
360
55
  3
DIFFUSETILE
360
54
  3
OPACITYTILE
360
58
  3
REFLECTIONTILE
360
57
  3
REFRACTIONTILE
360
59
  3
SPECULARTILE
360
56
  0
DICTIONARY
  5
4B
330
4A
100
AcDbDictionary
280
     1
281
     1
  3
ACAD_XREC_ROUNDTRIP
360
1B33
  3
BUMPTILE
360
4D
  3
DIFFUSETILE
360
4C
  3
OPACITYTILE
360
50
  3
REFLECTIONTILE
360
4F
  3
REFRACTIONTILE
360
51
  3
SPECULARTILE
360
4E
  0
DICTIONARY
  5
5B
330
5A
100
AcDbDictionary
280
     1
281
     1
  3
ACAD_XREC_ROUNDTRIP
360
1B35
  3
BUMPTILE
360
5D
  3
DIFFUSETILE
360
5C
  3
OPACITYTILE
360
60
  3
REFLECTIONTILE
360
5F
  3
REFRACTIONTILE
360
61
  3
SPECULARTILE
360
5E
  0
DICTIONARY
  5
1B67
330
92
100
AcDbDictionary
280
     1
281
     1
  3
ACAD_XREC_ROUNDTRIP
360
1B68
  0
XRECORD
  5
746
102
{ACAD_REACTORS
330
745
102
}
330
745
100
AcDbXrecord
280
     1
 70
     2
 71
     3
 72
     0
  0
DICTIONARY
  5
1B69
330
94
100
AcDbDictionary
280
     1
281
     1
  3
ACAD_XREC_ROUNDTRIP
360
1B6A
  0
DICTIONARY
  5
1B6D
330
118
100
AcDbDictionary
280
     1
281
     1
  3
ACAD_XREC_ROUNDTRIP
360
1B6E
  0
DICTIONARY
  5
6FA
330
7E
100
AcDbDictionary
280
     1
281
     1
  3
ACAD_ROUNDTRIP_2008_TABLESTYLE_CELLSTYLEMAP
360
1B31
  3
ACAD_XREC_ROUNDTRIP
360
1B66
  0
DICTIONARY
  5
1B40
330
68
100
AcDbDictionary
280
     1
281
     1
  3
ACAD_XREC_ROUNDTRIP
360
1B41
  0
DICTIONARY
  5
1B3E
330
67
100
AcDbDictionary
280
     1
281
     1
  3
ACAD_XREC_ROUNDTRIP
360
1B3F
  0
DICTIONARY
  5
1B4C
330
6E
100
AcDbDictionary
280
     1
281
     1
  3
ACAD_XREC_ROUNDTRIP
360
1B4D
  0
DICTIONARY
  5
1B54
330
72
100
AcDbDictionary
280
     1
281
     1
  3
ACAD_XREC_ROUNDTRIP
360
1B55
  0
DICTIONARY
  5
1B46
330
6B
100
AcDbDictionary
280
     1
281
     1
  3
ACAD_XREC_ROUNDTRIP
360
1B47
  0
DICTIONARY
  5
1B4A
330
6D
100
AcDbDictionary
280
     1
281
     1
  3
ACAD_XREC_ROUNDTRIP
360
1B4B
  0
DICTIONARY
  5
1B64
330
7A
100
AcDbDictionary
280
     1
281
     1
  3
ACAD_XREC_ROUNDTRIP
360
1B65
  0
DICTIONARY
  5
1B52
330
71
100
AcDbDictionary
280
     1
281
     1
  3
ACAD_XREC_ROUNDTRIP
360
1B53
  0
DICTIONARY
  5
1B36
330
63
100
AcDbDictionary
280
     1
281
     1
  3
ACAD_XREC_ROUNDTRIP
360
1B37
  0
DICTIONARY
  5
1B38
330
64
100
AcDbDictionary
280
     1
281
     1
  3
ACAD_XREC_ROUNDTRIP
360
1B39
  0
DICTIONARY
  5
1B3A
330
65
100
AcDbDictionary
280
     1
281
     1
  3
ACAD_XREC_ROUNDTRIP
360
1B3B
  0
DICTIONARY
  5
1B3C
330
66
100
AcDbDictionary
280
     1
281
     1
  3
ACAD_XREC_ROUNDTRIP
360
1B3D
  0
DICTIONARY
  5
1B44
330
6A
100
AcDbDictionary
280
     1
281
     1
  3
ACAD_XREC_ROUNDTRIP
360
1B45
  0
DICTIONARY
  5
1B60
330
78
100
AcDbDictionary
280
     1
281
     1
  3
ACAD_XREC_ROUNDTRIP
360
1B61
  0
DICTIONARY
  5
1B50
330
70
100
AcDbDictionary
280
     1
281
     1
  3
ACAD_XREC_ROUNDTRIP
360
1B51
  0
DICTIONARY
  5
1B62
330
79
100
AcDbDictionary
280
     1
281
     1
  3
ACAD_XREC_ROUNDTRIP
360
1B63
  0
DICTIONARY
  5
1B48
330
6C
100
AcDbDictionary
280
     1
281
     1
  3
ACAD_XREC_ROUNDTRIP
360
1B49
  0
DICTIONARY
  5
1B5E
330
77
100
AcDbDictionary
280
     1
281
     1
  3
ACAD_XREC_ROUNDTRIP
360
1B5F
  0
DICTIONARY
  5
1B5C
330
76
100
AcDbDictionary
280
     1
281
     1
  3
ACAD_XREC_ROUNDTRIP
360
1B5D
  0
DICTIONARY
  5
1B56
330
73
100
AcDbDictionary
280
     1
281
     1
  3
ACAD_XREC_ROUNDTRIP
360
1B57
  0
DICTIONARY
  5
1B58
330
74
100
AcDbDictionary
280
     1
281
     1
  3
ACAD_XREC_ROUNDTRIP
360
1B59
  0
DICTIONARY
  5
1B4E
330
6F
100
AcDbDictionary
280
     1
281
     1
  3
ACAD_XREC_ROUNDTRIP
360
1B4F
  0
DICTIONARY
  5
1B42
330
69
100
AcDbDictionary
280
     1
281
     1
  3
ACAD_XREC_ROUNDTRIP
360
1B43
  0
DICTIONARY
  5
1B5A
330
75
100
AcDbDictionary
280
     1
281
     1
  3
ACAD_XREC_ROUNDTRIP
360
1B5B
  0
XRECORD
  5
1B6C
102
{ACAD_REACTORS
330
1B6B
102
}
330
1B6B
100
AcDbXrecord
280
     1
102
DISPLAYNAME
  1
Imperial24
102
FLAGS
 90
        0
  0
XRECORD
  5
1B70
102
{ACAD_REACTORS
330
1B6F
102
}
330
1B6F
100
AcDbXrecord
280
     1
102
DISPLAYNAME
  1
Metric50
102
FLAGS
 90
        0
  0
XRECORD
  5
743
102
{ACAD_REACTORS
330
742
102
}
330
742
100
AcDbXrecord
280
     1
310
2800000000010000630000000100080000000000006300000100000001000000000100000000000000000000FFFFFF52000000FF000000FF000000FF000000FF000000FF000000FF000000FF000000FF000000FF330000FF660000FF990000FFCC0000FFFF0000FF003300FF333300FF663300FF993300FFCC3300FFFF3300
310
FF006600FF336600FF666600FF996600FFCC6600FFFF6600FF009900FF339900FF669900FF999900FFCC9900FFFF9900FF00CC00FF33CC00FF66CC00FF99CC00FFCCCC00FFFFCC00FF00FF00FF33FF00FF66FF00FF99FF00FFCCFF00FFFFFF00FF000033FF330033FF660033FF990033FFCC0033FFFF0033FF003333FF3333
310
33FF663333FF993333FFCC3333FFFF3333FF006633FF336633FF666633FF996633FFCC6633FFFF6633FF009933FF339933FF669933FF999933FFCC9933FFFF9933FF00CC33FF33CC33FF66CC33FF99CC33FFCCCC33FFFFCC33FF00FF33FF33FF33FF66FF33FF99FF33FFCCFF33FFFFFF33FF000066FF330066FF660066FF99
310
0066FFCC0066FFFF0066FF003366FF333366FF663366FF993366FFCC3366FFFF3366FF006666FF336666FF666666FF996666FFCC6666FFFF6666FF009966FF339966FF669966FF999966FFCC9966FFFF9966FF00CC66FF33CC66FF66CC66FF99CC66FFCCCC66FFFFCC66FF00FF66FF33FF66FF66FF66FF99FF66FFCCFF66FF
310
FFFF66FF000099FF330099FF660099FF990099FFCC0099FFFF0099FF003399FF333399FF663399FF993399FFCC3399FFFF3399FF006699FF336699FF666699FF996699FFCC6699FFFF6699FF009999FF339999FF669999FF999999FFCC9999FFFF9999FF00CC99FF33CC99FF66CC99FF99CC99FFCCCC99FFFFCC99FF00FF99
310
FF33FF99FF66FF99FF99FF99FFCCFF99FFFFFF99FF0000CCFF3300CCFF6600CCFF9900CCFFCC00CCFFFF00CCFF0033CCFF3333CCFF6633CCFF9933CCFFCC33CCFFFF33CCFF0066CCFF3366CCFF6666CCFF9966CCFFCC66CCFFFF66CCFF0099CCFF3399CCFF6699CCFF9999CCFFCC99CCFFFF99CCFF00CCCCFF33CCCCFF66CC
310
CCFF99CCCCFFCCCCCCFFFFCCCCFF00FFCCFF33FFCCFF66FFCCFF99FFCCFFCCFFCCFFFFFFCCFF0000FFFF3300FFFF6600FFFF9900FFFFCC00FFFFFF00FFFF0033FFFF3333FFFF6633FFFF9933FFFFCC33FFFFFF33FFFF0066FFFF3366FFFF6666FFFF9966FFFFCC66FFFFFF66FFFF0099FFFF3399FFFF6699FFFF9999FFFFCC
310
99FFFFFF99FFFF00CCFFFF33CCFFFF66CCFFFF99CCFFFFCCCCFFFFFFCCFFFF00FFFFFF33FFFFFF66FFFFFF99FFFFFFCCFFFFFFFFFFFFFF000000FF0D0D0DFF1A1A1AFF282828FF353535FF434343FF505050FF5D5D5DFF6B6B6BFF787878FF868686FF939393FFA1A1A1FFAEAEAEFFBBBBBBFFC9C9C9FFD6D6D6FFE4E4E4FF
310
F1F1F1FFFFFFFFFF000000FF000000FF000000FF000000FF000000FF000000FF000000FF000000FF000000FF000000FF00000000000000000000000000000000000000000000000000000000000000000000000000000000000000000000000000000000000000000000000000000000000000000000000000000000000000
310
00000000000000000000000000000000000000000000000000000000000000000000000000000000000000000000000000000000000000000000000000000000000000000000000000000000000000000000000000000000000000000000000000000000000000000000000000000000000000000000000000000000000000
310
0000000000000000000000000000000000000000000000000000000000000000000000000000000000000000000000000000000000000000000000000000000000000000000000000000000000000000000000000000000000000000000000000000000000000000000000000000F5F5F5F5F5F5F5F5F5F5F5F5F5F5F5F5F5
310
F5F5F5F5F5F5F5F5F5F5F5F5F5F5F5F5F5F5F5F5F5F5F5F5F5F5F5F5F5F5F5F5F5F5F5F5F5F5F5F5F5F5F5F5F5F5F5F5F5F5F5F5F5F5F5F5F5F5F5F5F5F5F5F5F5F5F5F5F5F5F5F5F5F5F5F5F5F5F5F5F5F5F5F5F5F5F5F5F5F5F5F5F5F5F5F5F5F5F5F5F5F5F5F5F5F5F5F5F5F5F5F5F5F5F5F5F5F5F50000000000000000
310
00000000000000000000000000000000000000000000000000000000000000000000000000000000000000000000000000000000000000000000000000000000000000000000000000000000000000000000000000000000000000000000000000000000000000000000000000000000F50000000000000000000000000000
310
000000000000000000000000000000000000000000000000000000000000000000000000000000000000000000000000000000000000000000000000000000000000000000000000000000000000000000000000000000000000000000000000000000000000000000000000000000000000000000F50000F5000000000000
310
000000000000000000000000000000000000000000000000000000000000000000000000000000000000000000000000000000000000000000000000000000000000000000000000000000000000000000000000000000000000000000000000000000000000000000000000000000000000F5000000000000000000000000
310
0000000000000000000000000000000000000000000000000000000000000000000000000000000000000000000000000000000000000000000000000000000000000000000000000000000000000000000000000000000000000000000000000000000000000000000000000000000000000000000000F50000F500000000
310
0000000000000000000000000000000000000000000000000000000000000000000000000000000000000000000000000000000000000000000000000000000000000000000000000000000000000000000000000000000000000000000000000000000000000000000000000000000000000000F500000000000000000000
310
00000000000000000000000000000000000000000000000000000000000000000000000000000000000000000000000000000000000000000000000000000000000000000000000000000000000000000000000000000000000000000000000000000000000000000000000000000000000000000000000000F50000F50000
310
00000000000000000000000000000000000000000000000000000000000000000000000000000000000000000000000000000000000000000000000000000000000000000000000000000000000000000000000000000000000000000000000000000000000000000000000000000000000000000000F50000000000000000
310
000000000000000000000000000000000000000000000000000000000000000000000000000000000000000000000000000000000000000000000000000000000000000000000000000000000000000000000000000000000000000000000000000000000000000000000000000000000000000000000000000000F50000F5
310
000000000000000000000000000000000000000000000000000000000000000000000000000000000000000000000000000000000000000000000000000000000000000000000000000000000000000000000000000000000000000000000000000000000000000000000000000000000000000000000000F5000000000000
310
0000000000000000000000000000000000000000000000000000000000000000000000000000000000000000000000000000000000000000000000000000000000000000000000000000000000000000000000000000000000000000000000000000000000000000000000000000000000000000000000000000000000F500
310
00F5000000000000000000000000000000000000000000000000000000000000000000000000000000000000000000000000000000000000000000000000000000000000000000000000000000000000000000000000000000000000000000000000000000000000000000000000000000000000000000000000F500000000
310
00000000000000000000000000000000000000000000000000000000000000000000000000000000000000000000000000000000000000000000000000000000000000000000000000000000000000000000000000000000000000000000000000000000000000000000000000000000000000000000000000000000000000
310
F50000F5000000000000000000000000000000000000000000000000000000000000000000000000000000000000000000000000000000000000000000000000000000000000000000000000000000000000000000000000000000000000000000000000000000000000000000000000000000000000000000000000F50000
310
00000000000000000000000000000000000000000000000000000000000000000000000000000000000000000000000000000000000000000000000000000000000000000000000000000000000000000000000000000000000000000000000000000000000000000000000000000000000000000000000000000000000000
310
0000F50000F5000000000000000000000000000000000000000000000000000000000000000000000000000000000000000000000000000000000000000000000000000000000000000000000000000000000000000000000000000000000000000000000000000000000000000000000000000000000000000000000000F5
310
00000000000000000000000000000000000000000000000000000000000000000000000000000000000000000000000000000000000000000000000000000000000000000000000000000000000000000000000000000000000000000000000000000000000000000000000000000000000000000000000000000000000000
310
00000000F50000F50000000000000000000000000000000000000000000000000000000000000000000000000000000000000000000000000000000000000000000000000000000000000000000000000000000000000000000000000000000000000000000000000000000000000000000000000000000000000000000000
310
00F50000000000000000000000000000000000000000000000000000000000000000000000000000000000000000000000000000000000000000000000000000000000000000000000000000000000000000000000000000000000000000000000000000000000000000000000000000000000000000000000000000000000
310
000000000000F50000F5000000000000000000000000000000000000000000000000000000000000000000000000000000000000000000000000000000000000000000000000000000000000000000000000000000000000000000000000000000000000000000000000000000000000000000000000000000000000000000
310
000000F5000000000000000000000000000000000000000000000000000000000000000000000000000000000000000000000000000000000000000000000000000000000000000000000000000000000000000000000000000000000000000000000000000000000000000000000000000000000000000000000000000000
310
0000000000000000F50000F500000000000000000000000000000000000000000000000000000000000000000000000000000000000000000000000000000000000000000000000000000000000000000000000000000000000000000000000000000000000000000000000000000000000000000000000000000000000000
310
0000000000F500000000000000000000000000000000000000000000000000000000000000000000000000000000000000000000000000000000000000000000000000000000000000000000000000000000000000000000000000000000000000000000000000000000000000000000000000000000000000000000000000
310
00000000000000000000F50000F50000000000000000000000000000000000000000000000000000000000000000000000000000000000000000000000000000000000000000000000000000000000000000000000000000000000000000000000000000000000000000000000000000000000000000000000000000000000
310
00000000000000F50000000000000000000000000000000000000000000000000000000000000000000000000000000000000000000000000000000000000000000000000000000000000000000000000000000000000000000000000000000000000000000000000000000000000000000000000000000000000000000000
310
000000000000000000000000F50000F5000000000000000000000000000000000000000000000000000000000000000000000000000000000000000000000000000000000000000000000000000000000000000000000000000000000000000000000000000000000000000000000000000000000000000000000000000000
310
000000000000000000F5000000000000000000000000000000000000000000000000000000000000000000000000000000000000000000000000000000000000000000000000000000000000000000000000000000000000000000000000000000000000000000000000000000000000000000000000000000000000000000
310
0000000000000000000000000000F50000F500000000000000000000000000000000000000000000000000000000000000000000000000000000000000000000000000000000000000000000000000000000000000000000000000000000000000000000000000000000000000000000000000000000000000000000000000
310
0000000000000000000000F500000000000000000000000000000000000000000000000000000000000000000000000000000000000000000000000000000000000000000000000000000000000000000000000000000000000000000000000000000000000000000000000000000000000000000000000000000000000000
310
00000000000000000000000000000000F50000F50000000000000000000000000000000000000000000000000000000000000000000000000000000000000000000000000000000000000000000000000000000000000000000000000000000000000000000000000000000000000000000000000000000000000000000000
310
00000000000000000000000000F50000000000000000000000000000000000000000000000000000000000000000000000000000000000000000000000000000000000000000000000000000000000000000000000000000000000000000000000000000000000000000000000000000000000000000000000000000000000
310
000000000000000000000000000000000000F50000F5000000000000000000000000000000000000000000000000000000000000000000000000000000000000000000000000000000000000000000000000000000000000000000000000000000000000000000000000000000000000000000000000000000000000000000
310
000000000000000000000000000000F5000000000000000000000000000000000000000000000000000000000000000000000000000000000000000000000000000000000000000000000000000000000000000000000000000000000000000000000000000000000000000000000000000000000000000000000000000000
310
0000000000000000000000000000000000000000F50000F500000000000000000000000000000000000000000000000000000000000000000000000000000000000000000000000000000000000000000000000000000000000000000000000000000000000000000000000000000000000000000000000000000000000000
310
0000000000000000000000000000000000F500000000000000000000000000000000000000000000000000000000000000000000000000000000000000000000000000000000000000000000000000000000000000000000000000000000000000000000000000000000000000000000000000000000000000000000000000
310
00000000000000000000000000000000000000000000F50000F50000000000000000000000000000000000000000000000000000000000000000000000000000000000000000000000000000000000000000000000000000000000000000000000000000000000000000000000000000000000000000000000000000000000
310
00000000000000000000000000000000000000F50000000000000000000000000000000000000000000000000000000000000000000000000000000000000000000000000000000000000000000000000000000000000000000000000000000000000000000000000000000000000000000000000000000000000000000000
310
000000000000000000000000000000000000000000000000F50000F5000000000000000000000000000000000000000000000000000000000000000000000000000000000000000000000000000000000000000000000000000000000000000000000000000000000000000000000000000000000000000000000000000000
310
000000000000000000000000000000000000000000F5000000000000000000000000000000000000000000000000000000000000000000000000000000000000000000000000000000000000000000000000000000000000000000000000000000000000000000000000000000000000000000000000000000000000000000
310
0000000000000000000000000000000000000000000000000000F50000F500000000000000000000000000000000000000000000000000000000000000000000000000000000000000000000000000000000000000000000000000000000000000000000000000000000000000000000000000000000000000000000000000
310
0000000000000000000000000000000000000000000000F500000000000000000000000000000000000000000000000000000000000000000000000000000000000000000000000000000000000000000000000000000000000000000000000000000000000000000000000000000000000000000000000000000000000000
310
00000000000000000000000000000000000000000000000000000000F50000F50000000000000000000000000000000000000000000000000000000000000000000000000000000000000000000000000000000000000000000000000000000000000000000000000000000000000000000000000000000000000000000000
310
00000000000000000000000000000000000000000000000000F50000000000000000000000000000000000000000000000000000000000000000000000000000000000000000000000000000000000000000000000000000000000000000000000000000000000000000000000000000000000000000000000000000000000
310
000000000000000000000000000000000000000000000000000000000000F50000F5000000000000000000000000000000000000000000000000000000000000000000000000000000000000000000000000000000000000000000000000000000000000000000000000000000000000000000000000000000000000000000
310
000000000000000000000000000000000000000000000000000000F5000000000000000000000000000000000000000000000000000000000000000000000000000000000000000000000000000000000000000000000000000000000000000000000000000000000000000000000000000000000000000000000000000000
310
0000000000000000000000000000000000000000000000000000000000000000F50000F500000000000000000000000000000000000000000000000000000000000000000000000000000000000000000000000000000000000000000000000000000000000000000000000000000000000000000000000000000000000000
310
0000000000000000000000000000000000000000000000000000000000F50000000000000000000000000000000000000000000000000000000000000000000000000000000000000000DC0000000000000000000000000000DC00000000000000000000000000000000000000000000000000000000000000000000000000
310
00000000000000000000000000000000000000000000000000000000000000000000F50000F50000000000000000000000000000000000000000000000000000000000000000000000000000000000000000000000000000000000000000000000000000000000000000000000000000000000000000000000000000000000
310
00000000000000000000000000000000000000000000000000000000000000F500000000000000000000000000000000000000000000000000000000000000000000000000000000000000DCDCDCDCDCDCDCDCDCDCDCDCDCDCDCDCDCDC00000000000000000000000000000000000000000000000000000000000000000000
310
000000000000000000000000000000000000000000000000000000000000000000000000F50000F5000000000000000000000000000000000000000000000000000000000000000000000000000000000000000000000000000000000000000000000000000000000000000000000000000000000000000000000000000000
310
000000000000000000000000000000000000000000000000000000000000000000F500000000000000000000000000000000000000000000000000000000000000000000000000000000000000DCDC0000000000000000000000000000DCDC0000000000000000000000000000000000000000000000000000000000000000
310
0000000000000000000000000000000000000000000000000000000000000000000000000000F50000F500000000000000000000000000000000000000000000000000000000000000000000000000000000000000000000000000000000000000000000000000000000000000000000000000000000000000000000000000
310
0000000000000000000000000000000000000000000000000000000000000000000000F5000000000000000000000000000000000000000000000000000000000000000000000000000000000000DCDCDCDCDCDCDCDCDCDCDCDCDCDCDCDCDCDCDCDC0000000000000000000000000000000000000000000000000000000000
310
00000000000000000000000000000000000000000000000000000000000000000000000000000000F50000F50000000000000000000000000000000000000000000000000000000000000000000000000000000000000000000000000000000000000000000000000000000000000000000000000000000000000000000000
310
00000000000000000000000000000000000000000000000000000000000000000000000000F500000000000000000000000000000000000000000000000000000000000000000000000000000000000000DCDC0000000000000000000000000000DCDC00000000000000000000000000000000000000000000000000000000
310
000000000000000000000000000000000000000000000000000000000000000000000000000000000000F50000F5000000000000000000000000000000000000000000000000000000000000000000000000000000000000000000000000000000000000000000000000000000000000000000000000000000000000000000
310
000000000000000000000000000000000000000000000000000000000000000000000000000000F5000000000000000000000000000000000000000000000000000000000000000000000000000000000000DCDCDCDCDCDCDCDCDCDCDCDCDCDCDCDCDCDCDCDC00000000000000000000000000000000000000000000000000
310
0000000000000000000000000000000000000000000000000000000000000000000000000000000000000000F50000F500000000000000000000000000000000000000000000000000000000000000000000000000000000000000000000000000000000000000000000000000000000000000000000000000000000000000
310
0000000000000000000000000000000000000000000000000000000000000000000000000000000000F500000000000000000000000000000000000000000000000000000000000000000000000000000000000000DC00000000000000000000000000000000DC000000000000000000000000000000000000000000000000
310
00000000000000000000000000000000000000000000000000000000000000000000000000000000000000000000F50000F50000000000000000000000000000000000000000000000000000000000000000000000000000000000000000000000000000000000000000000000000000000000000000000000000000000000
310
00000000000000000000000000000000000000000000000000000000000000000000000000000000000000F500000000000000000000000000000000000000000000000000000000000000000000000000000000000000DCDC00000000000000000000000000DCDCDC00000000000000000000000000000000000000000000
310
000000000000000000000000000000000000000000000000000000000000000000000000000000000000000000000000F50000F5000000000000000000000000000000000000000000000000000000000000000000000000000000000000000000000000000000000000000000000000000000000000000000000000000000
310
000000000000000000000000000000000000000000000000000000000000000000000000000000000000000000F500000000000000000000000000000000000000000000000000000000000000000000000000000000000000DC000000000000000000000000000000DCDC0000000000000000000000000000000000000000
310
0000000000000000000000000000000000000000000000000000000000000000000000000000000000000000000000000000F50000F500000000000000000000000000000000000000000000000000000000000000000000000000000000000000000000000000000000000000000000000000000000000000000000000000
310
0000000000000000000000000000000000000000000000000000000000000000000000000000000000000000000000F50000000000000000000000000000000000000000000000000000000000000000000000000000000000002D2D2D2D2D2D2D2D2D2D2D2D2D2D2D2D2D2D2DF5DC00000000000000000000000000000000
310
00000000000000000000000000000000000000000000000000000000000000000000000000000000000000000000000000000000F50000F50000000000000000000000000000000000000000000000000000000000000000000000000000000000000000000000000000000000000000000000000000000000000000000000
310
00000000000000000000000000000000000000000000000000000000000000000000000000000000000000000000000000F5000000000000000000000000000000000000000000000000000000000000000000000000000000000000F52D2D2D2D2D2D2D2D2D2D2D2DDCDCDC2D2D2DDCDCDC00000000000000000000000000
310
000000000000000000000000000000000000000000000000000000000000000000000000000000000000000000000000000000000000F50000F5000000000000000000000000000000000000000000000000000000000000000000000000000000000000000000000000000000000000000000000000000000000000000000
310
000000000000000000000000000000000000000000000000000000000000000000000000000000000000000000000000000000F5000000000000000000000000000000000000000000000000000000000000000000000000000000000000F5F52D2D2D2D2D2D2D2D2D2D2DDCDCDC2D2DF5DCDCDC0000000000000000000000
310
0000000000000000000000000000000000000000000000000000000000000000000000000000000000000000000000000000000000000000F50000F500000000000000000000000000000000000000000000000000000000000000000000000000000000000000000000000000000000000000000000000000000000000000
310
0000000000000000000000000000000000000000000000000000000000000000000000000000000000000000000000000000000000F500000000000000000000000000000000000000000000000000000000000000000000000000000000000000000000000000000000000000DC000000000000DC00000000000000000000
310
00000000000000000000000000000000000000000000000000000000000000000000000000000000000000000000000000000000000000000000F50000F50000000000000000000000000000000000000000000000000000000000000000000000000000000000000000000000000000000000000000000000000000000000
310
00000000000000000000000000000000000000000000000000000000000000000000000000000000000000000000000000000000000000F50000000000000000000000000000000000000000000000000000000000000000000000000000000000000000000000000000000000000000000000000000000000000000000000
310
000000000000000000000000000000000000000000000000000000000000000000000000000000000000000000000000000000000000000000000000F50000F5000000000000000000000000000000000000000000000000000000000000000000000000000000000000000000000000000000000000000000000000000000
310
000000000000000000000000000000000000000000000000000000000000000000000000000000000000000000000000000000000000000000F5000000000000000000000000000000000000000000000000000000000000000000000000000000000000000000000000000000000000000000000000000000000000000000
310
0000000000000000000000000000000000000000000000000000000000000000000000000000000000000000000000000000000000000000000000000000F50000F500000000000000000000000000000000000000000000000000000000000000000000000000000000000000000000000000000000000000000000000000
310
0000000000000000000000000000000000000000000000000000000000000000000000000000000000000000000000000000000000000000000000F500000000000000000000000000000000000000000000000000000000000000000000000000000000000000000000000000000000000000000000000000000000000000
310
00000000000000000000000000000000000000000000000000000000000000000000000000000000000000000000000000000000000000000000000000000000F50000F50000000000000000000000000000000000000000000000000000000000000000000000000000000000000000000000000000000000000000000000
310
00000000000000000000000000000000000000000000000000000000000000000000000000000000000000000000000000000000000000000000000000F50000000000000000000000000000000000000000000000000000000000000000000000000000000000000000000000000000000000000000000000000000000000
310
000000000000000000000000000000000000000000000000000000000000000000000000000000000000000000000000000000000000000000000000000000000000F50000F5000000000000000000000000000000000000000000000000000000000000000000000000000000000000000000000000000000000000000000
310
000000000000000000000000000000000000000000000000000000000000000000000000000000000000000000000000000000000000000000000000000000F5000000000000000000000000000000000000000000000000000000000000000000000000000000000000000000000000000000000000000000000000000000
310
0000000000000000000000000000000000000000000000000000000000000000000000000000000000000000000000000000000000000000000000000000000000000000F50000F500000000000000000000000000000000000000000000000000000000000000000000000000000000000000000000000000000000000000
310
0000000000000000000000000000000000000000000000000000000000000000000000000000000000000000000000000000000000000000000000000000000000F500000000000000000000000000000000000000000000000000000000000000000000000000000000000000000000000000000000000000000000000000
310
00000000000000000000000000000000000000000000000000000000000000000000000000000000000000000000000000000000000000000000000000000000000000000000F50000F50000000000000000000000000000000000000000000000000000000000000000000000000000000000000000000000000000000000
310
00000000000000000000000000000000000000000000000000000000000000000000000000000000000000000000000000000000000000000000000000000000000000F50000000000000000000000000000000000000000000000000000000000000000000000000000000000000000000000000000000000000000000000
310
000000000000000000000000000000000000000000000000000000000000000000000000000000000000000000000000000000000000000000000000000000000000000000000000F50000F5000000000000000000000000000000000000000000000000000000000000000000000000000000000000000000000000000000
310
000000000000000000000000000000000000000000000000000000000000000000000000000000000000000000000000000000000000000000000000000000000000000000F5000000000000000000000000000000000000000000000000000000000000000000000000000000000000000000000000000000000000000000
310
0000000000000000000000000000000000000000000000000000000000000000000000000000000000000000000000000000000000000000000000000000000000000000000000000000F50000F500000000000000000000000000000000000000000000000000000000000000000000000000000000000000000000000000
310
0000000000000000000000000000000000000000000000000000000000000000000000000000000000000000000000000000000000000000000000000000000000000000000000F500000000000000000000000000000000000000000000000000000000000000000000000000000000000000000000000000000000000000
310
00000000000000000000000000000000000000000000000000000000000000000000000000000000000000000000000000000000000000000000000000000000000000000000000000000000F50000F50000000000000000000000000000000000000000000000000000000000000000000000000000000000000000000000
310
00000000000000000000000000000000000000000000000000000000000000000000000000000000000000000000000000000000000000000000000000000000000000000000000000F50000000000000000000000000000000000000000000000000000000000000000000000000000000000000000000000000000000000
310
000000000000000000000000000000000000000000000000000000000000000000000000000000000000000000000000000000000000000000000000000000000000000000000000000000000000F50000F5000000000000000000000000000000000000000000000000000000000000000000000000000000000000000000
310
000000000000000000000000000000000000000000000000000000000000000000000000000000000000000000000000000000000000000000000000000000000000000000000000000000F5000000000000000000000000000000000000000000000000000000000000000000000000000000000000000000000000000000
310
0000000000000000000000000000000000000000000000000000000000000000000000000000000000000000000000000000000000000000000000000000000000000000000000000000000000000000F50000F500000000000000000000000000000000000000000000000000000000000000000000000000000000000000
310
0000000000000000000000000000000000000000000000000000000000000000000000000000000000000000000000000000000000000000000000000000000000000000000000000000000000F500000000000000000000000000000000000000000000000000000000000000000000000000000000000000000000000000
310
00000000000000000000000000000000000000000000000000000000000000000000000000000000000000000000000000000000000000000000000000000000000000000000000000000000000000000000F50000F50000000000000000000000000000000000000000000000000000000000000000000000000000000000
310
00000000000000000000000000000000000000000000000000000000000000000000000000000000000000000000000000000000000000000000000000000000000000000000000000000000000000F500000000000000000000000000000000000000000000000000000000000000000000000000000000000000DCDCDCDC
310
DCDCDCDCDCDCDCDCDCDCDCDCDCDC00000000000000000000000000000000000000000000000000000000000000000000000000000000000000000000000000000000000000000000000000000000000000000000F50000F5000000000000000000000000000000000000000000000000000000000000000000000000000000
310
000000000000000000000000000000000000000000000000000000000000000000000000000000000000000000000000000000000000000000000000000000000000000000000000000000000000000000F500000000000000000000000000000000000000000000000000000000000000000000000000000000000000DCDC
310
000000DCDCDCDCDCDCDCDC000000DCDC0000000000000000000000000000000000DCDCDCDC00000000000000000000000000000000000000000000000000000000000000000000000000000000000000000000000000F50000F500000000000000000000000000000000000000000000000000000000000000000000000000
310
0000000000000000000000000000000000000000000000000000000000000000000000000000000000000000000000000000000000000000000000000000000000000000000000000000000000000000000000F5000000000000000000000000000000000000000000000000000000000000000000000000000000000000DC
310
DCDCDCDCDCDCDCDCDCDCDCDCDCDCDCDCDCDCDC0000000000000000000000000000DCDCDCDCDCDC00000000000000000000000000000000000000000000000000000000000000000000000000000000000000000000000000F50000F50000000000000000000000000000000000000000000000000000000000000000000000
310
00000000000000000000000000000000000000000000000000000000000000000000000000000000000000000000000000000000000000000000000000000000000000000000000000000000000000000000000000F50000000000000000000000000000000000000000000000000000000000000000000000000000000000
310
00DCDC000000000000DCDCDCDC000000000000DCDCDC000000000000000000000000000000DCDCDC000000DC00000000000000000000000000000000000000000000000000000000000000000000000000000000000000000000F50000F5000000000000000000000000000000000000000000000000000000000000000000
310
000000000000000000000000000000000000000000000000000000000000000000000000000000000000000000000000000000000000000000000000000000000000000000000000000000000000000000000000000000F5000000000000000000000000000000000000000000000000000000000000000000000000000000
310
000000002D2D2D2D2D2D2D2D2D2D2D2D2D2D2D2D2D2DDCDC000000000000000000000000000000F52D2D000000DC00000000000000000000000000000000000000000000000000000000000000000000000000000000000000000000F50000F500000000000000000000000000000000000000000000000000000000000000
310
0000000000000000000000000000000000000000000000000000000000000000000000000000000000000000000000000000000000000000000000000000000000000000000000000000000000000000000000000000000000F500000000000000000000000000000000000000000000000000000000000000000000000000
310
0000000000002D2D2D2D2D2D2D2D2D2D2D2D2D2D2D2D2D2DDCDCDCDCDC0000000000000000000000002D2D2DDCDCDCDCDCDCDCDCDC0000000000000000000000000000000000000000000000000000000000000000000000000000000000F50000F50000000000000000000000000000000000000000000000000000000000
310
00000000000000000000000000000000000000000000000000000000000000000000000000000000000000000000000000000000000000000000000000000000000000000000000000000000000000000000000000000000000000F50000000000000000000000000000000000000000000000000000000000000000000000
310
00000000000000002D2D2D2D2D2D2D2D2D2D2D2D2D2D2D2D2D2D00DCDCDC000000000000000000000000002D2D2D00DC0000DCDCDCDC000000000000000000000000000000000000000000000000000000000000000000000000000000000000F50000F5000000000000000000000000000000000000000000000000000000
310
000000000000000000000000000000000000000000000000000000000000000000000000000000000000000000000000000000000000000000000000000000000000000000000000000000000000000000000000000000000000000000F5000000000000000000000000000000000000000000000000000000000000000000
310
000000000000000000002D2D0000000000002D2D0000000000002D2D00DCDCDC000000000000000000000000002D2D2D00000000DCDCDCDC000000000000000000000000000000000000000000000000000000000000000000000000000000000000F50000F500000000000000000000000000000000000000000000000000
310
0000000000000000000000000000000000000000000000000000000000000000000000000000000000000000000000000000000000000000000000000000000000000000000000000000000000000000000000000000000000000000000000F500000000000000000000000000000000000000000000000000000000000000
310
0000000000000000000000002D2D0000000000002D2D0000000000002D2DDCDCDCDC000000000000000000000000002D2D2D000000DCDCDCDCDC000000000000000000000000000000000000000000000000000000000000000000000000000000000000F50000F50000000000000000000000000000000000000000000000
310
00000000000000000000000000000000000000000000000000000000000000000000000000000000000000000000000000000000000000000000000000000000000000000000000000000000000000000000000000000000000000000000000000F50000000000000000000000000000000000000000000000000000000000
310
00000000000000000000000000002D2D0000000000002D2D0000000000002D2DDCDCDCDC000000000000000000000000002D2D2D000000DCDCDCDCDC000000000000000000000000000000000000000000000000000000000000000000000000000000000000F50000F5000000000000000000000000000000000000000000
310
000000000000000000000000000000000000000000000000000000000000000000000000000000000000000000000000000000000000000000000000000000000000000000000000000000000000000000000000000000000000000000000000000000F5000000000000000000000000000000000000000000000000000000
310
000000000000000000000000000000002D2D0000000000002D2D0000000000002D2DDCDCDCDC00000000000000000000000000DCDC2D000000DCDCDCDCDC000000000000000000000000000000000000000000000000000000000000000000000000000000000000F50000F500000000000000000000000000000000000000
310
0000000000000000000000000000000000000000000000000000000000000000000000000000000000000000000000000000000000000000000000000000000000000000000000000000000000000000000000000000000000000000000000000000000000F500000000000000000000000000000000000000000000000000
310
0000000000000000000000000000000000002D2D0000000000002D2D002D2D2D00002D2DDCDCDCDC000000000000000000000000DCDCDCDC000000DCDCDCDCDC000000000000000000000000000000000000000000000000000000000000000000000000000000000000F50000F50000000000000000000000000000000000
310
00000000000000000000000000000000000000000000000000000000000000000000000000000000000000000000000000000000000000000000000000000000000000000000000000000000000000000000000000000000000000000000000000000000000000F50000000000000000000000000000000000000000000000
310
00000000000000000000000000000000000000002D2D00002D2D2D002D2D002D000000002D2DDCDCDCDC000000000000000000000000DCDCDCDC000000DCDCDCDCDC000000000000000000000000000000000000000000000000000000000000000000000000000000000000F50000F5000000000000000000000000000000
310
000000000000000000000000000000000000000000000000000000000000000000000000000000000000000000000000000000000000000000000000000000000000000000000000000000000000000000000000000000000000000000000000000000000000000000F5000000000000000000000000000000000000000000
310
000000000000000000000000000000000000000000002D2D00002D2D2D002D2D0000000000002D2DDCDCDCDC000000000000000000000000002D2D2D000000DCDCDCDCDC000000000000000000000000000000000000000000000000000000000000000000000000000000000000F50000F500000000000000000000000000
310
0000000000000000000000000000000000000000000000000000000000000000000000000000000000000000000000000000000000000000000000000000000000000000000000000000000000000000000000000000000000000000000000000000000000000000000000F500000000000000000000000000000000000000
310
0000000000000000000000000000000000000000000000002D2D0000000000002D2D0000000000002D2D00DCDCDC000000000000000000000000002D2D2D00000000DCDCDCDC000000000000000000000000000000000000000000000000000000000000000000000000000000000000F50000F50000000000000000000000
310
00000000000000000000000000000000000000000000000000000000000000000000000000000000000000000000000000000000000000000000000000000000000000000000000000000000000000000000000000000000000000000000000000000000000000000000000000F50000000000000000000000000000000000
310
00000000000000000000000000000000000000000000000000002D2D2D2D2D2D2D2D2D2D2D2D2D2D2D2D2D2D00DCDCDCDC0000000000000000000000002D2D2D00DC00DCDCDCDCDCDC0000000000000000000000000000000000000000000000000000000000000000000000000000000000F50000F5000000000000000000
310
000000000000000000000000000000000000000000000000000000000000000000000000000000000000000000000000000000000000000000000000000000000000000000000000000000000000000000000000000000000000000000000000000000000000000000000000000000F5000000000000000000000000000000
310
000000000000000000000000000000000000000000000000000000002D2D2D2D2D2D2D2D2D2D2D2D2D2D2D2D2D2DDCDCDCDC00000000000000000000000000F52D2DDCDCDCDCDCDCDCDC000000000000000000000000000000000000000000000000000000000000000000000000000000000000F50000F500000000000000
310
0000000000000000000000000000000000000000000000000000000000000000000000000000000000000000000000000000000000000000000000000000000000000000000000000000000000000000000000000000000000000000000000000000000000000000000000000000000000F500000000000000000000000000
310
0000000000000000000000000000000000000000000000000000000000002D2D2D2D2D2D2D2D2D2D2D2D2D2D2D2D2D2DDCDC000000000000000000000000000000F5F52D000000DC00DC0000000000000000000000000000000000000000000000000000000000000000000000000000000000000000F50000F50000000000
310
00000000000000000000000000000000000000000000000000000000000000000000000000000000000000000000000000000000000000000000000000000000000000000000000000000000000000000000000000000000000000000000000000000000000000000000000000000000000000F50000000000000000000000
310
000000000000000000000000000000000000000000000000000000000000000000000000000000000000000000000000000000000000000000000000000000000000000000000000000000000000000000000000000000000000000000000000000000000000000000000000000000000000000000000000F50000F5000000
310
000000000000000000000000000000000000000000000000000000000000000000000000000000000000000000000000000000000000000000000000000000000000000000000000000000000000000000000000000000000000000000000000000000000000000000000000000000000000000000F5000000000000000000
310
0000000000000000000000000000000000000000000000000000000000000000000000000000000000000000000000000000000000000000000000000000000000000000000000000000000000000000000000000000000000000000000000000000000000000000000000000000000000000000000000000000F50000F500
310
0000000000000000000000000000000000000000000000000000000000000000000000000000000000000000000000000000000000000000000000000000000000000000000000000000000000000000000000000000000000000000000000000000000000000000000000000000000000000000000000F500000000000000
310
00000000000000000000000000000000000000000000000000000000000000000000000000000000000000000000000000000000000000000000000000000000000000000000000000000000000000000000000000000000000000000000000000000000000000000000000000000000000000000000000000000000F50000
310
F5000000000000000000000000000000000000000000000000000000000000000000000000000000000000000000000000000000000000000000000000000000000000000000000000000000000000000000000000000000000000000000000000000000000000000000000000000000000000000000000000F50000000000
310
000000000000000000000000000000000000000000000000000000000000000000000000000000000000000000000000000000000000000000000000000000000000000000000000000000000000000000000000000000000000000000000000000000000000000000000000000000000000000000000000000000000000F5
310
0000F5000000000000000000000000000000000000000000000000000000000000000000000000000000000000000000000000000000000000000000000000000000000000000000000000000000000000000000000000000000000000000000000000000000000000000000000000000000000000000000000000F5000000
310
00000000000000000000000000000000000000000000000000000000000000000000000000000000000000000000000000000000000000000000000000000000000000000000000000000000000000000000000000000000000000000000000000000000000000000000000000000000000000000000000000000000000000
310
00F50000F5000000000000000000000000000000000000000000000000000000000000000000000000000000000000000000000000000000000000000000000000000000000000000000000000000000000000000000000000000000000000000000000000000000000000000000000000000000000000000000000000F500
310
00000000000000000000000000000000000000000000000000000000000000000000000000000000000000000000000000000000000000000000000000000000000000000000000000000000000000000000000000000000000000000000000000000000000000000000000000000000000000000000000000000000000000
310
000000F50000F5000000000000000000000000000000000000000000000000000000000000000000000000000000000000000000000000000000000000000000000000000000000000000000000000000000000000000000000000000000000000000000000000000000000000000000000000000000000000000000000000
310
F5000000000000000000000000000000000000000000000000000000000000000000000000000000000000000000000000000000000000000000000000000000000000000000000000000000000000000000000000000000000000000000000000000000000000000000000000000000000000000000000000000000000000
310
0000000000F50000F500000000000000000000000000000000000000000000000000000000000000000000000000000000000000000000000000000000000000000000000000000000000000000000000000000000000000000000000000000000000000000000000000000000000000000000000000000000000000000000
310
0000F500000000000000000000000000000000000000000000000000000000000000000000000000000000000000000000000000000000000000000000000000000000000000000000000000000000000000000000000000000000000000000000000000000000000000000000000000000000000000000000000000000000
310
00000000000000F50000F50000000000000000000000000000000000000000000000000000000000000000000000000000000000000000000000000000000000000000000000000000000000000000000000000000000000000000000000000000000000000000000000000000000000000000000000000000000000000000
310
00000000F50000000000000000000000000000000000000000000000000000000000000000000000000000000000000000000000000000000000000000000000000000000000000000000000000000000000000000000000000000000000000000000000000000000000000000000000000000000000000000000000000000
310
000000000000000000F50000F5000000000000000000000000000000000000000000000000000000000000000000000000000000000000000000000000000000000000000000000000000000000000000000000000000000000000000000000000000000000000000000000000000000000000000000000000000000000000
310
000000000000F5000000000000000000000000000000000000000000000000000000000000000000000000000000000000000000000000000000000000000000000000000000000000000000000000000000000000000000000000000000000000000000000000000000000000000000000000000000000000000000000000
310
0000000000000000000000F50000F500000000000000000000000000000000000000000000000000000000000000000000000000000000000000000000000000000000000000000000000000000000000000000000000000000000000000000000000000000000000000000000000000000000000000000000000000000000
310
0000000000000000F500000000000000000000000000000000000000000000000000000000000000000000000000000000000000000000000000000000000000000000000000000000000000000000000000000000000000000000000000000000000000000000000000000000000000000000000000000000000000000000
310
00000000000000000000000000F50000F50000000000000000000000000000000000000000000000000000000000000000000000000000000000000000000000000000000000000000000000000000000000000000000000000000000000000000000000000000000000000000000000000000000000000000000000000000
310
00000000000000000000F50000000000000000000000000000000000000000000000000000000000000000000000000000000000000000000000000000000000000000000000000000000000000000000000000000000000000000000000000000000000000000000000000000000000000000000000000000000000000000
310
000000000000000000000000000000F50000F5000000000000000000000000000000000000000000000000000000000000000000000000000000000000000000000000000000000000000000000000000000000000000000000000000000000000000000000000000000000000000000000000000000000000000000000000
310
000000000000000000000000F5000000000000000000000000000000000000000000000000000000000000000000000000000000000000000000000000000000000000000000000000000000000000000000000000000000000000000000000000000000000000000000000000000000000000000000000000000000000000
310
0000000000000000000000000000000000F50000F500000000000000000000000000000000000000000000000000000000000000000000000000000000000000000000000000000000000000000000000000000000000000000000000000000000000000000000000000000000000000000000000000000000000000000000
310
0000000000000000000000000000F500000000000000000000000000000000000000000000000000000000000000000000000000000000000000000000000000000000000000000000000000000000000000000000000000000000000000000000000000000000000000000000000000000000000000000000000000000000
310
00000000000000000000000000000000000000F50000F50000000000000000000000000000000000000000000000000000000000000000000000000000000000000000000000000000000000000000000000000000000000000000000000000000000000000000000000000000000000000000000000000000000000000000
310
00000000000000000000000000000000F50000000000000000000000000000000000000000000000000000000000000000000000000000000000000000000000000000000000000000000000000000000000000000000000000000000000000000000000000000000000000000000000000000000000000000000000000000
310
000000000000000000000000000000000000000000F50000F5000000000000000000000000000000000000000000000000000000000000000000000000000000000000000000000000000000000000000000000000000000000000000000000000000000000000000000000000000000000000000000000000000000000000
310
000000000000000000000000000000000000F5000000000000000000000000000000000000000000000000000000000000000000000000000000000000000000000000000000000000000000000000000000000000000000000000000000000000000000000000000000000000000000000000000000000000000000000000
310
0000000000000000000000000000000000000000000000F50000F500000000000000000000000000000000000000000000000000000000000000000000000000000000000000000000000000000000000000000000000000000000000000000000000000000000000000000000000000000000000000000000000000000000
310
0000000000000000000000000000000000000000F500000000000000000000000000000000000000000000000000000000000000000000000000000000000000000000000000000000000000000000000000000000000000000000000000000000000000000000000000000000000000000000000000000000000000000000
310
00000000000000000000000000000000000000000000000000F50000F50000000000000000000000000000000000000000000000000000000000000000000000000000000000000000000000000000000000000000000000000000000000000000000000000000000000000000000000000000000000000000000000000000
310
00000000000000000000000000000000000000000000F50000000000000000000000000000000000000000000000000000000000000000000000000000000000000000000000000000000000000000000000000000000000000000000000000000000000000000000000000000000000000000000000000000000000000000
310
000000000000000000000000000000000000000000000000000000F50000F5000000000000000000000000000000000000000000000000000000000000000000000000000000000000000000000000000000000000000000000000000000000000000000000000000000000000000000000000000000000000000000000000
310
000000000000000000000000000000000000000000000000F5000000000000000000000000000000000000000000000000000000000000000000000000000000000000000000000000000000000000000000000000000000000000000000000000000000000000000000000000000000000000000000000000000000000000
310
0000000000000000000000000000000000000000000000000000000000F50000F500000000000000000000000000000000000000000000000000000000000000000000000000000000000000000000000000000000000000000000000000000000000000000000000000000000000000000000000000000000000000000000
310
0000000000000000000000000000000000000000000000000000F500000000000000000000000000000000000000000000000000000000000000000000000000000000000000000000000000000000000000000000000000000000000000000000000000000000000000000000000000000000000000000000000000000000
310
00000000000000000000000000000000000000000000000000000000000000F50000F50000000000000000000000000000000000000000000000000000000000000000000000000000000000000000000000000000000000000000000000000000000000000000000000000000000000000000000000000000000000000000
310
00000000000000000000000000000000000000000000000000000000F50000000000000000000000000000000000000000000000000000000000000000000000000000000000000000000000000000000000000000000000000000000000000000000000000000000000000000000000000000000000000000000000000000
310
000000000000000000000000000000000000000000000000000000000000000000F50000F5000000000000000000000000000000000000000000000000000000000000000000000000000000000000000000000000000000000000000000000000000000000000000000000000000000000000000000000000000000000000
310
000000000000000000000000000000000000000000000000000000000000F5000000000000000000000000000000000000000000000000000000000000000000000000000000000000000000000000000000000000000000000000000000000000000000000000000000000000000000000000000000000000000000000000
310
0000000000000000000000000000000000000000000000000000000000000000000000F50000F500000000000000000000000000000000000000000000000000000000000000000000000000000000000000000000000000000000000000000000000000000000000000000000000000000000000000000000000000000000
310
0000000000000000000000000000000000000000000000000000000000000000F500000000000000000000000000000000000000000000000000000000000000000000000000000000000000000000000000000000000000000000000000000000000000000000000000000000000000000000000000000000000000000000
310
00000000000000000000000000000000000000000000000000000000000000000000000000F50000F50000000000000000000000000000000000000000000000000000000000000000000000000000000000000000000000000000000000000000000000000000000000000000000000000000000000000000000000000000
310
00000000000000000000000000000000000000000000000000000000000000000000F50000000000000000000000000000000000000000000000000000000000000000000000000000000000000000000000000000000000000000000000000000000000000000000000000000000000000000000000000000000000000000
310
000000000000000000000000000000000000000000000000000000000000000000000000000000F50000F5000000000000000000000000000000000000000000000000000000000000000000000000000000000000000000000000000000000000000000000000000000000000000000000000000000000000000000000000
310
000000000000000000000000000000000000000000000000000000000000000000000000F5F5F5F5F5F5F5F5F5F5F5F5F5F5F5F5F5F5F5F5F5F5F5F5F5F5F5F5F5F5F5F5F5F5F5F5F5F5F5F5F5F5F5F5F5F5F5F5F5F5F5F5F5F5F5F5F5F5F5F5F5F5F5F5F5F5F5F5F5F5F5F5F5F5F5F5F5F5F5F5F5F5F5F5F5F5F5F5F5F5F5
310
F5F5F5F5F5F5F5F5F5F5F5F5F5F5F5F5F5F5F5F5F5F5F5F5F5F5F5F5F5F5F5F5F5F5F5F5F5F5F5F5F5F50000F500000000000000000000000000000000000000000000000000000000000000000000000000000000000000000000000000000000000000000000000000000000000000000000000000000000000000000000
310
0000000000000000000000000000000000000000000000000000000000000000000000000000F5F5F5F5F5F5F5F5F5F5F5F5F5F5F50000000000000000000000000000000000000000000000000000000000000000000000000000000000000000000000000000000000000000000000000000000000000000000000000000
310
00000000000000000000000000000000000000000000000000000000000000000000000000000000000000F50000F50000000000000000000000000000000000000000000000000000000000000000000000000000000000000000000000000000000000000000000000000000000000000000000000000000000000000000
310
00000000000000000000000000000000000000000000000000000000000000000000000000000000F5F5F5F5F5F5F5F5F5F5F5F5F5F5F5F5F5F5F5F5F5F5F5F5F5F5F5F5F5F5F5F5F5F5F5F5F5F5F5F5F5F5F5F5F5F5F5F5F5F5F5F5F5F5F5F5F5F5F5F5F5F5F5F5F5F5F5F5F5F5F5F5F5F5F5F5F5F5F5F5F5F5F5F5F5F5F5
310
F5F5F5F5F5F5F5F5F5F5F5F5F5F5F5F5F5F5F5F5F5F5F5F5F5F5F5F5F5F5F5F5F5F5F5F5F5F5F5F5F5F5F5F5F5F50000F5000000000000000000000000000000000000000000000000000000000000000000000000000000000000000000000000000000000000000000000000000000000000000000000000000000000000
310
000000000000000000000000000000000000000000000000000000000000000000000000000000000000F5F5F5F5F5F5F5F5F5F5F500F5F5F5F500F5F5F5F5F5F5F5F5F5F5F5F5F5F5F5F5F5F5F5F5F5F5F5F5F5F5F5F5F5F5F5F5F5F500000000000000000000000000000000000000000000000000000000000000000000
310
0000000000000000000000000000000000000000000000000000000000000000000000000000000000000000000000F50000F500000000000000000000000000000000000000000000000000000000000000000000000000000000000000000000000000000000000000000000000000000000000000000000000000000000
310
0000000000000000000000000000000000000000000000000000000000000000000000000000000000000000F5F5F5F5F5F5F5F5F5F5F5F5F5F5F5F5F5F5F5F5F5F5F5F5F5F5F5F5F5F5F5F5F5F5F5F5F5F5F5F5F5F5F5F5F5F5F5F5F5F5F5F5F5F5F5F5F5F5F5F5F5F5F5F5F5F5F5F5F5F5F5F5F5F5F5F5F5F5F5F5F5F5F5
310
F5F5F5F5F5F5F5F5F5F5F5F5F5F5F5F5F5F5F5F5F5F5F5F5F5F5F5F5F5F5F5F5F5F5F5F5F5F5F5F5F5F5F5F5F5F5F5F5F5F50000F50000000000000000000000000000000000000000000000000000000000000000000000000000000000000000000000000000000000000000000000000000000000000000000000000000
310
00000000000000000000000000000000000000000000000000000000000000000000000000000000000000000000F50000F5F5F5F5F5F5F5F5F5F500F5F5F5F5F5F5F5F5F5F5F5F5F500F5F5F5F5F500F5F5F5F5F5000000000000000000000000000000000000000000000000000000000000000000000000000000000000
310
000000F5F5F5F5F5F5F5F5F5F5F5F5F5F5F5F5F5F5F5F5F5F5F5F5F5F5F5F5F5F5F5F5F5F5F5F5F5F5F5F5F5F5F5F5F5F5F5F5F50000F5000000000000000000000000000000000000000000000000000000000000000000000000000000000000000000000000000000000000000000000000000000000000000000000000
310
000000000000000000000000000000000000000000000000000000000000000000000000000000000000000000000000F5F5F5F5F5F5F5F5F5F5F5F5F5F5F5F5F5F5F5F5F5F5F5F5F5F5F5F5F5F5F5F5F5F5F5F5F5F5F5F5F5F5F5F5F5F5F5F5F5F5F5F5F5F5F5F5F5F5F5F5F5F5F5F5F5F5F5F5F5F5F5F5F5F5F5F5F5F5F5
310
F5F5F5F5F5F5F5F5F5F5F5F5F5F5F5F5F5F5F5F5F5F5F5F5F5F5F5F5F5F5F5F5F5F5F5F5F5F5F5F5F5F5F5F5F5F5F5F5F5F5F5F5F5F5F5F5F500000000000000000000000000000000000000000000000000000000000000000000000000000000000000000000000000000000000000000000000000000000000000000000
310
00000000000000000000000000000000000000000000000000000000000000000000000000000000000000000000000000000000000000000000000000000000000000000000000000000000000000000000000000000000000000000000000000000000000000000000000000000000000000000000000000000000000000
310
0000000000000000000000000000000000000000000000000000000000000000000000000000000000000000000000000000000000000000000000000000000000000000000000000000000000000000000000000000000000000000000000000000000000000000000000000000000000000000000000
  0
XRECORD
  5
1B34
102
{ACAD_REACTORS
330
53
102
}
330
53
100
AcDbXrecord
280
     1
102
MATERIAL
148
0.0
149
0.0
149
0.0
 93
        0
 94
      127
282
     0
 72
     0
 77
     0
171
     0
175
     0
179
     0
273
     0
  0
XRECORD
  5
55
102
{ACAD_REACTORS
330
53
102
}
330
53
100
AcDbXrecord
280
     1
270
     1
271
     1
  0
XRECORD
  5
54
102
{ACAD_REACTORS
330
53
102
}
330
53
100
AcDbXrecord
280
     1
270
     1
271
     1
  0
XRECORD
  5
58
102
{ACAD_REACTORS
330
53
102
}
330
53
100
AcDbXrecord
280
     1
270
     1
271
     1
  0
XRECORD
  5
57
102
{ACAD_REACTORS
330
53
102
}
330
53
100
AcDbXrecord
280
     1
270
     1
271
     1
  0
XRECORD
  5
59
102
{ACAD_REACTORS
330
53
102
}
330
53
100
AcDbXrecord
280
     1
270
     1
271
     1
  0
XRECORD
  5
56
102
{ACAD_REACTORS
330
53
102
}
330
53
100
AcDbXrecord
280
     1
270
     1
271
     1
  0
XRECORD
  5
1B33
102
{ACAD_REACTORS
330
4B
102
}
330
4B
100
AcDbXrecord
280
     1
102
MATERIAL
148
0.0
149
0.0
149
0.0
 93
        0
 94
      127
282
     0
 72
     0
 77
     0
171
     0
175
     0
179
     0
273
     0
  0
XRECORD
  5
4D
102
{ACAD_REACTORS
330
4B
102
}
330
4B
100
AcDbXrecord
280
     1
270
     1
271
     1
  0
XRECORD
  5
4C
102
{ACAD_REACTORS
330
4B
102
}
330
4B
100
AcDbXrecord
280
     1
270
     1
271
     1
  0
XRECORD
  5
50
102
{ACAD_REACTORS
330
4B
102
}
330
4B
100
AcDbXrecord
280
     1
270
     1
271
     1
  0
XRECORD
  5
4F
102
{ACAD_REACTORS
330
4B
102
}
330
4B
100
AcDbXrecord
280
     1
270
     1
271
     1
  0
XRECORD
  5
51
102
{ACAD_REACTORS
330
4B
102
}
330
4B
100
AcDbXrecord
280
     1
270
     1
271
     1
  0
XRECORD
  5
4E
102
{ACAD_REACTORS
330
4B
102
}
330
4B
100
AcDbXrecord
280
     1
270
     1
271
     1
  0
XRECORD
  5
1B35
102
{ACAD_REACTORS
330
5B
102
}
330
5B
100
AcDbXrecord
280
     1
102
MATERIAL
148
0.0
149
0.0
149
0.0
 93
        0
 94
      127
282
     0
 72
     0
 77
     0
171
     0
175
     0
179
     0
273
     0
  0
XRECORD
  5
5D
102
{ACAD_REACTORS
330
5B
102
}
330
5B
100
AcDbXrecord
280
     1
270
     1
271
     1
  0
XRECORD
  5
5C
102
{ACAD_REACTORS
330
5B
102
}
330
5B
100
AcDbXrecord
280
     1
270
     1
271
     1
  0
XRECORD
  5
60
102
{ACAD_REACTORS
330
5B
102
}
330
5B
100
AcDbXrecord
280
     1
270
     1
271
     1
  0
XRECORD
  5
5F
102
{ACAD_REACTORS
330
5B
102
}
330
5B
100
AcDbXrecord
280
     1
270
     1
271
     1
  0
XRECORD
  5
61
102
{ACAD_REACTORS
330
5B
102
}
330
5B
100
AcDbXrecord
280
     1
270
     1
271
     1
  0
XRECORD
  5
5E
102
{ACAD_REACTORS
330
5B
102
}
330
5B
100
AcDbXrecord
280
     1
270
     1
271
     1
  0
XRECORD
  5
1B68
102
{ACAD_REACTORS
330
1B67
102
}
330
1B67
100
AcDbXrecord
280
     1
102
ACAD_ROUNDTRIP_2012_MLEADER_STYLE
298
     1
  0
XRECORD
  5
1B6A
102
{ACAD_REACTORS
330
1B69
102
}
330
1B69
100
AcDbXrecord
280
     1
102
DISPLAYNAME
  1
Imperial24
102
FLAGS
 90
        0
  0
XRECORD
  5
1B6E
102
{ACAD_REACTORS
330
1B6D
102
}
330
1B6D
100
AcDbXrecord
280
     1
102
DISPLAYNAME
  1
Metric50
102
FLAGS
 90
        0
  0
CELLSTYLEMAP
  5
1B31
102
{ACAD_REACTORS
330
6FA
102
}
330
6FA
100
AcDbCellStyleMap
 90
        3
300
CELLSTYLE
  1
TABLEFORMAT_BEGIN
 90
        5
170
     1
 91
        0
 92
    32768
 62
   257
 93
        1
300
CONTENTFORMAT
  1
CONTENTFORMAT_BEGIN
 90
        0
 91
        0
 92
      512
 93
        0
300

 40
0.0
140
1.0
 94
        5
 62
     0
340
10
144
0.25
309
CONTENTFORMAT_END
171
     0
 94
        0
309
TABLEFORMAT_END
  1
CELLSTYLE_BEGIN
 90
        1
 91
        1
300
_TITLE
309
CELLSTYLE_END
300
CELLSTYLE
  1
TABLEFORMAT_BEGIN
 90
        5
170
     1
 91
        0
 92
        0
 62
   257
 93
        1
300
CONTENTFORMAT
  1
CONTENTFORMAT_BEGIN
 90
        0
 91
        0
 92
      512
 93
        0
300

 40
0.0
140
1.0
 94
        5
 62
     0
340
10
144
0.18
309
CONTENTFORMAT_END
171
     0
 94
        0
309
TABLEFORMAT_END
  1
CELLSTYLE_BEGIN
 90
        2
 91
        1
300
_HEADER
309
CELLSTYLE_END
300
CELLSTYLE
  1
TABLEFORMAT_BEGIN
 90
        5
170
     1
 91
        0
 92
        0
 62
   257
 93
        1
300
CONTENTFORMAT
  1
CONTENTFORMAT_BEGIN
 90
        0
 91
        0
 92
      512
 93
        0
300

 40
0.0
140
1.0
 94
        2
 62
     0
340
10
144
0.18
309
CONTENTFORMAT_END
171
     0
 94
        0
309
TABLEFORMAT_END
  1
CELLSTYLE_BEGIN
 90
        3
 91
        2
300
_DATA
309
CELLSTYLE_END
  0
XRECORD
  5
1B66
102
{ACAD_REACTORS
330
6FA
102
}
330
6FA
100
AcDbXrecord
280
     1
102
ACAD_ROUNDTRIP_PRE2007_TABLESTYLE
 90
      512
 91
        0
  1

 92
      512
 93
        0
  2

 94
      512
 95
        0
  3

  0
XRECORD
  5
1B41
102
{ACAD_REACTORS
330
1B40
102
}
330
1B40
100
AcDbXrecord
280
     1
102
RTVSPost2010Prop28
280
     1
102
RTVSPost2010PropOp28
 70
     1
102
RTVSPost2010Prop29
280
     1
102
RTVSPost2010PropOp29
 70
     1
102
RTVSPost2010Prop30
280
     0
102
RTVSPost2010PropOp30
 70
     1
102
RTVSPost2010Prop31
280
     0
102
RTVSPost2010PropOp31
 70
     1
102
RTVSPost2010Prop32
280
     0
102
RTVSPost2010PropOp32
 70
     1
102
RTVSPost2010Prop33
280
     0
102
RTVSPost2010PropOp33
 70
     1
102
RTVSPost2010Prop34
280
     0
102
RTVSPost2010PropOp34
 70
     1
102
RTVSPost2010Prop35
280
     0
102
RTVSPost2010PropOp35
 70
     1
102
RTVSPost2010Prop36
280
     0
102
RTVSPost2010PropOp36
 70
     1
102
RTVSPost2010Prop37
 90
       50
102
RTVSPost2010PropOp37
 70
     1
102
RTVSPost2010Prop38
140
0.0
102
RTVSPost2010PropOp38
 70
     1
102
RTVSPost2010Prop39
140
1.0
102
RTVSPost2010PropOp39
 70
     1
102
RTVSPost2010Prop40
 90
        0
102
RTVSPost2010PropOp40
 70
     1
102
RTVSPost2010Prop41ColorIndex
 90
       18
102
RTVSPost2010Prop41ColorRGB
 90
        0
102
RTVSPost2010PropOp41
 70
     1
102
RTVSPost2010Prop42
 90
       50
102
RTVSPost2010PropOp42
 70
     1
102
RTVSPost2010Prop43
 90
        3
102
RTVSPost2010PropOp43
 70
     1
102
RTVSPost2010Prop44ColorIndex
 90
        5
102
RTVSPost2010Prop44ColorRGB
 90
      255
102
RTVSPost2010PropOp44
 70
     1
102
RTVSPost2010Prop45
280
     0
102
RTVSPost2010PropOp45
 70
     1
102
RTVSPost2010Prop46
 90
       50
102
RTVSPost2010PropOp46
 70
     1
102
RTVSPost2010Prop47
 90
       50
102
RTVSPost2010PropOp47
 70
     1
102
RTVSPost2010Prop48
 90
       50
102
RTVSPost2010PropOp48
 70
     1
102
RTVSPost2010Prop49
280
     0
102
RTVSPost2010PropOp49
 70
     1
102
RTVSPost2010Prop50
 90
       50
102
RTVSPost2010PropOp50
 70
     1
102
RTVSPost2010Prop51ColorIndex
 90
      256
102
RTVSPost2010Prop51ColorRGB
 90
-16777216
102
RTVSPost2010PropOp51
 70
     0
102
RTVSPost2010Prop52
140
1.0
102
RTVSPost2010PropOp52
 70
     0
102
RTVSPost2010Prop53
 90
        2
102
RTVSPost2010PropOp53
 70
     1
102
RTVSPost2010Prop54
  1
strokes_ogs.tif
102
RTVSPost2010PropOp54
 70
     1
102
RTVSPost2010Prop55
280
     0
102
RTVSPost2010PropOp55
 70
     1
102
RTVSPost2010Prop56
140
1.0
102
RTVSPost2010PropOp56
 70
     1
102
RTVSPost2010Prop57
140
1.0
102
RTVSPost2010PropOp57
 70
     1
102
RTVSPropertyOp0
 70
     1
102
RTVSPropertyOp1
 70
     1
102
RTVSPropertyOp2
 70
     1
102
RTVSPropertyOp3
 70
     1
102
RTVSPropertyOp4
 70
     1
102
RTVSPropertyOp5
 70
     1
102
RTVSPropertyOp6
 70
     1
102
RTVSPropertyOp7
 70
     1
102
RTVSPropertyOp8
 70
     1
102
RTVSPropertyOp9
 70
     1
102
RTVSPropertyOp10
 70
     1
102
RTVSPropertyOp11
 70
     1
102
RTVSPropertyOp12
 70
     1
102
RTVSPropertyOp13
 70
     1
102
RTVSPropertyOp14
 70
     1
102
RTVSPropertyOp15
 70
     1
102
RTVSPropertyOp16
 70
     1
102
RTVSPropertyOp17
 70
     1
102
RTVSPropertyOp18
 70
     1
102
RTVSPropertyOp19
 70
     1
102
RTVSPropertyOp20
 70
     1
102
RTVSPropertyOp21
 70
     1
102
RTVSPropertyOp22
 70
     1
102
RTVSPropertyOp23
 70
     1
102
RTVSPropertyOp24
 70
     1
102
RTVSPropertyOp25
 70
     1
102
RTVSPropertyOp26
 70
     1
102
RTVSPropertyOp27
 70
     1
102
RTVSPropertyOp28
 70
     1
102
RTVSPropertyOp29
 70
     1
102
RTVSPropertyOp30
 70
     1
102
RTVSPropertyOp31
 70
     1
102
RTVSPropertyOp32
 70
     1
102
RTVSPropertyOp33
 70
     1
102
RTVSPropertyOp34
 70
     1
102
RTVSPropertyOp35
 70
     1
102
RTVSPropertyOp36
 70
     1
102
RTVSPropertyOp37
 70
     1
102
RTVSPropertyOp38
 70
     1
102
RTVSPropertyOp39
 70
     1
102
RTVSPropertyOp40
 70
     1
102
RTVSPropertyOp41
 70
     1
102
RTVSPropertyOp42
 70
     1
102
RTVSPropertyOp43
 70
     1
102
RTVSPropertyOp44
 70
     1
102
RTVSPropertyOp45
 70
     1
102
RTVSPropertyOp46
 70
     1
102
RTVSPropertyOp47
 70
     1
102
RTVSPropertyOp48
 70
     1
102
RTVSPropertyOp49
 70
     1
102
RTVSPropertyOp50
 70
     1
102
RTVSPropertyOp51
 70
     0
102
RTVSPropertyOp52
 70
     0
102
RTVSPropertyOp53
 70
     1
102
RTVSPropertyOp54
 70
     1
102
RTVSPropertyOp55
 70
     1
102
RTVSPropertyOp56
 70
     1
102
RTVSPropertyOp57
 70
     1
102
RTVSPropertyOp58
 70
     1
102
RTVSPropertyOp59
 70
     1
102
RTVSPropertyOp60
 70
     1
102
RTVSPropertyOp61
 70
     1
102
RTVSPropertyOp62
 70
     1
  0
XRECORD
  5
1B3F
102
{ACAD_REACTORS
330
1B3E
102
}
330
1B3E
100
AcDbXrecord
280
     1
102
RTVSPost2010Prop28
280
     0
102
RTVSPost2010PropOp28
 70
     1
102
RTVSPost2010Prop29
280
     1
102
RTVSPost2010PropOp29
 70
     1
102
RTVSPost2010Prop30
280
     1
102
RTVSPost2010PropOp30
 70
     1
102
RTVSPost2010Prop31
280
     0
102
RTVSPost2010PropOp31
 70
     1
102
RTVSPost2010Prop32
280
     0
102
RTVSPost2010PropOp32
 70
     1
102
RTVSPost2010Prop33
280
     0
102
RTVSPost2010PropOp33
 70
     1
102
RTVSPost2010Prop34
280
     0
102
RTVSPost2010PropOp34
 70
     1
102
RTVSPost2010Prop35
280
     0
102
RTVSPost2010PropOp35
 70
     1
102
RTVSPost2010Prop36
280
     0
102
RTVSPost2010PropOp36
 70
     1
102
RTVSPost2010Prop37
 90
       50
102
RTVSPost2010PropOp37
 70
     1
102
RTVSPost2010Prop38
140
0.0
102
RTVSPost2010PropOp38
 70
     1
102
RTVSPost2010Prop39
140
1.0
102
RTVSPost2010PropOp39
 70
     1
102
RTVSPost2010Prop40
 90
        0
102
RTVSPost2010PropOp40
 70
     1
102
RTVSPost2010Prop41ColorIndex
 90
       18
102
RTVSPost2010Prop41ColorRGB
 90
        0
102
RTVSPost2010PropOp41
 70
     1
102
RTVSPost2010Prop42
 90
       50
102
RTVSPost2010PropOp42
 70
     1
102
RTVSPost2010Prop43
 90
        3
102
RTVSPost2010PropOp43
 70
     1
102
RTVSPost2010Prop44ColorIndex
 90
        5
102
RTVSPost2010Prop44ColorRGB
 90
      255
102
RTVSPost2010PropOp44
 70
     1
102
RTVSPost2010Prop45
280
     0
102
RTVSPost2010PropOp45
 70
     1
102
RTVSPost2010Prop46
 90
       50
102
RTVSPost2010PropOp46
 70
     1
102
RTVSPost2010Prop47
 90
       50
102
RTVSPost2010PropOp47
 70
     1
102
RTVSPost2010Prop48
 90
       50
102
RTVSPost2010PropOp48
 70
     1
102
RTVSPost2010Prop49
280
     0
102
RTVSPost2010PropOp49
 70
     1
102
RTVSPost2010Prop50
 90
       50
102
RTVSPost2010PropOp50
 70
     1
102
RTVSPost2010Prop51ColorIndex
 90
      256
102
RTVSPost2010Prop51ColorRGB
 90
-16777216
102
RTVSPost2010PropOp51
 70
     0
102
RTVSPost2010Prop52
140
1.0
102
RTVSPost2010PropOp52
 70
     0
102
RTVSPost2010Prop53
 90
        2
102
RTVSPost2010PropOp53
 70
     1
102
RTVSPost2010Prop54
  1
strokes_ogs.tif
102
RTVSPost2010PropOp54
 70
     1
102
RTVSPost2010Prop55
280
     0
102
RTVSPost2010PropOp55
 70
     1
102
RTVSPost2010Prop56
140
1.0
102
RTVSPost2010PropOp56
 70
     1
102
RTVSPost2010Prop57
140
1.0
102
RTVSPost2010PropOp57
 70
     1
102
RTVSPropertyOp0
 70
     1
102
RTVSPropertyOp1
 70
     1
102
RTVSPropertyOp2
 70
     1
102
RTVSPropertyOp3
 70
     1
102
RTVSPropertyOp4
 70
     1
102
RTVSPropertyOp5
 70
     1
102
RTVSPropertyOp6
 70
     1
102
RTVSPropertyOp7
 70
     1
102
RTVSPropertyOp8
 70
     1
102
RTVSPropertyOp9
 70
     1
102
RTVSPropertyOp10
 70
     1
102
RTVSPropertyOp11
 70
     1
102
RTVSPropertyOp12
 70
     1
102
RTVSPropertyOp13
 70
     1
102
RTVSPropertyOp14
 70
     1
102
RTVSPropertyOp15
 70
     1
102
RTVSPropertyOp16
 70
     1
102
RTVSPropertyOp17
 70
     1
102
RTVSPropertyOp18
 70
     1
102
RTVSPropertyOp19
 70
     1
102
RTVSPropertyOp20
 70
     1
102
RTVSPropertyOp21
 70
     1
102
RTVSPropertyOp22
 70
     1
102
RTVSPropertyOp23
 70
     1
102
RTVSPropertyOp24
 70
     1
102
RTVSPropertyOp25
 70
     1
102
RTVSPropertyOp26
 70
     1
102
RTVSPropertyOp27
 70
     1
102
RTVSPropertyOp28
 70
     1
102
RTVSPropertyOp29
 70
     1
102
RTVSPropertyOp30
 70
     1
102
RTVSPropertyOp31
 70
     1
102
RTVSPropertyOp32
 70
     1
102
RTVSPropertyOp33
 70
     1
102
RTVSPropertyOp34
 70
     1
102
RTVSPropertyOp35
 70
     1
102
RTVSPropertyOp36
 70
     1
102
RTVSPropertyOp37
 70
     1
102
RTVSPropertyOp38
 70
     1
102
RTVSPropertyOp39
 70
     1
102
RTVSPropertyOp40
 70
     1
102
RTVSPropertyOp41
 70
     1
102
RTVSPropertyOp42
 70
     1
102
RTVSPropertyOp43
 70
     1
102
RTVSPropertyOp44
 70
     1
102
RTVSPropertyOp45
 70
     1
102
RTVSPropertyOp46
 70
     1
102
RTVSPropertyOp47
 70
     1
102
RTVSPropertyOp48
 70
     1
102
RTVSPropertyOp49
 70
     1
102
RTVSPropertyOp50
 70
     1
102
RTVSPropertyOp51
 70
     0
102
RTVSPropertyOp52
 70
     0
102
RTVSPropertyOp53
 70
     1
102
RTVSPropertyOp54
 70
     1
102
RTVSPropertyOp55
 70
     1
102
RTVSPropertyOp56
 70
     1
102
RTVSPropertyOp57
 70
     1
102
RTVSPropertyOp58
 70
     1
102
RTVSPropertyOp59
 70
     1
102
RTVSPropertyOp60
 70
     1
102
RTVSPropertyOp61
 70
     1
102
RTVSPropertyOp62
 70
     1
  0
XRECORD
  5
1B4D
102
{ACAD_REACTORS
330
1B4C
102
}
330
1B4C
100
AcDbXrecord
280
     1
102
RTVSPost2010Prop28
280
     0
102
RTVSPost2010PropOp28
 70
     1
102
RTVSPost2010Prop29
280
     1
102
RTVSPost2010PropOp29
 70
     1
102
RTVSPost2010Prop30
280
     1
102
RTVSPost2010PropOp30
 70
     1
102
RTVSPost2010Prop31
280
     0
102
RTVSPost2010PropOp31
 70
     1
102
RTVSPost2010Prop32
280
     0
102
RTVSPost2010PropOp32
 70
     1
102
RTVSPost2010Prop33
280
     0
102
RTVSPost2010PropOp33
 70
     1
102
RTVSPost2010Prop34
280
     0
102
RTVSPost2010PropOp34
 70
     1
102
RTVSPost2010Prop35
280
     0
102
RTVSPost2010PropOp35
 70
     1
102
RTVSPost2010Prop36
280
     0
102
RTVSPost2010PropOp36
 70
     1
102
RTVSPost2010Prop37
 90
       50
102
RTVSPost2010PropOp37
 70
     1
102
RTVSPost2010Prop38
140
0.0
102
RTVSPost2010PropOp38
 70
     1
102
RTVSPost2010Prop39
140
1.0
102
RTVSPost2010PropOp39
 70
     1
102
RTVSPost2010Prop40
 90
        0
102
RTVSPost2010PropOp40
 70
     1
102
RTVSPost2010Prop41ColorIndex
 90
       18
102
RTVSPost2010Prop41ColorRGB
 90
        0
102
RTVSPost2010PropOp41
 70
     1
102
RTVSPost2010Prop42
 90
       50
102
RTVSPost2010PropOp42
 70
     1
102
RTVSPost2010Prop43
 90
        3
102
RTVSPost2010PropOp43
 70
     1
102
RTVSPost2010Prop44ColorIndex
 90
        5
102
RTVSPost2010Prop44ColorRGB
 90
      255
102
RTVSPost2010PropOp44
 70
     1
102
RTVSPost2010Prop45
280
     0
102
RTVSPost2010PropOp45
 70
     1
102
RTVSPost2010Prop46
 90
       50
102
RTVSPost2010PropOp46
 70
     1
102
RTVSPost2010Prop47
 90
       50
102
RTVSPost2010PropOp47
 70
     1
102
RTVSPost2010Prop48
 90
       50
102
RTVSPost2010PropOp48
 70
     1
102
RTVSPost2010Prop49
280
     0
102
RTVSPost2010PropOp49
 70
     1
102
RTVSPost2010Prop50
 90
       50
102
RTVSPost2010PropOp50
 70
     1
102
RTVSPost2010Prop51ColorIndex
 90
      256
102
RTVSPost2010Prop51ColorRGB
 90
-16777216
102
RTVSPost2010PropOp51
 70
     0
102
RTVSPost2010Prop52
140
1.0
102
RTVSPost2010PropOp52
 70
     0
102
RTVSPost2010Prop53
 90
        2
102
RTVSPost2010PropOp53
 70
     1
102
RTVSPost2010Prop54
  1
strokes_ogs.tif
102
RTVSPost2010PropOp54
 70
     1
102
RTVSPost2010Prop55
280
     0
102
RTVSPost2010PropOp55
 70
     1
102
RTVSPost2010Prop56
140
1.0
102
RTVSPost2010PropOp56
 70
     1
102
RTVSPost2010Prop57
140
1.0
102
RTVSPost2010PropOp57
 70
     1
102
RTVSPropertyOp0
 70
     1
102
RTVSPropertyOp1
 70
     1
102
RTVSPropertyOp2
 70
     1
102
RTVSPropertyOp3
 70
     1
102
RTVSPropertyOp4
 70
     1
102
RTVSPropertyOp5
 70
     1
102
RTVSPropertyOp6
 70
     1
102
RTVSPropertyOp7
 70
     1
102
RTVSPropertyOp8
 70
     1
102
RTVSPropertyOp9
 70
     1
102
RTVSPropertyOp10
 70
     1
102
RTVSPropertyOp11
 70
     1
102
RTVSPropertyOp12
 70
     1
102
RTVSPropertyOp13
 70
     1
102
RTVSPropertyOp14
 70
     1
102
RTVSPropertyOp15
 70
     1
102
RTVSPropertyOp16
 70
     1
102
RTVSPropertyOp17
 70
     1
102
RTVSPropertyOp18
 70
     1
102
RTVSPropertyOp19
 70
     1
102
RTVSPropertyOp20
 70
     1
102
RTVSPropertyOp21
 70
     1
102
RTVSPropertyOp22
 70
     1
102
RTVSPropertyOp23
 70
     1
102
RTVSPropertyOp24
 70
     1
102
RTVSPropertyOp25
 70
     1
102
RTVSPropertyOp26
 70
     1
102
RTVSPropertyOp27
 70
     1
102
RTVSPropertyOp28
 70
     1
102
RTVSPropertyOp29
 70
     1
102
RTVSPropertyOp30
 70
     1
102
RTVSPropertyOp31
 70
     1
102
RTVSPropertyOp32
 70
     1
102
RTVSPropertyOp33
 70
     1
102
RTVSPropertyOp34
 70
     1
102
RTVSPropertyOp35
 70
     1
102
RTVSPropertyOp36
 70
     1
102
RTVSPropertyOp37
 70
     1
102
RTVSPropertyOp38
 70
     1
102
RTVSPropertyOp39
 70
     1
102
RTVSPropertyOp40
 70
     1
102
RTVSPropertyOp41
 70
     1
102
RTVSPropertyOp42
 70
     1
102
RTVSPropertyOp43
 70
     1
102
RTVSPropertyOp44
 70
     1
102
RTVSPropertyOp45
 70
     1
102
RTVSPropertyOp46
 70
     1
102
RTVSPropertyOp47
 70
     1
102
RTVSPropertyOp48
 70
     1
102
RTVSPropertyOp49
 70
     1
102
RTVSPropertyOp50
 70
     1
102
RTVSPropertyOp51
 70
     0
102
RTVSPropertyOp52
 70
     0
102
RTVSPropertyOp53
 70
     1
102
RTVSPropertyOp54
 70
     1
102
RTVSPropertyOp55
 70
     1
102
RTVSPropertyOp56
 70
     1
102
RTVSPropertyOp57
 70
     1
102
RTVSPropertyOp58
 70
     1
102
RTVSPropertyOp59
 70
     1
102
RTVSPropertyOp60
 70
     1
102
RTVSPropertyOp61
 70
     1
102
RTVSPropertyOp62
 70
     1
  0
XRECORD
  5
1B55
102
{ACAD_REACTORS
330
1B54
102
}
330
1B54
100
AcDbXrecord
280
     1
102
RTVSPost2010Prop28
280
     0
102
RTVSPost2010PropOp28
 70
     1
102
RTVSPost2010Prop29
280
     1
102
RTVSPost2010PropOp29
 70
     1
102
RTVSPost2010Prop30
280
     1
102
RTVSPost2010PropOp30
 70
     1
102
RTVSPost2010Prop31
280
     0
102
RTVSPost2010PropOp31
 70
     1
102
RTVSPost2010Prop32
280
     0
102
RTVSPost2010PropOp32
 70
     1
102
RTVSPost2010Prop33
280
     0
102
RTVSPost2010PropOp33
 70
     1
102
RTVSPost2010Prop34
280
     0
102
RTVSPost2010PropOp34
 70
     1
102
RTVSPost2010Prop35
280
     0
102
RTVSPost2010PropOp35
 70
     1
102
RTVSPost2010Prop36
280
     0
102
RTVSPost2010PropOp36
 70
     1
102
RTVSPost2010Prop37
 90
       50
102
RTVSPost2010PropOp37
 70
     1
102
RTVSPost2010Prop38
140
0.0
102
RTVSPost2010PropOp38
 70
     1
102
RTVSPost2010Prop39
140
1.0
102
RTVSPost2010PropOp39
 70
     1
102
RTVSPost2010Prop40
 90
        0
102
RTVSPost2010PropOp40
 70
     1
102
RTVSPost2010Prop41ColorIndex
 90
       18
102
RTVSPost2010Prop41ColorRGB
 90
        0
102
RTVSPost2010PropOp41
 70
     1
102
RTVSPost2010Prop42
 90
       50
102
RTVSPost2010PropOp42
 70
     1
102
RTVSPost2010Prop43
 90
        3
102
RTVSPost2010PropOp43
 70
     1
102
RTVSPost2010Prop44ColorIndex
 90
        5
102
RTVSPost2010Prop44ColorRGB
 90
      255
102
RTVSPost2010PropOp44
 70
     1
102
RTVSPost2010Prop45
280
     0
102
RTVSPost2010PropOp45
 70
     1
102
RTVSPost2010Prop46
 90
       50
102
RTVSPost2010PropOp46
 70
     1
102
RTVSPost2010Prop47
 90
       50
102
RTVSPost2010PropOp47
 70
     1
102
RTVSPost2010Prop48
 90
       50
102
RTVSPost2010PropOp48
 70
     1
102
RTVSPost2010Prop49
280
     0
102
RTVSPost2010PropOp49
 70
     1
102
RTVSPost2010Prop50
 90
       50
102
RTVSPost2010PropOp50
 70
     1
102
RTVSPost2010Prop51ColorIndex
 90
      256
102
RTVSPost2010Prop51ColorRGB
 90
-16777216
102
RTVSPost2010PropOp51
 70
     0
102
RTVSPost2010Prop52
140
1.0
102
RTVSPost2010PropOp52
 70
     0
102
RTVSPost2010Prop53
 90
        2
102
RTVSPost2010PropOp53
 70
     1
102
RTVSPost2010Prop54
  1
strokes_ogs.tif
102
RTVSPost2010PropOp54
 70
     1
102
RTVSPost2010Prop55
280
     0
102
RTVSPost2010PropOp55
 70
     1
102
RTVSPost2010Prop56
140
1.0
102
RTVSPost2010PropOp56
 70
     1
102
RTVSPost2010Prop57
140
1.0
102
RTVSPost2010PropOp57
 70
     1
102
RTVSPropertyOp0
 70
     1
102
RTVSPropertyOp1
 70
     1
102
RTVSPropertyOp2
 70
     1
102
RTVSPropertyOp3
 70
     1
102
RTVSPropertyOp4
 70
     1
102
RTVSPropertyOp5
 70
     1
102
RTVSPropertyOp6
 70
     1
102
RTVSPropertyOp7
 70
     1
102
RTVSPropertyOp8
 70
     1
102
RTVSPropertyOp9
 70
     1
102
RTVSPropertyOp10
 70
     1
102
RTVSPropertyOp11
 70
     1
102
RTVSPropertyOp12
 70
     1
102
RTVSPropertyOp13
 70
     1
102
RTVSPropertyOp14
 70
     1
102
RTVSPropertyOp15
 70
     1
102
RTVSPropertyOp16
 70
     1
102
RTVSPropertyOp17
 70
     1
102
RTVSPropertyOp18
 70
     1
102
RTVSPropertyOp19
 70
     1
102
RTVSPropertyOp20
 70
     1
102
RTVSPropertyOp21
 70
     1
102
RTVSPropertyOp22
 70
     1
102
RTVSPropertyOp23
 70
     1
102
RTVSPropertyOp24
 70
     1
102
RTVSPropertyOp25
 70
     1
102
RTVSPropertyOp26
 70
     1
102
RTVSPropertyOp27
 70
     1
102
RTVSPropertyOp28
 70
     1
102
RTVSPropertyOp29
 70
     1
102
RTVSPropertyOp30
 70
     1
102
RTVSPropertyOp31
 70
     1
102
RTVSPropertyOp32
 70
     1
102
RTVSPropertyOp33
 70
     1
102
RTVSPropertyOp34
 70
     1
102
RTVSPropertyOp35
 70
     1
102
RTVSPropertyOp36
 70
     1
102
RTVSPropertyOp37
 70
     1
102
RTVSPropertyOp38
 70
     1
102
RTVSPropertyOp39
 70
     1
102
RTVSPropertyOp40
 70
     1
102
RTVSPropertyOp41
 70
     1
102
RTVSPropertyOp42
 70
     1
102
RTVSPropertyOp43
 70
     1
102
RTVSPropertyOp44
 70
     1
102
RTVSPropertyOp45
 70
     1
102
RTVSPropertyOp46
 70
     1
102
RTVSPropertyOp47
 70
     1
102
RTVSPropertyOp48
 70
     1
102
RTVSPropertyOp49
 70
     1
102
RTVSPropertyOp50
 70
     1
102
RTVSPropertyOp51
 70
     0
102
RTVSPropertyOp52
 70
     0
102
RTVSPropertyOp53
 70
     1
102
RTVSPropertyOp54
 70
     1
102
RTVSPropertyOp55
 70
     1
102
RTVSPropertyOp56
 70
     1
102
RTVSPropertyOp57
 70
     1
102
RTVSPropertyOp58
 70
     1
102
RTVSPropertyOp59
 70
     1
102
RTVSPropertyOp60
 70
     1
102
RTVSPropertyOp61
 70
     1
102
RTVSPropertyOp62
 70
     1
  0
XRECORD
  5
1B47
102
{ACAD_REACTORS
330
1B46
102
}
330
1B46
100
AcDbXrecord
280
     1
102
RTVSPost2010Prop28
280
     0
102
RTVSPost2010PropOp28
 70
     1
102
RTVSPost2010Prop29
280
     1
102
RTVSPost2010PropOp29
 70
     1
102
RTVSPost2010Prop30
280
     1
102
RTVSPost2010PropOp30
 70
     1
102
RTVSPost2010Prop31
280
     0
102
RTVSPost2010PropOp31
 70
     1
102
RTVSPost2010Prop32
280
     0
102
RTVSPost2010PropOp32
 70
     1
102
RTVSPost2010Prop33
280
     0
102
RTVSPost2010PropOp33
 70
     1
102
RTVSPost2010Prop34
280
     0
102
RTVSPost2010PropOp34
 70
     1
102
RTVSPost2010Prop35
280
     0
102
RTVSPost2010PropOp35
 70
     1
102
RTVSPost2010Prop36
280
     0
102
RTVSPost2010PropOp36
 70
     1
102
RTVSPost2010Prop37
 90
       50
102
RTVSPost2010PropOp37
 70
     1
102
RTVSPost2010Prop38
140
0.0
102
RTVSPost2010PropOp38
 70
     1
102
RTVSPost2010Prop39
140
1.0
102
RTVSPost2010PropOp39
 70
     1
102
RTVSPost2010Prop40
 90
        0
102
RTVSPost2010PropOp40
 70
     1
102
RTVSPost2010Prop41ColorIndex
 90
       18
102
RTVSPost2010Prop41ColorRGB
 90
        0
102
RTVSPost2010PropOp41
 70
     1
102
RTVSPost2010Prop42
 90
       50
102
RTVSPost2010PropOp42
 70
     1
102
RTVSPost2010Prop43
 90
        3
102
RTVSPost2010PropOp43
 70
     1
102
RTVSPost2010Prop44ColorIndex
 90
        5
102
RTVSPost2010Prop44ColorRGB
 90
      255
102
RTVSPost2010PropOp44
 70
     1
102
RTVSPost2010Prop45
280
     0
102
RTVSPost2010PropOp45
 70
     1
102
RTVSPost2010Prop46
 90
       50
102
RTVSPost2010PropOp46
 70
     1
102
RTVSPost2010Prop47
 90
       50
102
RTVSPost2010PropOp47
 70
     1
102
RTVSPost2010Prop48
 90
       50
102
RTVSPost2010PropOp48
 70
     1
102
RTVSPost2010Prop49
280
     0
102
RTVSPost2010PropOp49
 70
     1
102
RTVSPost2010Prop50
 90
       50
102
RTVSPost2010PropOp50
 70
     1
102
RTVSPost2010Prop51ColorIndex
 90
      256
102
RTVSPost2010Prop51ColorRGB
 90
-16777216
102
RTVSPost2010PropOp51
 70
     0
102
RTVSPost2010Prop52
140
1.0
102
RTVSPost2010PropOp52
 70
     0
102
RTVSPost2010Prop53
 90
        2
102
RTVSPost2010PropOp53
 70
     1
102
RTVSPost2010Prop54
  1
strokes_ogs.tif
102
RTVSPost2010PropOp54
 70
     1
102
RTVSPost2010Prop55
280
     0
102
RTVSPost2010PropOp55
 70
     1
102
RTVSPost2010Prop56
140
1.0
102
RTVSPost2010PropOp56
 70
     1
102
RTVSPost2010Prop57
140
1.0
102
RTVSPost2010PropOp57
 70
     1
102
RTVSPropertyOp0
 70
     1
102
RTVSPropertyOp1
 70
     1
102
RTVSPropertyOp2
 70
     1
102
RTVSPropertyOp3
 70
     1
102
RTVSPropertyOp4
 70
     1
102
RTVSPropertyOp5
 70
     1
102
RTVSPropertyOp6
 70
     1
102
RTVSPropertyOp7
 70
     1
102
RTVSPropertyOp8
 70
     1
102
RTVSPropertyOp9
 70
     1
102
RTVSPropertyOp10
 70
     1
102
RTVSPropertyOp11
 70
     1
102
RTVSPropertyOp12
 70
     1
102
RTVSPropertyOp13
 70
     1
102
RTVSPropertyOp14
 70
     1
102
RTVSPropertyOp15
 70
     1
102
RTVSPropertyOp16
 70
     1
102
RTVSPropertyOp17
 70
     1
102
RTVSPropertyOp18
 70
     1
102
RTVSPropertyOp19
 70
     1
102
RTVSPropertyOp20
 70
     1
102
RTVSPropertyOp21
 70
     1
102
RTVSPropertyOp22
 70
     1
102
RTVSPropertyOp23
 70
     1
102
RTVSPropertyOp24
 70
     1
102
RTVSPropertyOp25
 70
     1
102
RTVSPropertyOp26
 70
     1
102
RTVSPropertyOp27
 70
     1
102
RTVSPropertyOp28
 70
     1
102
RTVSPropertyOp29
 70
     1
102
RTVSPropertyOp30
 70
     1
102
RTVSPropertyOp31
 70
     1
102
RTVSPropertyOp32
 70
     1
102
RTVSPropertyOp33
 70
     1
102
RTVSPropertyOp34
 70
     1
102
RTVSPropertyOp35
 70
     1
102
RTVSPropertyOp36
 70
     1
102
RTVSPropertyOp37
 70
     1
102
RTVSPropertyOp38
 70
     1
102
RTVSPropertyOp39
 70
     1
102
RTVSPropertyOp40
 70
     1
102
RTVSPropertyOp41
 70
     1
102
RTVSPropertyOp42
 70
     1
102
RTVSPropertyOp43
 70
     1
102
RTVSPropertyOp44
 70
     1
102
RTVSPropertyOp45
 70
     1
102
RTVSPropertyOp46
 70
     1
102
RTVSPropertyOp47
 70
     1
102
RTVSPropertyOp48
 70
     1
102
RTVSPropertyOp49
 70
     1
102
RTVSPropertyOp50
 70
     1
102
RTVSPropertyOp51
 70
     0
102
RTVSPropertyOp52
 70
     0
102
RTVSPropertyOp53
 70
     1
102
RTVSPropertyOp54
 70
     1
102
RTVSPropertyOp55
 70
     1
102
RTVSPropertyOp56
 70
     1
102
RTVSPropertyOp57
 70
     1
102
RTVSPropertyOp58
 70
     1
102
RTVSPropertyOp59
 70
     1
102
RTVSPropertyOp60
 70
     1
102
RTVSPropertyOp61
 70
     1
102
RTVSPropertyOp62
 70
     1
  0
XRECORD
  5
1B4B
102
{ACAD_REACTORS
330
1B4A
102
}
330
1B4A
100
AcDbXrecord
280
     1
102
RTVSPost2010Prop28
280
     0
102
RTVSPost2010PropOp28
 70
     1
102
RTVSPost2010Prop29
280
     1
102
RTVSPost2010PropOp29
 70
     1
102
RTVSPost2010Prop30
280
     1
102
RTVSPost2010PropOp30
 70
     1
102
RTVSPost2010Prop31
280
     0
102
RTVSPost2010PropOp31
 70
     1
102
RTVSPost2010Prop32
280
     0
102
RTVSPost2010PropOp32
 70
     1
102
RTVSPost2010Prop33
280
     0
102
RTVSPost2010PropOp33
 70
     1
102
RTVSPost2010Prop34
280
     0
102
RTVSPost2010PropOp34
 70
     1
102
RTVSPost2010Prop35
280
     0
102
RTVSPost2010PropOp35
 70
     1
102
RTVSPost2010Prop36
280
     0
102
RTVSPost2010PropOp36
 70
     1
102
RTVSPost2010Prop37
 90
       50
102
RTVSPost2010PropOp37
 70
     1
102
RTVSPost2010Prop38
140
0.0
102
RTVSPost2010PropOp38
 70
     1
102
RTVSPost2010Prop39
140
1.0
102
RTVSPost2010PropOp39
 70
     1
102
RTVSPost2010Prop40
 90
        0
102
RTVSPost2010PropOp40
 70
     1
102
RTVSPost2010Prop41ColorIndex
 90
       18
102
RTVSPost2010Prop41ColorRGB
 90
        0
102
RTVSPost2010PropOp41
 70
     1
102
RTVSPost2010Prop42
 90
       50
102
RTVSPost2010PropOp42
 70
     1
102
RTVSPost2010Prop43
 90
        3
102
RTVSPost2010PropOp43
 70
     1
102
RTVSPost2010Prop44ColorIndex
 90
        5
102
RTVSPost2010Prop44ColorRGB
 90
      255
102
RTVSPost2010PropOp44
 70
     1
102
RTVSPost2010Prop45
280
     0
102
RTVSPost2010PropOp45
 70
     1
102
RTVSPost2010Prop46
 90
       50
102
RTVSPost2010PropOp46
 70
     1
102
RTVSPost2010Prop47
 90
       50
102
RTVSPost2010PropOp47
 70
     1
102
RTVSPost2010Prop48
 90
       50
102
RTVSPost2010PropOp48
 70
     1
102
RTVSPost2010Prop49
280
     0
102
RTVSPost2010PropOp49
 70
     1
102
RTVSPost2010Prop50
 90
       50
102
RTVSPost2010PropOp50
 70
     1
102
RTVSPost2010Prop51ColorIndex
 90
      256
102
RTVSPost2010Prop51ColorRGB
 90
-16777216
102
RTVSPost2010PropOp51
 70
     0
102
RTVSPost2010Prop52
140
1.0
102
RTVSPost2010PropOp52
 70
     0
102
RTVSPost2010Prop53
 90
        2
102
RTVSPost2010PropOp53
 70
     1
102
RTVSPost2010Prop54
  1
strokes_ogs.tif
102
RTVSPost2010PropOp54
 70
     1
102
RTVSPost2010Prop55
280
     0
102
RTVSPost2010PropOp55
 70
     1
102
RTVSPost2010Prop56
140
1.0
102
RTVSPost2010PropOp56
 70
     1
102
RTVSPost2010Prop57
140
1.0
102
RTVSPost2010PropOp57
 70
     1
102
RTVSPropertyOp0
 70
     1
102
RTVSPropertyOp1
 70
     1
102
RTVSPropertyOp2
 70
     1
102
RTVSPropertyOp3
 70
     1
102
RTVSPropertyOp4
 70
     1
102
RTVSPropertyOp5
 70
     1
102
RTVSPropertyOp6
 70
     1
102
RTVSPropertyOp7
 70
     1
102
RTVSPropertyOp8
 70
     1
102
RTVSPropertyOp9
 70
     1
102
RTVSPropertyOp10
 70
     1
102
RTVSPropertyOp11
 70
     1
102
RTVSPropertyOp12
 70
     1
102
RTVSPropertyOp13
 70
     1
102
RTVSPropertyOp14
 70
     1
102
RTVSPropertyOp15
 70
     1
102
RTVSPropertyOp16
 70
     1
102
RTVSPropertyOp17
 70
     1
102
RTVSPropertyOp18
 70
     1
102
RTVSPropertyOp19
 70
     1
102
RTVSPropertyOp20
 70
     1
102
RTVSPropertyOp21
 70
     1
102
RTVSPropertyOp22
 70
     1
102
RTVSPropertyOp23
 70
     1
102
RTVSPropertyOp24
 70
     1
102
RTVSPropertyOp25
 70
     1
102
RTVSPropertyOp26
 70
     1
102
RTVSPropertyOp27
 70
     1
102
RTVSPropertyOp28
 70
     1
102
RTVSPropertyOp29
 70
     1
102
RTVSPropertyOp30
 70
     1
102
RTVSPropertyOp31
 70
     1
102
RTVSPropertyOp32
 70
     1
102
RTVSPropertyOp33
 70
     1
102
RTVSPropertyOp34
 70
     1
102
RTVSPropertyOp35
 70
     1
102
RTVSPropertyOp36
 70
     1
102
RTVSPropertyOp37
 70
     1
102
RTVSPropertyOp38
 70
     1
102
RTVSPropertyOp39
 70
     1
102
RTVSPropertyOp40
 70
     1
102
RTVSPropertyOp41
 70
     1
102
RTVSPropertyOp42
 70
     1
102
RTVSPropertyOp43
 70
     1
102
RTVSPropertyOp44
 70
     1
102
RTVSPropertyOp45
 70
     1
102
RTVSPropertyOp46
 70
     1
102
RTVSPropertyOp47
 70
     1
102
RTVSPropertyOp48
 70
     1
102
RTVSPropertyOp49
 70
     1
102
RTVSPropertyOp50
 70
     1
102
RTVSPropertyOp51
 70
     0
102
RTVSPropertyOp52
 70
     0
102
RTVSPropertyOp53
 70
     1
102
RTVSPropertyOp54
 70
     1
102
RTVSPropertyOp55
 70
     1
102
RTVSPropertyOp56
 70
     1
102
RTVSPropertyOp57
 70
     1
102
RTVSPropertyOp58
 70
     1
102
RTVSPropertyOp59
 70
     1
102
RTVSPropertyOp60
 70
     1
102
RTVSPropertyOp61
 70
     1
102
RTVSPropertyOp62
 70
     1
  0
XRECORD
  5
1B65
102
{ACAD_REACTORS
330
1B64
102
}
330
1B64
100
AcDbXrecord
280
     1
102
RTVSPost2010Prop28
280
     0
102
RTVSPost2010PropOp28
 70
     0
102
RTVSPost2010Prop29
280
     1
102
RTVSPost2010PropOp29
 70
     0
102
RTVSPost2010Prop30
280
     1
102
RTVSPost2010PropOp30
 70
     0
102
RTVSPost2010Prop31
280
     0
102
RTVSPost2010PropOp31
 70
     0
102
RTVSPost2010Prop32
280
     0
102
RTVSPost2010PropOp32
 70
     0
102
RTVSPost2010Prop33
280
     0
102
RTVSPost2010PropOp33
 70
     0
102
RTVSPost2010Prop34
280
     0
102
RTVSPost2010PropOp34
 70
     0
102
RTVSPost2010Prop35
280
     0
102
RTVSPost2010PropOp35
 70
     0
102
RTVSPost2010Prop36
280
     0
102
RTVSPost2010PropOp36
 70
     0
102
RTVSPost2010Prop37
 90
       50
102
RTVSPost2010PropOp37
 70
     0
102
RTVSPost2010Prop38
140
0.0
102
RTVSPost2010PropOp38
 70
     0
102
RTVSPost2010Prop39
140
1.0
102
RTVSPost2010PropOp39
 70
     0
102
RTVSPost2010Prop40
 90
        0
102
RTVSPost2010PropOp40
 70
     0
102
RTVSPost2010Prop41ColorIndex
 90
       18
102
RTVSPost2010Prop41ColorRGB
 90
        0
102
RTVSPost2010PropOp41
 70
     0
102
RTVSPost2010Prop42
 90
       50
102
RTVSPost2010PropOp42
 70
     0
102
RTVSPost2010Prop43
 90
        3
102
RTVSPost2010PropOp43
 70
     0
102
RTVSPost2010Prop44ColorIndex
 90
        5
102
RTVSPost2010Prop44ColorRGB
 90
      255
102
RTVSPost2010PropOp44
 70
     0
102
RTVSPost2010Prop45
280
     0
102
RTVSPost2010PropOp45
 70
     0
102
RTVSPost2010Prop46
 90
       50
102
RTVSPost2010PropOp46
 70
     0
102
RTVSPost2010Prop47
 90
       50
102
RTVSPost2010PropOp47
 70
     0
102
RTVSPost2010Prop48
 90
       50
102
RTVSPost2010PropOp48
 70
     0
102
RTVSPost2010Prop49
280
     0
102
RTVSPost2010PropOp49
 70
     0
102
RTVSPost2010Prop50
 90
       50
102
RTVSPost2010PropOp50
 70
     0
102
RTVSPost2010Prop51ColorIndex
 90
      256
102
RTVSPost2010Prop51ColorRGB
 90
-16777216
102
RTVSPost2010PropOp51
 70
     0
102
RTVSPost2010Prop52
140
1.0
102
RTVSPost2010PropOp52
 70
     0
102
RTVSPost2010Prop53
 90
        2
102
RTVSPost2010PropOp53
 70
     0
102
RTVSPost2010Prop54
  1
strokes_ogs.tif
102
RTVSPost2010PropOp54
 70
     0
102
RTVSPost2010Prop55
280
     0
102
RTVSPost2010PropOp55
 70
     0
102
RTVSPost2010Prop56
140
1.0
102
RTVSPost2010PropOp56
 70
     0
102
RTVSPost2010Prop57
140
1.0
102
RTVSPost2010PropOp57
 70
     0
102
RTVSPropertyOp0
 70
     0
102
RTVSPropertyOp1
 70
     0
102
RTVSPropertyOp2
 70
     0
102
RTVSPropertyOp3
 70
     0
102
RTVSPropertyOp4
 70
     0
102
RTVSPropertyOp5
 70
     0
102
RTVSPropertyOp6
 70
     0
102
RTVSPropertyOp7
 70
     0
102
RTVSPropertyOp8
 70
     0
102
RTVSPropertyOp9
 70
     0
102
RTVSPropertyOp10
 70
     0
102
RTVSPropertyOp11
 70
     0
102
RTVSPropertyOp12
 70
     0
102
RTVSPropertyOp13
 70
     0
102
RTVSPropertyOp14
 70
     2
102
RTVSPropertyOp15
 70
     0
102
RTVSPropertyOp16
 70
     0
102
RTVSPropertyOp17
 70
     0
102
RTVSPropertyOp18
 70
     0
102
RTVSPropertyOp19
 70
     0
102
RTVSPropertyOp20
 70
     0
102
RTVSPropertyOp21
 70
     0
102
RTVSPropertyOp22
 70
     0
102
RTVSPropertyOp23
 70
     0
102
RTVSPropertyOp24
 70
     0
102
RTVSPropertyOp25
 70
     0
102
RTVSPropertyOp26
 70
     0
102
RTVSPropertyOp27
 70
     0
102
RTVSPropertyOp28
 70
     0
102
RTVSPropertyOp29
 70
     0
102
RTVSPropertyOp30
 70
     0
102
RTVSPropertyOp31
 70
     0
102
RTVSPropertyOp32
 70
     0
102
RTVSPropertyOp33
 70
     0
102
RTVSPropertyOp34
 70
     0
102
RTVSPropertyOp35
 70
     0
102
RTVSPropertyOp36
 70
     0
102
RTVSPropertyOp37
 70
     0
102
RTVSPropertyOp38
 70
     0
102
RTVSPropertyOp39
 70
     0
102
RTVSPropertyOp40
 70
     0
102
RTVSPropertyOp41
 70
     0
102
RTVSPropertyOp42
 70
     0
102
RTVSPropertyOp43
 70
     0
102
RTVSPropertyOp44
 70
     0
102
RTVSPropertyOp45
 70
     0
102
RTVSPropertyOp46
 70
     0
102
RTVSPropertyOp47
 70
     0
102
RTVSPropertyOp48
 70
     0
102
RTVSPropertyOp49
 70
     0
102
RTVSPropertyOp50
 70
     0
102
RTVSPropertyOp51
 70
     0
102
RTVSPropertyOp52
 70
     0
102
RTVSPropertyOp53
 70
     0
102
RTVSPropertyOp54
 70
     0
102
RTVSPropertyOp55
 70
     0
102
RTVSPropertyOp56
 70
     0
102
RTVSPropertyOp57
 70
     0
102
RTVSPropertyOp58
 70
     0
102
RTVSPropertyOp59
 70
     0
102
RTVSPropertyOp60
 70
     0
102
RTVSPropertyOp61
 70
     0
102
RTVSPropertyOp62
 70
     0
  0
XRECORD
  5
1B53
102
{ACAD_REACTORS
330
1B52
102
}
330
1B52
100
AcDbXrecord
280
     1
102
RTVSPost2010Prop28
280
     0
102
RTVSPost2010PropOp28
 70
     1
102
RTVSPost2010Prop29
280
     1
102
RTVSPost2010PropOp29
 70
     1
102
RTVSPost2010Prop30
280
     1
102
RTVSPost2010PropOp30
 70
     1
102
RTVSPost2010Prop31
280
     0
102
RTVSPost2010PropOp31
 70
     1
102
RTVSPost2010Prop32
280
     0
102
RTVSPost2010PropOp32
 70
     1
102
RTVSPost2010Prop33
280
     0
102
RTVSPost2010PropOp33
 70
     1
102
RTVSPost2010Prop34
280
     0
102
RTVSPost2010PropOp34
 70
     1
102
RTVSPost2010Prop35
280
     0
102
RTVSPost2010PropOp35
 70
     1
102
RTVSPost2010Prop36
280
     0
102
RTVSPost2010PropOp36
 70
     1
102
RTVSPost2010Prop37
 90
       50
102
RTVSPost2010PropOp37
 70
     1
102
RTVSPost2010Prop38
140
0.0
102
RTVSPost2010PropOp38
 70
     1
102
RTVSPost2010Prop39
140
1.0
102
RTVSPost2010PropOp39
 70
     1
102
RTVSPost2010Prop40
 90
        0
102
RTVSPost2010PropOp40
 70
     1
102
RTVSPost2010Prop41ColorIndex
 90
       18
102
RTVSPost2010Prop41ColorRGB
 90
        0
102
RTVSPost2010PropOp41
 70
     1
102
RTVSPost2010Prop42
 90
       50
102
RTVSPost2010PropOp42
 70
     1
102
RTVSPost2010Prop43
 90
        3
102
RTVSPost2010PropOp43
 70
     1
102
RTVSPost2010Prop44ColorIndex
 90
        5
102
RTVSPost2010Prop44ColorRGB
 90
      255
102
RTVSPost2010PropOp44
 70
     1
102
RTVSPost2010Prop45
280
     0
102
RTVSPost2010PropOp45
 70
     1
102
RTVSPost2010Prop46
 90
       50
102
RTVSPost2010PropOp46
 70
     1
102
RTVSPost2010Prop47
 90
       50
102
RTVSPost2010PropOp47
 70
     1
102
RTVSPost2010Prop48
 90
       50
102
RTVSPost2010PropOp48
 70
     1
102
RTVSPost2010Prop49
280
     0
102
RTVSPost2010PropOp49
 70
     1
102
RTVSPost2010Prop50
 90
       50
102
RTVSPost2010PropOp50
 70
     1
102
RTVSPost2010Prop51ColorIndex
 90
      256
102
RTVSPost2010Prop51ColorRGB
 90
-16777216
102
RTVSPost2010PropOp51
 70
     0
102
RTVSPost2010Prop52
140
1.0
102
RTVSPost2010PropOp52
 70
     0
102
RTVSPost2010Prop53
 90
        2
102
RTVSPost2010PropOp53
 70
     1
102
RTVSPost2010Prop54
  1
strokes_ogs.tif
102
RTVSPost2010PropOp54
 70
     1
102
RTVSPost2010Prop55
280
     0
102
RTVSPost2010PropOp55
 70
     1
102
RTVSPost2010Prop56
140
1.0
102
RTVSPost2010PropOp56
 70
     1
102
RTVSPost2010Prop57
140
1.0
102
RTVSPost2010PropOp57
 70
     1
102
RTVSPropertyOp0
 70
     1
102
RTVSPropertyOp1
 70
     1
102
RTVSPropertyOp2
 70
     1
102
RTVSPropertyOp3
 70
     1
102
RTVSPropertyOp4
 70
     1
102
RTVSPropertyOp5
 70
     1
102
RTVSPropertyOp6
 70
     1
102
RTVSPropertyOp7
 70
     1
102
RTVSPropertyOp8
 70
     1
102
RTVSPropertyOp9
 70
     1
102
RTVSPropertyOp10
 70
     1
102
RTVSPropertyOp11
 70
     1
102
RTVSPropertyOp12
 70
     1
102
RTVSPropertyOp13
 70
     1
102
RTVSPropertyOp14
 70
     1
102
RTVSPropertyOp15
 70
     1
102
RTVSPropertyOp16
 70
     1
102
RTVSPropertyOp17
 70
     1
102
RTVSPropertyOp18
 70
     1
102
RTVSPropertyOp19
 70
     1
102
RTVSPropertyOp20
 70
     1
102
RTVSPropertyOp21
 70
     1
102
RTVSPropertyOp22
 70
     1
102
RTVSPropertyOp23
 70
     1
102
RTVSPropertyOp24
 70
     1
102
RTVSPropertyOp25
 70
     1
102
RTVSPropertyOp26
 70
     1
102
RTVSPropertyOp27
 70
     1
102
RTVSPropertyOp28
 70
     1
102
RTVSPropertyOp29
 70
     1
102
RTVSPropertyOp30
 70
     1
102
RTVSPropertyOp31
 70
     1
102
RTVSPropertyOp32
 70
     1
102
RTVSPropertyOp33
 70
     1
102
RTVSPropertyOp34
 70
     1
102
RTVSPropertyOp35
 70
     1
102
RTVSPropertyOp36
 70
     1
102
RTVSPropertyOp37
 70
     1
102
RTVSPropertyOp38
 70
     1
102
RTVSPropertyOp39
 70
     1
102
RTVSPropertyOp40
 70
     1
102
RTVSPropertyOp41
 70
     1
102
RTVSPropertyOp42
 70
     1
102
RTVSPropertyOp43
 70
     1
102
RTVSPropertyOp44
 70
     1
102
RTVSPropertyOp45
 70
     1
102
RTVSPropertyOp46
 70
     1
102
RTVSPropertyOp47
 70
     1
102
RTVSPropertyOp48
 70
     1
102
RTVSPropertyOp49
 70
     1
102
RTVSPropertyOp50
 70
     1
102
RTVSPropertyOp51
 70
     0
102
RTVSPropertyOp52
 70
     0
102
RTVSPropertyOp53
 70
     1
102
RTVSPropertyOp54
 70
     1
102
RTVSPropertyOp55
 70
     1
102
RTVSPropertyOp56
 70
     1
102
RTVSPropertyOp57
 70
     1
102
RTVSPropertyOp58
 70
     1
102
RTVSPropertyOp59
 70
     1
102
RTVSPropertyOp60
 70
     1
102
RTVSPropertyOp61
 70
     1
102
RTVSPropertyOp62
 70
     1
  0
XRECORD
  5
1B37
102
{ACAD_REACTORS
330
1B36
102
}
330
1B36
100
AcDbXrecord
280
     1
102
RTVSPost2010Prop28
280
     0
102
RTVSPost2010PropOp28
 70
     1
102
RTVSPost2010Prop29
280
     1
102
RTVSPost2010PropOp29
 70
     1
102
RTVSPost2010Prop30
280
     1
102
RTVSPost2010PropOp30
 70
     1
102
RTVSPost2010Prop31
280
     0
102
RTVSPost2010PropOp31
 70
     1
102
RTVSPost2010Prop32
280
     0
102
RTVSPost2010PropOp32
 70
     1
102
RTVSPost2010Prop33
280
     0
102
RTVSPost2010PropOp33
 70
     1
102
RTVSPost2010Prop34
280
     0
102
RTVSPost2010PropOp34
 70
     1
102
RTVSPost2010Prop35
280
     0
102
RTVSPost2010PropOp35
 70
     1
102
RTVSPost2010Prop36
280
     0
102
RTVSPost2010PropOp36
 70
     1
102
RTVSPost2010Prop37
 90
       50
102
RTVSPost2010PropOp37
 70
     1
102
RTVSPost2010Prop38
140
0.0
102
RTVSPost2010PropOp38
 70
     1
102
RTVSPost2010Prop39
140
1.0
102
RTVSPost2010PropOp39
 70
     1
102
RTVSPost2010Prop40
 90
        0
102
RTVSPost2010PropOp40
 70
     1
102
RTVSPost2010Prop41ColorIndex
 90
       18
102
RTVSPost2010Prop41ColorRGB
 90
        0
102
RTVSPost2010PropOp41
 70
     1
102
RTVSPost2010Prop42
 90
       50
102
RTVSPost2010PropOp42
 70
     1
102
RTVSPost2010Prop43
 90
        3
102
RTVSPost2010PropOp43
 70
     1
102
RTVSPost2010Prop44ColorIndex
 90
        5
102
RTVSPost2010Prop44ColorRGB
 90
      255
102
RTVSPost2010PropOp44
 70
     1
102
RTVSPost2010Prop45
280
     0
102
RTVSPost2010PropOp45
 70
     1
102
RTVSPost2010Prop46
 90
       50
102
RTVSPost2010PropOp46
 70
     1
102
RTVSPost2010Prop47
 90
       50
102
RTVSPost2010PropOp47
 70
     1
102
RTVSPost2010Prop48
 90
       50
102
RTVSPost2010PropOp48
 70
     1
102
RTVSPost2010Prop49
280
     0
102
RTVSPost2010PropOp49
 70
     1
102
RTVSPost2010Prop50
 90
       50
102
RTVSPost2010PropOp50
 70
     1
102
RTVSPost2010Prop51ColorIndex
 90
      256
102
RTVSPost2010Prop51ColorRGB
 90
-16777216
102
RTVSPost2010PropOp51
 70
     0
102
RTVSPost2010Prop52
140
1.0
102
RTVSPost2010PropOp52
 70
     0
102
RTVSPost2010Prop53
 90
        2
102
RTVSPost2010PropOp53
 70
     1
102
RTVSPost2010Prop54
  1
strokes_ogs.tif
102
RTVSPost2010PropOp54
 70
     1
102
RTVSPost2010Prop55
280
     0
102
RTVSPost2010PropOp55
 70
     1
102
RTVSPost2010Prop56
140
1.0
102
RTVSPost2010PropOp56
 70
     1
102
RTVSPost2010Prop57
140
1.0
102
RTVSPost2010PropOp57
 70
     1
102
RTVSPropertyOp0
 70
     1
102
RTVSPropertyOp1
 70
     1
102
RTVSPropertyOp2
 70
     1
102
RTVSPropertyOp3
 70
     1
102
RTVSPropertyOp4
 70
     1
102
RTVSPropertyOp5
 70
     1
102
RTVSPropertyOp6
 70
     1
102
RTVSPropertyOp7
 70
     1
102
RTVSPropertyOp8
 70
     1
102
RTVSPropertyOp9
 70
     1
102
RTVSPropertyOp10
 70
     1
102
RTVSPropertyOp11
 70
     1
102
RTVSPropertyOp12
 70
     1
102
RTVSPropertyOp13
 70
     1
102
RTVSPropertyOp14
 70
     1
102
RTVSPropertyOp15
 70
     1
102
RTVSPropertyOp16
 70
     1
102
RTVSPropertyOp17
 70
     1
102
RTVSPropertyOp18
 70
     1
102
RTVSPropertyOp19
 70
     1
102
RTVSPropertyOp20
 70
     1
102
RTVSPropertyOp21
 70
     1
102
RTVSPropertyOp22
 70
     1
102
RTVSPropertyOp23
 70
     1
102
RTVSPropertyOp24
 70
     1
102
RTVSPropertyOp25
 70
     1
102
RTVSPropertyOp26
 70
     1
102
RTVSPropertyOp27
 70
     1
102
RTVSPropertyOp28
 70
     1
102
RTVSPropertyOp29
 70
     1
102
RTVSPropertyOp30
 70
     1
102
RTVSPropertyOp31
 70
     1
102
RTVSPropertyOp32
 70
     1
102
RTVSPropertyOp33
 70
     1
102
RTVSPropertyOp34
 70
     1
102
RTVSPropertyOp35
 70
     1
102
RTVSPropertyOp36
 70
     1
102
RTVSPropertyOp37
 70
     1
102
RTVSPropertyOp38
 70
     1
102
RTVSPropertyOp39
 70
     1
102
RTVSPropertyOp40
 70
     1
102
RTVSPropertyOp41
 70
     1
102
RTVSPropertyOp42
 70
     1
102
RTVSPropertyOp43
 70
     1
102
RTVSPropertyOp44
 70
     1
102
RTVSPropertyOp45
 70
     1
102
RTVSPropertyOp46
 70
     1
102
RTVSPropertyOp47
 70
     1
102
RTVSPropertyOp48
 70
     1
102
RTVSPropertyOp49
 70
     1
102
RTVSPropertyOp50
 70
     1
102
RTVSPropertyOp51
 70
     0
102
RTVSPropertyOp52
 70
     0
102
RTVSPropertyOp53
 70
     1
102
RTVSPropertyOp54
 70
     1
102
RTVSPropertyOp55
 70
     1
102
RTVSPropertyOp56
 70
     1
102
RTVSPropertyOp57
 70
     1
102
RTVSPropertyOp58
 70
     1
102
RTVSPropertyOp59
 70
     1
102
RTVSPropertyOp60
 70
     1
102
RTVSPropertyOp61
 70
     1
102
RTVSPropertyOp62
 70
     1
  0
XRECORD
  5
1B39
102
{ACAD_REACTORS
330
1B38
102
}
330
1B38
100
AcDbXrecord
280
     1
102
RTVSPost2010Prop28
280
     0
102
RTVSPost2010PropOp28
 70
     1
102
RTVSPost2010Prop29
280
     1
102
RTVSPost2010PropOp29
 70
     1
102
RTVSPost2010Prop30
280
     1
102
RTVSPost2010PropOp30
 70
     1
102
RTVSPost2010Prop31
280
     0
102
RTVSPost2010PropOp31
 70
     1
102
RTVSPost2010Prop32
280
     0
102
RTVSPost2010PropOp32
 70
     1
102
RTVSPost2010Prop33
280
     0
102
RTVSPost2010PropOp33
 70
     1
102
RTVSPost2010Prop34
280
     0
102
RTVSPost2010PropOp34
 70
     1
102
RTVSPost2010Prop35
280
     0
102
RTVSPost2010PropOp35
 70
     1
102
RTVSPost2010Prop36
280
     0
102
RTVSPost2010PropOp36
 70
     1
102
RTVSPost2010Prop37
 90
       50
102
RTVSPost2010PropOp37
 70
     1
102
RTVSPost2010Prop38
140
0.0
102
RTVSPost2010PropOp38
 70
     1
102
RTVSPost2010Prop39
140
1.0
102
RTVSPost2010PropOp39
 70
     1
102
RTVSPost2010Prop40
 90
        0
102
RTVSPost2010PropOp40
 70
     1
102
RTVSPost2010Prop41ColorIndex
 90
       18
102
RTVSPost2010Prop41ColorRGB
 90
        0
102
RTVSPost2010PropOp41
 70
     1
102
RTVSPost2010Prop42
 90
       50
102
RTVSPost2010PropOp42
 70
     1
102
RTVSPost2010Prop43
 90
        3
102
RTVSPost2010PropOp43
 70
     1
102
RTVSPost2010Prop44ColorIndex
 90
        5
102
RTVSPost2010Prop44ColorRGB
 90
      255
102
RTVSPost2010PropOp44
 70
     1
102
RTVSPost2010Prop45
280
     0
102
RTVSPost2010PropOp45
 70
     1
102
RTVSPost2010Prop46
 90
       50
102
RTVSPost2010PropOp46
 70
     1
102
RTVSPost2010Prop47
 90
       50
102
RTVSPost2010PropOp47
 70
     1
102
RTVSPost2010Prop48
 90
       50
102
RTVSPost2010PropOp48
 70
     1
102
RTVSPost2010Prop49
280
     0
102
RTVSPost2010PropOp49
 70
     1
102
RTVSPost2010Prop50
 90
       50
102
RTVSPost2010PropOp50
 70
     1
102
RTVSPost2010Prop51ColorIndex
 90
      256
102
RTVSPost2010Prop51ColorRGB
 90
-16777216
102
RTVSPost2010PropOp51
 70
     0
102
RTVSPost2010Prop52
140
1.0
102
RTVSPost2010PropOp52
 70
     0
102
RTVSPost2010Prop53
 90
        2
102
RTVSPost2010PropOp53
 70
     1
102
RTVSPost2010Prop54
  1
strokes_ogs.tif
102
RTVSPost2010PropOp54
 70
     1
102
RTVSPost2010Prop55
280
     0
102
RTVSPost2010PropOp55
 70
     1
102
RTVSPost2010Prop56
140
1.0
102
RTVSPost2010PropOp56
 70
     1
102
RTVSPost2010Prop57
140
1.0
102
RTVSPost2010PropOp57
 70
     1
102
RTVSPropertyOp0
 70
     1
102
RTVSPropertyOp1
 70
     1
102
RTVSPropertyOp2
 70
     1
102
RTVSPropertyOp3
 70
     1
102
RTVSPropertyOp4
 70
     1
102
RTVSPropertyOp5
 70
     1
102
RTVSPropertyOp6
 70
     1
102
RTVSPropertyOp7
 70
     1
102
RTVSPropertyOp8
 70
     1
102
RTVSPropertyOp9
 70
     1
102
RTVSPropertyOp10
 70
     1
102
RTVSPropertyOp11
 70
     1
102
RTVSPropertyOp12
 70
     1
102
RTVSPropertyOp13
 70
     1
102
RTVSPropertyOp14
 70
     1
102
RTVSPropertyOp15
 70
     1
102
RTVSPropertyOp16
 70
     1
102
RTVSPropertyOp17
 70
     1
102
RTVSPropertyOp18
 70
     1
102
RTVSPropertyOp19
 70
     1
102
RTVSPropertyOp20
 70
     1
102
RTVSPropertyOp21
 70
     1
102
RTVSPropertyOp22
 70
     1
102
RTVSPropertyOp23
 70
     1
102
RTVSPropertyOp24
 70
     1
102
RTVSPropertyOp25
 70
     1
102
RTVSPropertyOp26
 70
     1
102
RTVSPropertyOp27
 70
     1
102
RTVSPropertyOp28
 70
     1
102
RTVSPropertyOp29
 70
     1
102
RTVSPropertyOp30
 70
     1
102
RTVSPropertyOp31
 70
     1
102
RTVSPropertyOp32
 70
     1
102
RTVSPropertyOp33
 70
     1
102
RTVSPropertyOp34
 70
     1
102
RTVSPropertyOp35
 70
     1
102
RTVSPropertyOp36
 70
     1
102
RTVSPropertyOp37
 70
     1
102
RTVSPropertyOp38
 70
     1
102
RTVSPropertyOp39
 70
     1
102
RTVSPropertyOp40
 70
     1
102
RTVSPropertyOp41
 70
     1
102
RTVSPropertyOp42
 70
     1
102
RTVSPropertyOp43
 70
     1
102
RTVSPropertyOp44
 70
     1
102
RTVSPropertyOp45
 70
     1
102
RTVSPropertyOp46
 70
     1
102
RTVSPropertyOp47
 70
     1
102
RTVSPropertyOp48
 70
     1
102
RTVSPropertyOp49
 70
     1
102
RTVSPropertyOp50
 70
     1
102
RTVSPropertyOp51
 70
     0
102
RTVSPropertyOp52
 70
     0
102
RTVSPropertyOp53
 70
     1
102
RTVSPropertyOp54
 70
     1
102
RTVSPropertyOp55
 70
     1
102
RTVSPropertyOp56
 70
     1
102
RTVSPropertyOp57
 70
     1
102
RTVSPropertyOp58
 70
     1
102
RTVSPropertyOp59
 70
     1
102
RTVSPropertyOp60
 70
     1
102
RTVSPropertyOp61
 70
     1
102
RTVSPropertyOp62
 70
     1
  0
XRECORD
  5
1B3B
102
{ACAD_REACTORS
330
1B3A
102
}
330
1B3A
100
AcDbXrecord
280
     1
102
RTVSPost2010Prop28
280
     0
102
RTVSPost2010PropOp28
 70
     1
102
RTVSPost2010Prop29
280
     1
102
RTVSPost2010PropOp29
 70
     1
102
RTVSPost2010Prop30
280
     1
102
RTVSPost2010PropOp30
 70
     1
102
RTVSPost2010Prop31
280
     0
102
RTVSPost2010PropOp31
 70
     1
102
RTVSPost2010Prop32
280
     0
102
RTVSPost2010PropOp32
 70
     1
102
RTVSPost2010Prop33
280
     0
102
RTVSPost2010PropOp33
 70
     1
102
RTVSPost2010Prop34
280
     0
102
RTVSPost2010PropOp34
 70
     1
102
RTVSPost2010Prop35
280
     0
102
RTVSPost2010PropOp35
 70
     1
102
RTVSPost2010Prop36
280
     0
102
RTVSPost2010PropOp36
 70
     1
102
RTVSPost2010Prop37
 90
       50
102
RTVSPost2010PropOp37
 70
     1
102
RTVSPost2010Prop38
140
0.0
102
RTVSPost2010PropOp38
 70
     1
102
RTVSPost2010Prop39
140
1.0
102
RTVSPost2010PropOp39
 70
     1
102
RTVSPost2010Prop40
 90
        0
102
RTVSPost2010PropOp40
 70
     1
102
RTVSPost2010Prop41ColorIndex
 90
       18
102
RTVSPost2010Prop41ColorRGB
 90
        0
102
RTVSPost2010PropOp41
 70
     1
102
RTVSPost2010Prop42
 90
       50
102
RTVSPost2010PropOp42
 70
     1
102
RTVSPost2010Prop43
 90
        3
102
RTVSPost2010PropOp43
 70
     1
102
RTVSPost2010Prop44ColorIndex
 90
        5
102
RTVSPost2010Prop44ColorRGB
 90
      255
102
RTVSPost2010PropOp44
 70
     1
102
RTVSPost2010Prop45
280
     0
102
RTVSPost2010PropOp45
 70
     1
102
RTVSPost2010Prop46
 90
       50
102
RTVSPost2010PropOp46
 70
     1
102
RTVSPost2010Prop47
 90
       50
102
RTVSPost2010PropOp47
 70
     1
102
RTVSPost2010Prop48
 90
       50
102
RTVSPost2010PropOp48
 70
     1
102
RTVSPost2010Prop49
280
     0
102
RTVSPost2010PropOp49
 70
     1
102
RTVSPost2010Prop50
 90
       50
102
RTVSPost2010PropOp50
 70
     1
102
RTVSPost2010Prop51ColorIndex
 90
      256
102
RTVSPost2010Prop51ColorRGB
 90
-16777216
102
RTVSPost2010PropOp51
 70
     0
102
RTVSPost2010Prop52
140
1.0
102
RTVSPost2010PropOp52
 70
     0
102
RTVSPost2010Prop53
 90
        2
102
RTVSPost2010PropOp53
 70
     1
102
RTVSPost2010Prop54
  1
strokes_ogs.tif
102
RTVSPost2010PropOp54
 70
     1
102
RTVSPost2010Prop55
280
     0
102
RTVSPost2010PropOp55
 70
     1
102
RTVSPost2010Prop56
140
1.0
102
RTVSPost2010PropOp56
 70
     1
102
RTVSPost2010Prop57
140
1.0
102
RTVSPost2010PropOp57
 70
     1
102
RTVSPropertyOp0
 70
     1
102
RTVSPropertyOp1
 70
     1
102
RTVSPropertyOp2
 70
     1
102
RTVSPropertyOp3
 70
     1
102
RTVSPropertyOp4
 70
     1
102
RTVSPropertyOp5
 70
     1
102
RTVSPropertyOp6
 70
     1
102
RTVSPropertyOp7
 70
     1
102
RTVSPropertyOp8
 70
     1
102
RTVSPropertyOp9
 70
     1
102
RTVSPropertyOp10
 70
     1
102
RTVSPropertyOp11
 70
     1
102
RTVSPropertyOp12
 70
     1
102
RTVSPropertyOp13
 70
     1
102
RTVSPropertyOp14
 70
     1
102
RTVSPropertyOp15
 70
     1
102
RTVSPropertyOp16
 70
     1
102
RTVSPropertyOp17
 70
     1
102
RTVSPropertyOp18
 70
     1
102
RTVSPropertyOp19
 70
     1
102
RTVSPropertyOp20
 70
     1
102
RTVSPropertyOp21
 70
     1
102
RTVSPropertyOp22
 70
     1
102
RTVSPropertyOp23
 70
     1
102
RTVSPropertyOp24
 70
     1
102
RTVSPropertyOp25
 70
     1
102
RTVSPropertyOp26
 70
     1
102
RTVSPropertyOp27
 70
     1
102
RTVSPropertyOp28
 70
     1
102
RTVSPropertyOp29
 70
     1
102
RTVSPropertyOp30
 70
     1
102
RTVSPropertyOp31
 70
     1
102
RTVSPropertyOp32
 70
     1
102
RTVSPropertyOp33
 70
     1
102
RTVSPropertyOp34
 70
     1
102
RTVSPropertyOp35
 70
     1
102
RTVSPropertyOp36
 70
     1
102
RTVSPropertyOp37
 70
     1
102
RTVSPropertyOp38
 70
     1
102
RTVSPropertyOp39
 70
     1
102
RTVSPropertyOp40
 70
     1
102
RTVSPropertyOp41
 70
     1
102
RTVSPropertyOp42
 70
     1
102
RTVSPropertyOp43
 70
     1
102
RTVSPropertyOp44
 70
     1
102
RTVSPropertyOp45
 70
     1
102
RTVSPropertyOp46
 70
     1
102
RTVSPropertyOp47
 70
     1
102
RTVSPropertyOp48
 70
     1
102
RTVSPropertyOp49
 70
     1
102
RTVSPropertyOp50
 70
     1
102
RTVSPropertyOp51
 70
     0
102
RTVSPropertyOp52
 70
     0
102
RTVSPropertyOp53
 70
     1
102
RTVSPropertyOp54
 70
     1
102
RTVSPropertyOp55
 70
     1
102
RTVSPropertyOp56
 70
     1
102
RTVSPropertyOp57
 70
     1
102
RTVSPropertyOp58
 70
     1
102
RTVSPropertyOp59
 70
     1
102
RTVSPropertyOp60
 70
     1
102
RTVSPropertyOp61
 70
     1
102
RTVSPropertyOp62
 70
     1
  0
XRECORD
  5
1B3D
102
{ACAD_REACTORS
330
1B3C
102
}
330
1B3C
100
AcDbXrecord
280
     1
102
RTVSPost2010Prop28
280
     0
102
RTVSPost2010PropOp28
 70
     1
102
RTVSPost2010Prop29
280
     1
102
RTVSPost2010PropOp29
 70
     1
102
RTVSPost2010Prop30
280
     1
102
RTVSPost2010PropOp30
 70
     1
102
RTVSPost2010Prop31
280
     0
102
RTVSPost2010PropOp31
 70
     1
102
RTVSPost2010Prop32
280
     0
102
RTVSPost2010PropOp32
 70
     1
102
RTVSPost2010Prop33
280
     0
102
RTVSPost2010PropOp33
 70
     1
102
RTVSPost2010Prop34
280
     0
102
RTVSPost2010PropOp34
 70
     1
102
RTVSPost2010Prop35
280
     0
102
RTVSPost2010PropOp35
 70
     1
102
RTVSPost2010Prop36
280
     0
102
RTVSPost2010PropOp36
 70
     1
102
RTVSPost2010Prop37
 90
       50
102
RTVSPost2010PropOp37
 70
     1
102
RTVSPost2010Prop38
140
0.0
102
RTVSPost2010PropOp38
 70
     1
102
RTVSPost2010Prop39
140
1.0
102
RTVSPost2010PropOp39
 70
     1
102
RTVSPost2010Prop40
 90
        0
102
RTVSPost2010PropOp40
 70
     1
102
RTVSPost2010Prop41ColorIndex
 90
       18
102
RTVSPost2010Prop41ColorRGB
 90
        0
102
RTVSPost2010PropOp41
 70
     1
102
RTVSPost2010Prop42
 90
       50
102
RTVSPost2010PropOp42
 70
     1
102
RTVSPost2010Prop43
 90
        3
102
RTVSPost2010PropOp43
 70
     1
102
RTVSPost2010Prop44ColorIndex
 90
        5
102
RTVSPost2010Prop44ColorRGB
 90
      255
102
RTVSPost2010PropOp44
 70
     1
102
RTVSPost2010Prop45
280
     0
102
RTVSPost2010PropOp45
 70
     1
102
RTVSPost2010Prop46
 90
       50
102
RTVSPost2010PropOp46
 70
     1
102
RTVSPost2010Prop47
 90
       50
102
RTVSPost2010PropOp47
 70
     1
102
RTVSPost2010Prop48
 90
       50
102
RTVSPost2010PropOp48
 70
     1
102
RTVSPost2010Prop49
280
     0
102
RTVSPost2010PropOp49
 70
     1
102
RTVSPost2010Prop50
 90
       50
102
RTVSPost2010PropOp50
 70
     1
102
RTVSPost2010Prop51ColorIndex
 90
      256
102
RTVSPost2010Prop51ColorRGB
 90
-16777216
102
RTVSPost2010PropOp51
 70
     0
102
RTVSPost2010Prop52
140
1.0
102
RTVSPost2010PropOp52
 70
     0
102
RTVSPost2010Prop53
 90
        2
102
RTVSPost2010PropOp53
 70
     1
102
RTVSPost2010Prop54
  1
strokes_ogs.tif
102
RTVSPost2010PropOp54
 70
     1
102
RTVSPost2010Prop55
280
     0
102
RTVSPost2010PropOp55
 70
     1
102
RTVSPost2010Prop56
140
1.0
102
RTVSPost2010PropOp56
 70
     1
102
RTVSPost2010Prop57
140
1.0
102
RTVSPost2010PropOp57
 70
     1
102
RTVSPropertyOp0
 70
     1
102
RTVSPropertyOp1
 70
     1
102
RTVSPropertyOp2
 70
     1
102
RTVSPropertyOp3
 70
     1
102
RTVSPropertyOp4
 70
     1
102
RTVSPropertyOp5
 70
     1
102
RTVSPropertyOp6
 70
     1
102
RTVSPropertyOp7
 70
     1
102
RTVSPropertyOp8
 70
     1
102
RTVSPropertyOp9
 70
     1
102
RTVSPropertyOp10
 70
     1
102
RTVSPropertyOp11
 70
     1
102
RTVSPropertyOp12
 70
     1
102
RTVSPropertyOp13
 70
     1
102
RTVSPropertyOp14
 70
     1
102
RTVSPropertyOp15
 70
     1
102
RTVSPropertyOp16
 70
     1
102
RTVSPropertyOp17
 70
     1
102
RTVSPropertyOp18
 70
     1
102
RTVSPropertyOp19
 70
     1
102
RTVSPropertyOp20
 70
     1
102
RTVSPropertyOp21
 70
     1
102
RTVSPropertyOp22
 70
     1
102
RTVSPropertyOp23
 70
     1
102
RTVSPropertyOp24
 70
     1
102
RTVSPropertyOp25
 70
     1
102
RTVSPropertyOp26
 70
     1
102
RTVSPropertyOp27
 70
     1
102
RTVSPropertyOp28
 70
     1
102
RTVSPropertyOp29
 70
     1
102
RTVSPropertyOp30
 70
     1
102
RTVSPropertyOp31
 70
     1
102
RTVSPropertyOp32
 70
     1
102
RTVSPropertyOp33
 70
     1
102
RTVSPropertyOp34
 70
     1
102
RTVSPropertyOp35
 70
     1
102
RTVSPropertyOp36
 70
     1
102
RTVSPropertyOp37
 70
     1
102
RTVSPropertyOp38
 70
     1
102
RTVSPropertyOp39
 70
     1
102
RTVSPropertyOp40
 70
     1
102
RTVSPropertyOp41
 70
     1
102
RTVSPropertyOp42
 70
     1
102
RTVSPropertyOp43
 70
     1
102
RTVSPropertyOp44
 70
     1
102
RTVSPropertyOp45
 70
     1
102
RTVSPropertyOp46
 70
     1
102
RTVSPropertyOp47
 70
     1
102
RTVSPropertyOp48
 70
     1
102
RTVSPropertyOp49
 70
     1
102
RTVSPropertyOp50
 70
     1
102
RTVSPropertyOp51
 70
     0
102
RTVSPropertyOp52
 70
     0
102
RTVSPropertyOp53
 70
     1
102
RTVSPropertyOp54
 70
     1
102
RTVSPropertyOp55
 70
     1
102
RTVSPropertyOp56
 70
     1
102
RTVSPropertyOp57
 70
     1
102
RTVSPropertyOp58
 70
     1
102
RTVSPropertyOp59
 70
     1
102
RTVSPropertyOp60
 70
     1
102
RTVSPropertyOp61
 70
     1
102
RTVSPropertyOp62
 70
     1
  0
XRECORD
  5
1B45
102
{ACAD_REACTORS
330
1B44
102
}
330
1B44
100
AcDbXrecord
280
     1
102
RTVSPost2010Prop28
280
     0
102
RTVSPost2010PropOp28
 70
     1
102
RTVSPost2010Prop29
280
     1
102
RTVSPost2010PropOp29
 70
     1
102
RTVSPost2010Prop30
280
     1
102
RTVSPost2010PropOp30
 70
     1
102
RTVSPost2010Prop31
280
     0
102
RTVSPost2010PropOp31
 70
     1
102
RTVSPost2010Prop32
280
     0
102
RTVSPost2010PropOp32
 70
     1
102
RTVSPost2010Prop33
280
     0
102
RTVSPost2010PropOp33
 70
     1
102
RTVSPost2010Prop34
280
     0
102
RTVSPost2010PropOp34
 70
     1
102
RTVSPost2010Prop35
280
     0
102
RTVSPost2010PropOp35
 70
     1
102
RTVSPost2010Prop36
280
     0
102
RTVSPost2010PropOp36
 70
     1
102
RTVSPost2010Prop37
 90
       50
102
RTVSPost2010PropOp37
 70
     1
102
RTVSPost2010Prop38
140
0.0
102
RTVSPost2010PropOp38
 70
     1
102
RTVSPost2010Prop39
140
1.0
102
RTVSPost2010PropOp39
 70
     1
102
RTVSPost2010Prop40
 90
        0
102
RTVSPost2010PropOp40
 70
     1
102
RTVSPost2010Prop41ColorIndex
 90
       18
102
RTVSPost2010Prop41ColorRGB
 90
        0
102
RTVSPost2010PropOp41
 70
     1
102
RTVSPost2010Prop42
 90
       50
102
RTVSPost2010PropOp42
 70
     1
102
RTVSPost2010Prop43
 90
        3
102
RTVSPost2010PropOp43
 70
     1
102
RTVSPost2010Prop44ColorIndex
 90
        5
102
RTVSPost2010Prop44ColorRGB
 90
      255
102
RTVSPost2010PropOp44
 70
     1
102
RTVSPost2010Prop45
280
     0
102
RTVSPost2010PropOp45
 70
     1
102
RTVSPost2010Prop46
 90
       50
102
RTVSPost2010PropOp46
 70
     1
102
RTVSPost2010Prop47
 90
       50
102
RTVSPost2010PropOp47
 70
     1
102
RTVSPost2010Prop48
 90
       50
102
RTVSPost2010PropOp48
 70
     1
102
RTVSPost2010Prop49
280
     0
102
RTVSPost2010PropOp49
 70
     1
102
RTVSPost2010Prop50
 90
       50
102
RTVSPost2010PropOp50
 70
     1
102
RTVSPost2010Prop51ColorIndex
 90
      256
102
RTVSPost2010Prop51ColorRGB
 90
-16777216
102
RTVSPost2010PropOp51
 70
     0
102
RTVSPost2010Prop52
140
1.0
102
RTVSPost2010PropOp52
 70
     0
102
RTVSPost2010Prop53
 90
        2
102
RTVSPost2010PropOp53
 70
     1
102
RTVSPost2010Prop54
  1
strokes_ogs.tif
102
RTVSPost2010PropOp54
 70
     1
102
RTVSPost2010Prop55
280
     0
102
RTVSPost2010PropOp55
 70
     1
102
RTVSPost2010Prop56
140
1.0
102
RTVSPost2010PropOp56
 70
     1
102
RTVSPost2010Prop57
140
1.0
102
RTVSPost2010PropOp57
 70
     1
102
RTVSPropertyOp0
 70
     1
102
RTVSPropertyOp1
 70
     1
102
RTVSPropertyOp2
 70
     1
102
RTVSPropertyOp3
 70
     1
102
RTVSPropertyOp4
 70
     1
102
RTVSPropertyOp5
 70
     1
102
RTVSPropertyOp6
 70
     1
102
RTVSPropertyOp7
 70
     1
102
RTVSPropertyOp8
 70
     1
102
RTVSPropertyOp9
 70
     1
102
RTVSPropertyOp10
 70
     1
102
RTVSPropertyOp11
 70
     1
102
RTVSPropertyOp12
 70
     1
102
RTVSPropertyOp13
 70
     1
102
RTVSPropertyOp14
 70
     1
102
RTVSPropertyOp15
 70
     1
102
RTVSPropertyOp16
 70
     1
102
RTVSPropertyOp17
 70
     1
102
RTVSPropertyOp18
 70
     1
102
RTVSPropertyOp19
 70
     1
102
RTVSPropertyOp20
 70
     1
102
RTVSPropertyOp21
 70
     1
102
RTVSPropertyOp22
 70
     1
102
RTVSPropertyOp23
 70
     1
102
RTVSPropertyOp24
 70
     1
102
RTVSPropertyOp25
 70
     1
102
RTVSPropertyOp26
 70
     1
102
RTVSPropertyOp27
 70
     1
102
RTVSPropertyOp28
 70
     1
102
RTVSPropertyOp29
 70
     1
102
RTVSPropertyOp30
 70
     1
102
RTVSPropertyOp31
 70
     1
102
RTVSPropertyOp32
 70
     1
102
RTVSPropertyOp33
 70
     1
102
RTVSPropertyOp34
 70
     1
102
RTVSPropertyOp35
 70
     1
102
RTVSPropertyOp36
 70
     1
102
RTVSPropertyOp37
 70
     1
102
RTVSPropertyOp38
 70
     1
102
RTVSPropertyOp39
 70
     1
102
RTVSPropertyOp40
 70
     1
102
RTVSPropertyOp41
 70
     1
102
RTVSPropertyOp42
 70
     1
102
RTVSPropertyOp43
 70
     1
102
RTVSPropertyOp44
 70
     1
102
RTVSPropertyOp45
 70
     1
102
RTVSPropertyOp46
 70
     1
102
RTVSPropertyOp47
 70
     1
102
RTVSPropertyOp48
 70
     1
102
RTVSPropertyOp49
 70
     1
102
RTVSPropertyOp50
 70
     1
102
RTVSPropertyOp51
 70
     0
102
RTVSPropertyOp52
 70
     0
102
RTVSPropertyOp53
 70
     1
102
RTVSPropertyOp54
 70
     1
102
RTVSPropertyOp55
 70
     1
102
RTVSPropertyOp56
 70
     1
102
RTVSPropertyOp57
 70
     1
102
RTVSPropertyOp58
 70
     1
102
RTVSPropertyOp59
 70
     1
102
RTVSPropertyOp60
 70
     1
102
RTVSPropertyOp61
 70
     1
102
RTVSPropertyOp62
 70
     1
  0
XRECORD
  5
1B61
102
{ACAD_REACTORS
330
1B60
102
}
330
1B60
100
AcDbXrecord
280
     1
102
RTVSPost2010Prop28
280
     0
102
RTVSPost2010PropOp28
 70
     0
102
RTVSPost2010Prop29
280
     1
102
RTVSPost2010PropOp29
 70
     0
102
RTVSPost2010Prop30
280
     1
102
RTVSPost2010PropOp30
 70
     0
102
RTVSPost2010Prop31
280
     0
102
RTVSPost2010PropOp31
 70
     0
102
RTVSPost2010Prop32
280
     0
102
RTVSPost2010PropOp32
 70
     0
102
RTVSPost2010Prop33
280
     0
102
RTVSPost2010PropOp33
 70
     0
102
RTVSPost2010Prop34
280
     0
102
RTVSPost2010PropOp34
 70
     0
102
RTVSPost2010Prop35
280
     0
102
RTVSPost2010PropOp35
 70
     0
102
RTVSPost2010Prop36
280
     0
102
RTVSPost2010PropOp36
 70
     0
102
RTVSPost2010Prop37
 90
       50
102
RTVSPost2010PropOp37
 70
     0
102
RTVSPost2010Prop38
140
0.0
102
RTVSPost2010PropOp38
 70
     0
102
RTVSPost2010Prop39
140
1.0
102
RTVSPost2010PropOp39
 70
     0
102
RTVSPost2010Prop40
 90
        0
102
RTVSPost2010PropOp40
 70
     0
102
RTVSPost2010Prop41ColorIndex
 90
       18
102
RTVSPost2010Prop41ColorRGB
 90
        0
102
RTVSPost2010PropOp41
 70
     0
102
RTVSPost2010Prop42
 90
       50
102
RTVSPost2010PropOp42
 70
     0
102
RTVSPost2010Prop43
 90
        3
102
RTVSPost2010PropOp43
 70
     0
102
RTVSPost2010Prop44ColorIndex
 90
        5
102
RTVSPost2010Prop44ColorRGB
 90
      255
102
RTVSPost2010PropOp44
 70
     0
102
RTVSPost2010Prop45
280
     0
102
RTVSPost2010PropOp45
 70
     0
102
RTVSPost2010Prop46
 90
       50
102
RTVSPost2010PropOp46
 70
     0
102
RTVSPost2010Prop47
 90
       50
102
RTVSPost2010PropOp47
 70
     0
102
RTVSPost2010Prop48
 90
       50
102
RTVSPost2010PropOp48
 70
     0
102
RTVSPost2010Prop49
280
     0
102
RTVSPost2010PropOp49
 70
     0
102
RTVSPost2010Prop50
 90
       50
102
RTVSPost2010PropOp50
 70
     0
102
RTVSPost2010Prop51ColorIndex
 90
      256
102
RTVSPost2010Prop51ColorRGB
 90
-16777216
102
RTVSPost2010PropOp51
 70
     0
102
RTVSPost2010Prop52
140
1.0
102
RTVSPost2010PropOp52
 70
     0
102
RTVSPost2010Prop53
 90
        2
102
RTVSPost2010PropOp53
 70
     0
102
RTVSPost2010Prop54
  1
strokes_ogs.tif
102
RTVSPost2010PropOp54
 70
     0
102
RTVSPost2010Prop55
280
     0
102
RTVSPost2010PropOp55
 70
     0
102
RTVSPost2010Prop56
140
1.0
102
RTVSPost2010PropOp56
 70
     0
102
RTVSPost2010Prop57
140
1.0
102
RTVSPost2010PropOp57
 70
     0
102
RTVSPropertyOp0
 70
     0
102
RTVSPropertyOp1
 70
     0
102
RTVSPropertyOp2
 70
     0
102
RTVSPropertyOp3
 70
     0
102
RTVSPropertyOp4
 70
     0
102
RTVSPropertyOp5
 70
     0
102
RTVSPropertyOp6
 70
     0
102
RTVSPropertyOp7
 70
     0
102
RTVSPropertyOp8
 70
     0
102
RTVSPropertyOp9
 70
     0
102
RTVSPropertyOp10
 70
     0
102
RTVSPropertyOp11
 70
     0
102
RTVSPropertyOp12
 70
     0
102
RTVSPropertyOp13
 70
     0
102
RTVSPropertyOp14
 70
     2
102
RTVSPropertyOp15
 70
     0
102
RTVSPropertyOp16
 70
     0
102
RTVSPropertyOp17
 70
     0
102
RTVSPropertyOp18
 70
     0
102
RTVSPropertyOp19
 70
     0
102
RTVSPropertyOp20
 70
     0
102
RTVSPropertyOp21
 70
     0
102
RTVSPropertyOp22
 70
     0
102
RTVSPropertyOp23
 70
     0
102
RTVSPropertyOp24
 70
     0
102
RTVSPropertyOp25
 70
     0
102
RTVSPropertyOp26
 70
     0
102
RTVSPropertyOp27
 70
     0
102
RTVSPropertyOp28
 70
     0
102
RTVSPropertyOp29
 70
     0
102
RTVSPropertyOp30
 70
     0
102
RTVSPropertyOp31
 70
     0
102
RTVSPropertyOp32
 70
     0
102
RTVSPropertyOp33
 70
     0
102
RTVSPropertyOp34
 70
     0
102
RTVSPropertyOp35
 70
     0
102
RTVSPropertyOp36
 70
     0
102
RTVSPropertyOp37
 70
     0
102
RTVSPropertyOp38
 70
     0
102
RTVSPropertyOp39
 70
     0
102
RTVSPropertyOp40
 70
     0
102
RTVSPropertyOp41
 70
     0
102
RTVSPropertyOp42
 70
     0
102
RTVSPropertyOp43
 70
     0
102
RTVSPropertyOp44
 70
     0
102
RTVSPropertyOp45
 70
     0
102
RTVSPropertyOp46
 70
     0
102
RTVSPropertyOp47
 70
     0
102
RTVSPropertyOp48
 70
     0
102
RTVSPropertyOp49
 70
     0
102
RTVSPropertyOp50
 70
     0
102
RTVSPropertyOp51
 70
     0
102
RTVSPropertyOp52
 70
     0
102
RTVSPropertyOp53
 70
     0
102
RTVSPropertyOp54
 70
     0
102
RTVSPropertyOp55
 70
     0
102
RTVSPropertyOp56
 70
     0
102
RTVSPropertyOp57
 70
     0
102
RTVSPropertyOp58
 70
     0
102
RTVSPropertyOp59
 70
     0
102
RTVSPropertyOp60
 70
     0
102
RTVSPropertyOp61
 70
     0
102
RTVSPropertyOp62
 70
     0
  0
XRECORD
  5
1B51
102
{ACAD_REACTORS
330
1B50
102
}
330
1B50
100
AcDbXrecord
280
     1
102
RTVSPost2010Prop28
280
     0
102
RTVSPost2010PropOp28
 70
     1
102
RTVSPost2010Prop29
280
     1
102
RTVSPost2010PropOp29
 70
     1
102
RTVSPost2010Prop30
280
     1
102
RTVSPost2010PropOp30
 70
     1
102
RTVSPost2010Prop31
280
     0
102
RTVSPost2010PropOp31
 70
     1
102
RTVSPost2010Prop32
280
     0
102
RTVSPost2010PropOp32
 70
     1
102
RTVSPost2010Prop33
280
     0
102
RTVSPost2010PropOp33
 70
     1
102
RTVSPost2010Prop34
280
     0
102
RTVSPost2010PropOp34
 70
     1
102
RTVSPost2010Prop35
280
     0
102
RTVSPost2010PropOp35
 70
     1
102
RTVSPost2010Prop36
280
     0
102
RTVSPost2010PropOp36
 70
     1
102
RTVSPost2010Prop37
 90
       50
102
RTVSPost2010PropOp37
 70
     1
102
RTVSPost2010Prop38
140
0.0
102
RTVSPost2010PropOp38
 70
     1
102
RTVSPost2010Prop39
140
1.0
102
RTVSPost2010PropOp39
 70
     1
102
RTVSPost2010Prop40
 90
        0
102
RTVSPost2010PropOp40
 70
     1
102
RTVSPost2010Prop41ColorIndex
 90
       18
102
RTVSPost2010Prop41ColorRGB
 90
        0
102
RTVSPost2010PropOp41
 70
     1
102
RTVSPost2010Prop42
 90
       50
102
RTVSPost2010PropOp42
 70
     1
102
RTVSPost2010Prop43
 90
        3
102
RTVSPost2010PropOp43
 70
     1
102
RTVSPost2010Prop44ColorIndex
 90
        5
102
RTVSPost2010Prop44ColorRGB
 90
      255
102
RTVSPost2010PropOp44
 70
     1
102
RTVSPost2010Prop45
280
     0
102
RTVSPost2010PropOp45
 70
     1
102
RTVSPost2010Prop46
 90
       50
102
RTVSPost2010PropOp46
 70
     1
102
RTVSPost2010Prop47
 90
       50
102
RTVSPost2010PropOp47
 70
     1
102
RTVSPost2010Prop48
 90
       50
102
RTVSPost2010PropOp48
 70
     1
102
RTVSPost2010Prop49
280
     0
102
RTVSPost2010PropOp49
 70
     1
102
RTVSPost2010Prop50
 90
       50
102
RTVSPost2010PropOp50
 70
     1
102
RTVSPost2010Prop51ColorIndex
 90
      256
102
RTVSPost2010Prop51ColorRGB
 90
-16777216
102
RTVSPost2010PropOp51
 70
     0
102
RTVSPost2010Prop52
140
1.0
102
RTVSPost2010PropOp52
 70
     0
102
RTVSPost2010Prop53
 90
        2
102
RTVSPost2010PropOp53
 70
     1
102
RTVSPost2010Prop54
  1
strokes_ogs.tif
102
RTVSPost2010PropOp54
 70
     1
102
RTVSPost2010Prop55
280
     0
102
RTVSPost2010PropOp55
 70
     1
102
RTVSPost2010Prop56
140
1.0
102
RTVSPost2010PropOp56
 70
     1
102
RTVSPost2010Prop57
140
1.0
102
RTVSPost2010PropOp57
 70
     1
102
RTVSPropertyOp0
 70
     1
102
RTVSPropertyOp1
 70
     1
102
RTVSPropertyOp2
 70
     1
102
RTVSPropertyOp3
 70
     1
102
RTVSPropertyOp4
 70
     1
102
RTVSPropertyOp5
 70
     1
102
RTVSPropertyOp6
 70
     1
102
RTVSPropertyOp7
 70
     1
102
RTVSPropertyOp8
 70
     1
102
RTVSPropertyOp9
 70
     1
102
RTVSPropertyOp10
 70
     1
102
RTVSPropertyOp11
 70
     1
102
RTVSPropertyOp12
 70
     1
102
RTVSPropertyOp13
 70
     1
102
RTVSPropertyOp14
 70
     1
102
RTVSPropertyOp15
 70
     1
102
RTVSPropertyOp16
 70
     1
102
RTVSPropertyOp17
 70
     1
102
RTVSPropertyOp18
 70
     1
102
RTVSPropertyOp19
 70
     1
102
RTVSPropertyOp20
 70
     1
102
RTVSPropertyOp21
 70
     1
102
RTVSPropertyOp22
 70
     1
102
RTVSPropertyOp23
 70
     1
102
RTVSPropertyOp24
 70
     1
102
RTVSPropertyOp25
 70
     1
102
RTVSPropertyOp26
 70
     1
102
RTVSPropertyOp27
 70
     1
102
RTVSPropertyOp28
 70
     1
102
RTVSPropertyOp29
 70
     1
102
RTVSPropertyOp30
 70
     1
102
RTVSPropertyOp31
 70
     1
102
RTVSPropertyOp32
 70
     1
102
RTVSPropertyOp33
 70
     1
102
RTVSPropertyOp34
 70
     1
102
RTVSPropertyOp35
 70
     1
102
RTVSPropertyOp36
 70
     1
102
RTVSPropertyOp37
 70
     1
102
RTVSPropertyOp38
 70
     1
102
RTVSPropertyOp39
 70
     1
102
RTVSPropertyOp40
 70
     1
102
RTVSPropertyOp41
 70
     1
102
RTVSPropertyOp42
 70
     1
102
RTVSPropertyOp43
 70
     1
102
RTVSPropertyOp44
 70
     1
102
RTVSPropertyOp45
 70
     1
102
RTVSPropertyOp46
 70
     1
102
RTVSPropertyOp47
 70
     1
102
RTVSPropertyOp48
 70
     1
102
RTVSPropertyOp49
 70
     1
102
RTVSPropertyOp50
 70
     1
102
RTVSPropertyOp51
 70
     0
102
RTVSPropertyOp52
 70
     0
102
RTVSPropertyOp53
 70
     1
102
RTVSPropertyOp54
 70
     1
102
RTVSPropertyOp55
 70
     1
102
RTVSPropertyOp56
 70
     1
102
RTVSPropertyOp57
 70
     1
102
RTVSPropertyOp58
 70
     1
102
RTVSPropertyOp59
 70
     1
102
RTVSPropertyOp60
 70
     1
102
RTVSPropertyOp61
 70
     1
102
RTVSPropertyOp62
 70
     1
  0
XRECORD
  5
1B63
102
{ACAD_REACTORS
330
1B62
102
}
330
1B62
100
AcDbXrecord
280
     1
102
RTVSPost2010Prop28
280
     0
102
RTVSPost2010PropOp28
 70
     0
102
RTVSPost2010Prop29
280
     1
102
RTVSPost2010PropOp29
 70
     0
102
RTVSPost2010Prop30
280
     1
102
RTVSPost2010PropOp30
 70
     0
102
RTVSPost2010Prop31
280
     0
102
RTVSPost2010PropOp31
 70
     0
102
RTVSPost2010Prop32
280
     0
102
RTVSPost2010PropOp32
 70
     0
102
RTVSPost2010Prop33
280
     0
102
RTVSPost2010PropOp33
 70
     0
102
RTVSPost2010Prop34
280
     0
102
RTVSPost2010PropOp34
 70
     0
102
RTVSPost2010Prop35
280
     0
102
RTVSPost2010PropOp35
 70
     0
102
RTVSPost2010Prop36
280
     0
102
RTVSPost2010PropOp36
 70
     0
102
RTVSPost2010Prop37
 90
       50
102
RTVSPost2010PropOp37
 70
     0
102
RTVSPost2010Prop38
140
0.0
102
RTVSPost2010PropOp38
 70
     0
102
RTVSPost2010Prop39
140
1.0
102
RTVSPost2010PropOp39
 70
     0
102
RTVSPost2010Prop40
 90
        0
102
RTVSPost2010PropOp40
 70
     0
102
RTVSPost2010Prop41ColorIndex
 90
       18
102
RTVSPost2010Prop41ColorRGB
 90
        0
102
RTVSPost2010PropOp41
 70
     0
102
RTVSPost2010Prop42
 90
       50
102
RTVSPost2010PropOp42
 70
     0
102
RTVSPost2010Prop43
 90
        3
102
RTVSPost2010PropOp43
 70
     0
102
RTVSPost2010Prop44ColorIndex
 90
        5
102
RTVSPost2010Prop44ColorRGB
 90
      255
102
RTVSPost2010PropOp44
 70
     0
102
RTVSPost2010Prop45
280
     0
102
RTVSPost2010PropOp45
 70
     0
102
RTVSPost2010Prop46
 90
       50
102
RTVSPost2010PropOp46
 70
     0
102
RTVSPost2010Prop47
 90
       50
102
RTVSPost2010PropOp47
 70
     0
102
RTVSPost2010Prop48
 90
       50
102
RTVSPost2010PropOp48
 70
     0
102
RTVSPost2010Prop49
280
     0
102
RTVSPost2010PropOp49
 70
     0
102
RTVSPost2010Prop50
 90
       50
102
RTVSPost2010PropOp50
 70
     0
102
RTVSPost2010Prop51ColorIndex
 90
      256
102
RTVSPost2010Prop51ColorRGB
 90
-16777216
102
RTVSPost2010PropOp51
 70
     0
102
RTVSPost2010Prop52
140
1.0
102
RTVSPost2010PropOp52
 70
     0
102
RTVSPost2010Prop53
 90
        2
102
RTVSPost2010PropOp53
 70
     0
102
RTVSPost2010Prop54
  1
strokes_ogs.tif
102
RTVSPost2010PropOp54
 70
     0
102
RTVSPost2010Prop55
280
     0
102
RTVSPost2010PropOp55
 70
     0
102
RTVSPost2010Prop56
140
1.0
102
RTVSPost2010PropOp56
 70
     0
102
RTVSPost2010Prop57
140
1.0
102
RTVSPost2010PropOp57
 70
     0
102
RTVSPropertyOp0
 70
     0
102
RTVSPropertyOp1
 70
     0
102
RTVSPropertyOp2
 70
     0
102
RTVSPropertyOp3
 70
     0
102
RTVSPropertyOp4
 70
     0
102
RTVSPropertyOp5
 70
     0
102
RTVSPropertyOp6
 70
     0
102
RTVSPropertyOp7
 70
     0
102
RTVSPropertyOp8
 70
     0
102
RTVSPropertyOp9
 70
     0
102
RTVSPropertyOp10
 70
     0
102
RTVSPropertyOp11
 70
     0
102
RTVSPropertyOp12
 70
     0
102
RTVSPropertyOp13
 70
     0
102
RTVSPropertyOp14
 70
     2
102
RTVSPropertyOp15
 70
     0
102
RTVSPropertyOp16
 70
     0
102
RTVSPropertyOp17
 70
     0
102
RTVSPropertyOp18
 70
     0
102
RTVSPropertyOp19
 70
     0
102
RTVSPropertyOp20
 70
     0
102
RTVSPropertyOp21
 70
     0
102
RTVSPropertyOp22
 70
     0
102
RTVSPropertyOp23
 70
     0
102
RTVSPropertyOp24
 70
     0
102
RTVSPropertyOp25
 70
     0
102
RTVSPropertyOp26
 70
     0
102
RTVSPropertyOp27
 70
     0
102
RTVSPropertyOp28
 70
     0
102
RTVSPropertyOp29
 70
     0
102
RTVSPropertyOp30
 70
     0
102
RTVSPropertyOp31
 70
     0
102
RTVSPropertyOp32
 70
     0
102
RTVSPropertyOp33
 70
     0
102
RTVSPropertyOp34
 70
     0
102
RTVSPropertyOp35
 70
     0
102
RTVSPropertyOp36
 70
     0
102
RTVSPropertyOp37
 70
     0
102
RTVSPropertyOp38
 70
     0
102
RTVSPropertyOp39
 70
     0
102
RTVSPropertyOp40
 70
     0
102
RTVSPropertyOp41
 70
     0
102
RTVSPropertyOp42
 70
     0
102
RTVSPropertyOp43
 70
     0
102
RTVSPropertyOp44
 70
     0
102
RTVSPropertyOp45
 70
     0
102
RTVSPropertyOp46
 70
     0
102
RTVSPropertyOp47
 70
     0
102
RTVSPropertyOp48
 70
     0
102
RTVSPropertyOp49
 70
     0
102
RTVSPropertyOp50
 70
     0
102
RTVSPropertyOp51
 70
     0
102
RTVSPropertyOp52
 70
     0
102
RTVSPropertyOp53
 70
     0
102
RTVSPropertyOp54
 70
     0
102
RTVSPropertyOp55
 70
     0
102
RTVSPropertyOp56
 70
     0
102
RTVSPropertyOp57
 70
     0
102
RTVSPropertyOp58
 70
     0
102
RTVSPropertyOp59
 70
     0
102
RTVSPropertyOp60
 70
     0
102
RTVSPropertyOp61
 70
     0
102
RTVSPropertyOp62
 70
     0
  0
XRECORD
  5
1B49
102
{ACAD_REACTORS
330
1B48
102
}
330
1B48
100
AcDbXrecord
280
     1
102
RTVSPost2010Prop28
280
     0
102
RTVSPost2010PropOp28
 70
     1
102
RTVSPost2010Prop29
280
     1
102
RTVSPost2010PropOp29
 70
     1
102
RTVSPost2010Prop30
280
     1
102
RTVSPost2010PropOp30
 70
     1
102
RTVSPost2010Prop31
280
     0
102
RTVSPost2010PropOp31
 70
     1
102
RTVSPost2010Prop32
280
     0
102
RTVSPost2010PropOp32
 70
     1
102
RTVSPost2010Prop33
280
     0
102
RTVSPost2010PropOp33
 70
     1
102
RTVSPost2010Prop34
280
     0
102
RTVSPost2010PropOp34
 70
     1
102
RTVSPost2010Prop35
280
     0
102
RTVSPost2010PropOp35
 70
     1
102
RTVSPost2010Prop36
280
     0
102
RTVSPost2010PropOp36
 70
     1
102
RTVSPost2010Prop37
 90
       50
102
RTVSPost2010PropOp37
 70
     1
102
RTVSPost2010Prop38
140
0.0
102
RTVSPost2010PropOp38
 70
     1
102
RTVSPost2010Prop39
140
1.0
102
RTVSPost2010PropOp39
 70
     1
102
RTVSPost2010Prop40
 90
        0
102
RTVSPost2010PropOp40
 70
     1
102
RTVSPost2010Prop41ColorIndex
 90
       18
102
RTVSPost2010Prop41ColorRGB
 90
        0
102
RTVSPost2010PropOp41
 70
     1
102
RTVSPost2010Prop42
 90
       50
102
RTVSPost2010PropOp42
 70
     1
102
RTVSPost2010Prop43
 90
        3
102
RTVSPost2010PropOp43
 70
     1
102
RTVSPost2010Prop44ColorIndex
 90
        5
102
RTVSPost2010Prop44ColorRGB
 90
      255
102
RTVSPost2010PropOp44
 70
     1
102
RTVSPost2010Prop45
280
     0
102
RTVSPost2010PropOp45
 70
     1
102
RTVSPost2010Prop46
 90
       50
102
RTVSPost2010PropOp46
 70
     1
102
RTVSPost2010Prop47
 90
       50
102
RTVSPost2010PropOp47
 70
     1
102
RTVSPost2010Prop48
 90
       50
102
RTVSPost2010PropOp48
 70
     1
102
RTVSPost2010Prop49
280
     0
102
RTVSPost2010PropOp49
 70
     1
102
RTVSPost2010Prop50
 90
       50
102
RTVSPost2010PropOp50
 70
     1
102
RTVSPost2010Prop51ColorIndex
 90
      256
102
RTVSPost2010Prop51ColorRGB
 90
-16777216
102
RTVSPost2010PropOp51
 70
     0
102
RTVSPost2010Prop52
140
1.0
102
RTVSPost2010PropOp52
 70
     0
102
RTVSPost2010Prop53
 90
        2
102
RTVSPost2010PropOp53
 70
     1
102
RTVSPost2010Prop54
  1
strokes_ogs.tif
102
RTVSPost2010PropOp54
 70
     1
102
RTVSPost2010Prop55
280
     0
102
RTVSPost2010PropOp55
 70
     1
102
RTVSPost2010Prop56
140
1.0
102
RTVSPost2010PropOp56
 70
     1
102
RTVSPost2010Prop57
140
1.0
102
RTVSPost2010PropOp57
 70
     1
102
RTVSPropertyOp0
 70
     1
102
RTVSPropertyOp1
 70
     1
102
RTVSPropertyOp2
 70
     1
102
RTVSPropertyOp3
 70
     1
102
RTVSPropertyOp4
 70
     1
102
RTVSPropertyOp5
 70
     1
102
RTVSPropertyOp6
 70
     1
102
RTVSPropertyOp7
 70
     1
102
RTVSPropertyOp8
 70
     1
102
RTVSPropertyOp9
 70
     1
102
RTVSPropertyOp10
 70
     1
102
RTVSPropertyOp11
 70
     1
102
RTVSPropertyOp12
 70
     1
102
RTVSPropertyOp13
 70
     1
102
RTVSPropertyOp14
 70
     1
102
RTVSPropertyOp15
 70
     1
102
RTVSPropertyOp16
 70
     1
102
RTVSPropertyOp17
 70
     1
102
RTVSPropertyOp18
 70
     1
102
RTVSPropertyOp19
 70
     1
102
RTVSPropertyOp20
 70
     1
102
RTVSPropertyOp21
 70
     1
102
RTVSPropertyOp22
 70
     1
102
RTVSPropertyOp23
 70
     1
102
RTVSPropertyOp24
 70
     1
102
RTVSPropertyOp25
 70
     1
102
RTVSPropertyOp26
 70
     1
102
RTVSPropertyOp27
 70
     1
102
RTVSPropertyOp28
 70
     1
102
RTVSPropertyOp29
 70
     1
102
RTVSPropertyOp30
 70
     1
102
RTVSPropertyOp31
 70
     1
102
RTVSPropertyOp32
 70
     1
102
RTVSPropertyOp33
 70
     1
102
RTVSPropertyOp34
 70
     1
102
RTVSPropertyOp35
 70
     1
102
RTVSPropertyOp36
 70
     1
102
RTVSPropertyOp37
 70
     1
102
RTVSPropertyOp38
 70
     1
102
RTVSPropertyOp39
 70
     1
102
RTVSPropertyOp40
 70
     1
102
RTVSPropertyOp41
 70
     1
102
RTVSPropertyOp42
 70
     1
102
RTVSPropertyOp43
 70
     1
102
RTVSPropertyOp44
 70
     1
102
RTVSPropertyOp45
 70
     1
102
RTVSPropertyOp46
 70
     1
102
RTVSPropertyOp47
 70
     1
102
RTVSPropertyOp48
 70
     1
102
RTVSPropertyOp49
 70
     1
102
RTVSPropertyOp50
 70
     1
102
RTVSPropertyOp51
 70
     0
102
RTVSPropertyOp52
 70
     0
102
RTVSPropertyOp53
 70
     1
102
RTVSPropertyOp54
 70
     1
102
RTVSPropertyOp55
 70
     1
102
RTVSPropertyOp56
 70
     1
102
RTVSPropertyOp57
 70
     1
102
RTVSPropertyOp58
 70
     1
102
RTVSPropertyOp59
 70
     1
102
RTVSPropertyOp60
 70
     1
102
RTVSPropertyOp61
 70
     1
102
RTVSPropertyOp62
 70
     1
  0
XRECORD
  5
1B5F
102
{ACAD_REACTORS
330
1B5E
102
}
330
1B5E
100
AcDbXrecord
280
     1
102
RTVSPost2010Prop28
280
     0
102
RTVSPost2010PropOp28
 70
     1
102
RTVSPost2010Prop29
280
     1
102
RTVSPost2010PropOp29
 70
     1
102
RTVSPost2010Prop30
280
     1
102
RTVSPost2010PropOp30
 70
     1
102
RTVSPost2010Prop31
280
     0
102
RTVSPost2010PropOp31
 70
     1
102
RTVSPost2010Prop32
280
     0
102
RTVSPost2010PropOp32
 70
     1
102
RTVSPost2010Prop33
280
     0
102
RTVSPost2010PropOp33
 70
     1
102
RTVSPost2010Prop34
280
     0
102
RTVSPost2010PropOp34
 70
     1
102
RTVSPost2010Prop35
280
     0
102
RTVSPost2010PropOp35
 70
     1
102
RTVSPost2010Prop36
280
     0
102
RTVSPost2010PropOp36
 70
     1
102
RTVSPost2010Prop37
 90
       50
102
RTVSPost2010PropOp37
 70
     1
102
RTVSPost2010Prop38
140
0.0
102
RTVSPost2010PropOp38
 70
     1
102
RTVSPost2010Prop39
140
1.0
102
RTVSPost2010PropOp39
 70
     1
102
RTVSPost2010Prop40
 90
        0
102
RTVSPost2010PropOp40
 70
     1
102
RTVSPost2010Prop41ColorIndex
 90
       18
102
RTVSPost2010Prop41ColorRGB
 90
        0
102
RTVSPost2010PropOp41
 70
     1
102
RTVSPost2010Prop42
 90
       50
102
RTVSPost2010PropOp42
 70
     1
102
RTVSPost2010Prop43
 90
        3
102
RTVSPost2010PropOp43
 70
     1
102
RTVSPost2010Prop44ColorIndex
 90
        5
102
RTVSPost2010Prop44ColorRGB
 90
      255
102
RTVSPost2010PropOp44
 70
     1
102
RTVSPost2010Prop45
280
     0
102
RTVSPost2010PropOp45
 70
     1
102
RTVSPost2010Prop46
 90
       50
102
RTVSPost2010PropOp46
 70
     1
102
RTVSPost2010Prop47
 90
       50
102
RTVSPost2010PropOp47
 70
     1
102
RTVSPost2010Prop48
 90
       50
102
RTVSPost2010PropOp48
 70
     1
102
RTVSPost2010Prop49
280
     0
102
RTVSPost2010PropOp49
 70
     1
102
RTVSPost2010Prop50
 90
       50
102
RTVSPost2010PropOp50
 70
     1
102
RTVSPost2010Prop51ColorIndex
 90
      256
102
RTVSPost2010Prop51ColorRGB
 90
-16777216
102
RTVSPost2010PropOp51
 70
     0
102
RTVSPost2010Prop52
140
1.0
102
RTVSPost2010PropOp52
 70
     0
102
RTVSPost2010Prop53
 90
        2
102
RTVSPost2010PropOp53
 70
     1
102
RTVSPost2010Prop54
  1
strokes_ogs.tif
102
RTVSPost2010PropOp54
 70
     1
102
RTVSPost2010Prop55
280
     0
102
RTVSPost2010PropOp55
 70
     1
102
RTVSPost2010Prop56
140
1.0
102
RTVSPost2010PropOp56
 70
     1
102
RTVSPost2010Prop57
140
1.0
102
RTVSPost2010PropOp57
 70
     1
102
RTVSPropertyOp0
 70
     1
102
RTVSPropertyOp1
 70
     1
102
RTVSPropertyOp2
 70
     1
102
RTVSPropertyOp3
 70
     1
102
RTVSPropertyOp4
 70
     1
102
RTVSPropertyOp5
 70
     1
102
RTVSPropertyOp6
 70
     1
102
RTVSPropertyOp7
 70
     1
102
RTVSPropertyOp8
 70
     1
102
RTVSPropertyOp9
 70
     1
102
RTVSPropertyOp10
 70
     1
102
RTVSPropertyOp11
 70
     1
102
RTVSPropertyOp12
 70
     1
102
RTVSPropertyOp13
 70
     1
102
RTVSPropertyOp14
 70
     1
102
RTVSPropertyOp15
 70
     1
102
RTVSPropertyOp16
 70
     1
102
RTVSPropertyOp17
 70
     1
102
RTVSPropertyOp18
 70
     1
102
RTVSPropertyOp19
 70
     1
102
RTVSPropertyOp20
 70
     1
102
RTVSPropertyOp21
 70
     1
102
RTVSPropertyOp22
 70
     1
102
RTVSPropertyOp23
 70
     1
102
RTVSPropertyOp24
 70
     1
102
RTVSPropertyOp25
 70
     1
102
RTVSPropertyOp26
 70
     1
102
RTVSPropertyOp27
 70
     1
102
RTVSPropertyOp28
 70
     1
102
RTVSPropertyOp29
 70
     1
102
RTVSPropertyOp30
 70
     1
102
RTVSPropertyOp31
 70
     1
102
RTVSPropertyOp32
 70
     1
102
RTVSPropertyOp33
 70
     1
102
RTVSPropertyOp34
 70
     1
102
RTVSPropertyOp35
 70
     1
102
RTVSPropertyOp36
 70
     1
102
RTVSPropertyOp37
 70
     1
102
RTVSPropertyOp38
 70
     1
102
RTVSPropertyOp39
 70
     1
102
RTVSPropertyOp40
 70
     1
102
RTVSPropertyOp41
 70
     1
102
RTVSPropertyOp42
 70
     1
102
RTVSPropertyOp43
 70
     1
102
RTVSPropertyOp44
 70
     1
102
RTVSPropertyOp45
 70
     1
102
RTVSPropertyOp46
 70
     1
102
RTVSPropertyOp47
 70
     1
102
RTVSPropertyOp48
 70
     1
102
RTVSPropertyOp49
 70
     1
102
RTVSPropertyOp50
 70
     1
102
RTVSPropertyOp51
 70
     0
102
RTVSPropertyOp52
 70
     0
102
RTVSPropertyOp53
 70
     1
102
RTVSPropertyOp54
 70
     1
102
RTVSPropertyOp55
 70
     1
102
RTVSPropertyOp56
 70
     1
102
RTVSPropertyOp57
 70
     1
102
RTVSPropertyOp58
 70
     1
102
RTVSPropertyOp59
 70
     1
102
RTVSPropertyOp60
 70
     1
102
RTVSPropertyOp61
 70
     1
102
RTVSPropertyOp62
 70
     1
  0
XRECORD
  5
1B5D
102
{ACAD_REACTORS
330
1B5C
102
}
330
1B5C
100
AcDbXrecord
280
     1
102
RTVSPost2010Prop28
280
     0
102
RTVSPost2010PropOp28
 70
     1
102
RTVSPost2010Prop29
280
     1
102
RTVSPost2010PropOp29
 70
     1
102
RTVSPost2010Prop30
280
     1
102
RTVSPost2010PropOp30
 70
     1
102
RTVSPost2010Prop31
280
     0
102
RTVSPost2010PropOp31
 70
     1
102
RTVSPost2010Prop32
280
     0
102
RTVSPost2010PropOp32
 70
     1
102
RTVSPost2010Prop33
280
     0
102
RTVSPost2010PropOp33
 70
     1
102
RTVSPost2010Prop34
280
     0
102
RTVSPost2010PropOp34
 70
     1
102
RTVSPost2010Prop35
280
     0
102
RTVSPost2010PropOp35
 70
     1
102
RTVSPost2010Prop36
280
     0
102
RTVSPost2010PropOp36
 70
     1
102
RTVSPost2010Prop37
 90
       50
102
RTVSPost2010PropOp37
 70
     1
102
RTVSPost2010Prop38
140
0.0
102
RTVSPost2010PropOp38
 70
     1
102
RTVSPost2010Prop39
140
1.0
102
RTVSPost2010PropOp39
 70
     1
102
RTVSPost2010Prop40
 90
        0
102
RTVSPost2010PropOp40
 70
     1
102
RTVSPost2010Prop41ColorIndex
 90
       18
102
RTVSPost2010Prop41ColorRGB
 90
        0
102
RTVSPost2010PropOp41
 70
     1
102
RTVSPost2010Prop42
 90
       50
102
RTVSPost2010PropOp42
 70
     1
102
RTVSPost2010Prop43
 90
        3
102
RTVSPost2010PropOp43
 70
     1
102
RTVSPost2010Prop44ColorIndex
 90
        5
102
RTVSPost2010Prop44ColorRGB
 90
      255
102
RTVSPost2010PropOp44
 70
     1
102
RTVSPost2010Prop45
280
     0
102
RTVSPost2010PropOp45
 70
     1
102
RTVSPost2010Prop46
 90
       50
102
RTVSPost2010PropOp46
 70
     1
102
RTVSPost2010Prop47
 90
       50
102
RTVSPost2010PropOp47
 70
     1
102
RTVSPost2010Prop48
 90
       50
102
RTVSPost2010PropOp48
 70
     1
102
RTVSPost2010Prop49
280
     0
102
RTVSPost2010PropOp49
 70
     1
102
RTVSPost2010Prop50
 90
       50
102
RTVSPost2010PropOp50
 70
     1
102
RTVSPost2010Prop51ColorIndex
 90
      256
102
RTVSPost2010Prop51ColorRGB
 90
-16777216
102
RTVSPost2010PropOp51
 70
     0
102
RTVSPost2010Prop52
140
1.0
102
RTVSPost2010PropOp52
 70
     0
102
RTVSPost2010Prop53
 90
        2
102
RTVSPost2010PropOp53
 70
     1
102
RTVSPost2010Prop54
  1
strokes_ogs.tif
102
RTVSPost2010PropOp54
 70
     1
102
RTVSPost2010Prop55
280
     0
102
RTVSPost2010PropOp55
 70
     1
102
RTVSPost2010Prop56
140
1.0
102
RTVSPost2010PropOp56
 70
     1
102
RTVSPost2010Prop57
140
1.0
102
RTVSPost2010PropOp57
 70
     1
102
RTVSPropertyOp0
 70
     1
102
RTVSPropertyOp1
 70
     1
102
RTVSPropertyOp2
 70
     1
102
RTVSPropertyOp3
 70
     1
102
RTVSPropertyOp4
 70
     1
102
RTVSPropertyOp5
 70
     1
102
RTVSPropertyOp6
 70
     1
102
RTVSPropertyOp7
 70
     1
102
RTVSPropertyOp8
 70
     1
102
RTVSPropertyOp9
 70
     1
102
RTVSPropertyOp10
 70
     1
102
RTVSPropertyOp11
 70
     1
102
RTVSPropertyOp12
 70
     1
102
RTVSPropertyOp13
 70
     1
102
RTVSPropertyOp14
 70
     1
102
RTVSPropertyOp15
 70
     1
102
RTVSPropertyOp16
 70
     1
102
RTVSPropertyOp17
 70
     1
102
RTVSPropertyOp18
 70
     1
102
RTVSPropertyOp19
 70
     1
102
RTVSPropertyOp20
 70
     1
102
RTVSPropertyOp21
 70
     1
102
RTVSPropertyOp22
 70
     1
102
RTVSPropertyOp23
 70
     1
102
RTVSPropertyOp24
 70
     1
102
RTVSPropertyOp25
 70
     1
102
RTVSPropertyOp26
 70
     1
102
RTVSPropertyOp27
 70
     1
102
RTVSPropertyOp28
 70
     1
102
RTVSPropertyOp29
 70
     1
102
RTVSPropertyOp30
 70
     1
102
RTVSPropertyOp31
 70
     1
102
RTVSPropertyOp32
 70
     1
102
RTVSPropertyOp33
 70
     1
102
RTVSPropertyOp34
 70
     1
102
RTVSPropertyOp35
 70
     1
102
RTVSPropertyOp36
 70
     1
102
RTVSPropertyOp37
 70
     1
102
RTVSPropertyOp38
 70
     1
102
RTVSPropertyOp39
 70
     1
102
RTVSPropertyOp40
 70
     1
102
RTVSPropertyOp41
 70
     1
102
RTVSPropertyOp42
 70
     1
102
RTVSPropertyOp43
 70
     1
102
RTVSPropertyOp44
 70
     1
102
RTVSPropertyOp45
 70
     1
102
RTVSPropertyOp46
 70
     1
102
RTVSPropertyOp47
 70
     1
102
RTVSPropertyOp48
 70
     1
102
RTVSPropertyOp49
 70
     1
102
RTVSPropertyOp50
 70
     1
102
RTVSPropertyOp51
 70
     0
102
RTVSPropertyOp52
 70
     0
102
RTVSPropertyOp53
 70
     1
102
RTVSPropertyOp54
 70
     1
102
RTVSPropertyOp55
 70
     1
102
RTVSPropertyOp56
 70
     1
102
RTVSPropertyOp57
 70
     1
102
RTVSPropertyOp58
 70
     1
102
RTVSPropertyOp59
 70
     1
102
RTVSPropertyOp60
 70
     1
102
RTVSPropertyOp61
 70
     1
102
RTVSPropertyOp62
 70
     1
  0
XRECORD
  5
1B57
102
{ACAD_REACTORS
330
1B56
102
}
330
1B56
100
AcDbXrecord
280
     1
102
RTVSPost2010Prop28
280
     0
102
RTVSPost2010PropOp28
 70
     1
102
RTVSPost2010Prop29
280
     1
102
RTVSPost2010PropOp29
 70
     1
102
RTVSPost2010Prop30
280
     1
102
RTVSPost2010PropOp30
 70
     1
102
RTVSPost2010Prop31
280
     0
102
RTVSPost2010PropOp31
 70
     1
102
RTVSPost2010Prop32
280
     0
102
RTVSPost2010PropOp32
 70
     1
102
RTVSPost2010Prop33
280
     0
102
RTVSPost2010PropOp33
 70
     1
102
RTVSPost2010Prop34
280
     0
102
RTVSPost2010PropOp34
 70
     1
102
RTVSPost2010Prop35
280
     0
102
RTVSPost2010PropOp35
 70
     1
102
RTVSPost2010Prop36
280
     0
102
RTVSPost2010PropOp36
 70
     1
102
RTVSPost2010Prop37
 90
       50
102
RTVSPost2010PropOp37
 70
     1
102
RTVSPost2010Prop38
140
0.0
102
RTVSPost2010PropOp38
 70
     1
102
RTVSPost2010Prop39
140
1.0
102
RTVSPost2010PropOp39
 70
     1
102
RTVSPost2010Prop40
 90
        0
102
RTVSPost2010PropOp40
 70
     1
102
RTVSPost2010Prop41ColorIndex
 90
       18
102
RTVSPost2010Prop41ColorRGB
 90
        0
102
RTVSPost2010PropOp41
 70
     1
102
RTVSPost2010Prop42
 90
       50
102
RTVSPost2010PropOp42
 70
     1
102
RTVSPost2010Prop43
 90
        3
102
RTVSPost2010PropOp43
 70
     1
102
RTVSPost2010Prop44ColorIndex
 90
        5
102
RTVSPost2010Prop44ColorRGB
 90
      255
102
RTVSPost2010PropOp44
 70
     1
102
RTVSPost2010Prop45
280
     0
102
RTVSPost2010PropOp45
 70
     1
102
RTVSPost2010Prop46
 90
       50
102
RTVSPost2010PropOp46
 70
     1
102
RTVSPost2010Prop47
 90
       50
102
RTVSPost2010PropOp47
 70
     1
102
RTVSPost2010Prop48
 90
       50
102
RTVSPost2010PropOp48
 70
     1
102
RTVSPost2010Prop49
280
     0
102
RTVSPost2010PropOp49
 70
     1
102
RTVSPost2010Prop50
 90
       50
102
RTVSPost2010PropOp50
 70
     1
102
RTVSPost2010Prop51ColorIndex
 90
      256
102
RTVSPost2010Prop51ColorRGB
 90
-16777216
102
RTVSPost2010PropOp51
 70
     0
102
RTVSPost2010Prop52
140
1.0
102
RTVSPost2010PropOp52
 70
     0
102
RTVSPost2010Prop53
 90
        2
102
RTVSPost2010PropOp53
 70
     1
102
RTVSPost2010Prop54
  1
strokes_ogs.tif
102
RTVSPost2010PropOp54
 70
     1
102
RTVSPost2010Prop55
280
     0
102
RTVSPost2010PropOp55
 70
     1
102
RTVSPost2010Prop56
140
1.0
102
RTVSPost2010PropOp56
 70
     1
102
RTVSPost2010Prop57
140
1.0
102
RTVSPost2010PropOp57
 70
     1
102
RTVSPropertyOp0
 70
     1
102
RTVSPropertyOp1
 70
     1
102
RTVSPropertyOp2
 70
     1
102
RTVSPropertyOp3
 70
     1
102
RTVSPropertyOp4
 70
     1
102
RTVSPropertyOp5
 70
     1
102
RTVSPropertyOp6
 70
     1
102
RTVSPropertyOp7
 70
     1
102
RTVSPropertyOp8
 70
     1
102
RTVSPropertyOp9
 70
     1
102
RTVSPropertyOp10
 70
     1
102
RTVSPropertyOp11
 70
     1
102
RTVSPropertyOp12
 70
     1
102
RTVSPropertyOp13
 70
     1
102
RTVSPropertyOp14
 70
     1
102
RTVSPropertyOp15
 70
     1
102
RTVSPropertyOp16
 70
     1
102
RTVSPropertyOp17
 70
     1
102
RTVSPropertyOp18
 70
     1
102
RTVSPropertyOp19
 70
     1
102
RTVSPropertyOp20
 70
     1
102
RTVSPropertyOp21
 70
     1
102
RTVSPropertyOp22
 70
     1
102
RTVSPropertyOp23
 70
     1
102
RTVSPropertyOp24
 70
     1
102
RTVSPropertyOp25
 70
     1
102
RTVSPropertyOp26
 70
     1
102
RTVSPropertyOp27
 70
     1
102
RTVSPropertyOp28
 70
     1
102
RTVSPropertyOp29
 70
     1
102
RTVSPropertyOp30
 70
     1
102
RTVSPropertyOp31
 70
     1
102
RTVSPropertyOp32
 70
     1
102
RTVSPropertyOp33
 70
     1
102
RTVSPropertyOp34
 70
     1
102
RTVSPropertyOp35
 70
     1
102
RTVSPropertyOp36
 70
     1
102
RTVSPropertyOp37
 70
     1
102
RTVSPropertyOp38
 70
     1
102
RTVSPropertyOp39
 70
     1
102
RTVSPropertyOp40
 70
     1
102
RTVSPropertyOp41
 70
     1
102
RTVSPropertyOp42
 70
     1
102
RTVSPropertyOp43
 70
     1
102
RTVSPropertyOp44
 70
     1
102
RTVSPropertyOp45
 70
     1
102
RTVSPropertyOp46
 70
     1
102
RTVSPropertyOp47
 70
     1
102
RTVSPropertyOp48
 70
     1
102
RTVSPropertyOp49
 70
     1
102
RTVSPropertyOp50
 70
     1
102
RTVSPropertyOp51
 70
     0
102
RTVSPropertyOp52
 70
     0
102
RTVSPropertyOp53
 70
     1
102
RTVSPropertyOp54
 70
     1
102
RTVSPropertyOp55
 70
     1
102
RTVSPropertyOp56
 70
     1
102
RTVSPropertyOp57
 70
     1
102
RTVSPropertyOp58
 70
     1
102
RTVSPropertyOp59
 70
     1
102
RTVSPropertyOp60
 70
     1
102
RTVSPropertyOp61
 70
     1
102
RTVSPropertyOp62
 70
     1
  0
XRECORD
  5
1B59
102
{ACAD_REACTORS
330
1B58
102
}
330
1B58
100
AcDbXrecord
280
     1
102
RTVSPost2010Prop28
280
     0
102
RTVSPost2010PropOp28
 70
     1
102
RTVSPost2010Prop29
280
     1
102
RTVSPost2010PropOp29
 70
     1
102
RTVSPost2010Prop30
280
     1
102
RTVSPost2010PropOp30
 70
     1
102
RTVSPost2010Prop31
280
     0
102
RTVSPost2010PropOp31
 70
     1
102
RTVSPost2010Prop32
280
     0
102
RTVSPost2010PropOp32
 70
     1
102
RTVSPost2010Prop33
280
     0
102
RTVSPost2010PropOp33
 70
     1
102
RTVSPost2010Prop34
280
     0
102
RTVSPost2010PropOp34
 70
     1
102
RTVSPost2010Prop35
280
     0
102
RTVSPost2010PropOp35
 70
     1
102
RTVSPost2010Prop36
280
     0
102
RTVSPost2010PropOp36
 70
     1
102
RTVSPost2010Prop37
 90
       50
102
RTVSPost2010PropOp37
 70
     1
102
RTVSPost2010Prop38
140
0.0
102
RTVSPost2010PropOp38
 70
     1
102
RTVSPost2010Prop39
140
1.0
102
RTVSPost2010PropOp39
 70
     1
102
RTVSPost2010Prop40
 90
        0
102
RTVSPost2010PropOp40
 70
     1
102
RTVSPost2010Prop41ColorIndex
 90
       18
102
RTVSPost2010Prop41ColorRGB
 90
        0
102
RTVSPost2010PropOp41
 70
     1
102
RTVSPost2010Prop42
 90
       50
102
RTVSPost2010PropOp42
 70
     1
102
RTVSPost2010Prop43
 90
        3
102
RTVSPost2010PropOp43
 70
     1
102
RTVSPost2010Prop44ColorIndex
 90
        5
102
RTVSPost2010Prop44ColorRGB
 90
      255
102
RTVSPost2010PropOp44
 70
     1
102
RTVSPost2010Prop45
280
     0
102
RTVSPost2010PropOp45
 70
     1
102
RTVSPost2010Prop46
 90
       50
102
RTVSPost2010PropOp46
 70
     1
102
RTVSPost2010Prop47
 90
       50
102
RTVSPost2010PropOp47
 70
     1
102
RTVSPost2010Prop48
 90
       50
102
RTVSPost2010PropOp48
 70
     1
102
RTVSPost2010Prop49
280
     0
102
RTVSPost2010PropOp49
 70
     1
102
RTVSPost2010Prop50
 90
       50
102
RTVSPost2010PropOp50
 70
     1
102
RTVSPost2010Prop51ColorIndex
 90
      256
102
RTVSPost2010Prop51ColorRGB
 90
-16777216
102
RTVSPost2010PropOp51
 70
     0
102
RTVSPost2010Prop52
140
1.0
102
RTVSPost2010PropOp52
 70
     0
102
RTVSPost2010Prop53
 90
        2
102
RTVSPost2010PropOp53
 70
     1
102
RTVSPost2010Prop54
  1
strokes_ogs.tif
102
RTVSPost2010PropOp54
 70
     1
102
RTVSPost2010Prop55
280
     0
102
RTVSPost2010PropOp55
 70
     1
102
RTVSPost2010Prop56
140
1.0
102
RTVSPost2010PropOp56
 70
     1
102
RTVSPost2010Prop57
140
1.0
102
RTVSPost2010PropOp57
 70
     1
102
RTVSPropertyOp0
 70
     1
102
RTVSPropertyOp1
 70
     1
102
RTVSPropertyOp2
 70
     1
102
RTVSPropertyOp3
 70
     1
102
RTVSPropertyOp4
 70
     1
102
RTVSPropertyOp5
 70
     1
102
RTVSPropertyOp6
 70
     1
102
RTVSPropertyOp7
 70
     1
102
RTVSPropertyOp8
 70
     1
102
RTVSPropertyOp9
 70
     1
102
RTVSPropertyOp10
 70
     1
102
RTVSPropertyOp11
 70
     1
102
RTVSPropertyOp12
 70
     1
102
RTVSPropertyOp13
 70
     1
102
RTVSPropertyOp14
 70
     1
102
RTVSPropertyOp15
 70
     1
102
RTVSPropertyOp16
 70
     1
102
RTVSPropertyOp17
 70
     1
102
RTVSPropertyOp18
 70
     1
102
RTVSPropertyOp19
 70
     1
102
RTVSPropertyOp20
 70
     1
102
RTVSPropertyOp21
 70
     1
102
RTVSPropertyOp22
 70
     1
102
RTVSPropertyOp23
 70
     1
102
RTVSPropertyOp24
 70
     1
102
RTVSPropertyOp25
 70
     1
102
RTVSPropertyOp26
 70
     1
102
RTVSPropertyOp27
 70
     1
102
RTVSPropertyOp28
 70
     1
102
RTVSPropertyOp29
 70
     1
102
RTVSPropertyOp30
 70
     1
102
RTVSPropertyOp31
 70
     1
102
RTVSPropertyOp32
 70
     1
102
RTVSPropertyOp33
 70
     1
102
RTVSPropertyOp34
 70
     1
102
RTVSPropertyOp35
 70
     1
102
RTVSPropertyOp36
 70
     1
102
RTVSPropertyOp37
 70
     1
102
RTVSPropertyOp38
 70
     1
102
RTVSPropertyOp39
 70
     1
102
RTVSPropertyOp40
 70
     1
102
RTVSPropertyOp41
 70
     1
102
RTVSPropertyOp42
 70
     1
102
RTVSPropertyOp43
 70
     1
102
RTVSPropertyOp44
 70
     1
102
RTVSPropertyOp45
 70
     1
102
RTVSPropertyOp46
 70
     1
102
RTVSPropertyOp47
 70
     1
102
RTVSPropertyOp48
 70
     1
102
RTVSPropertyOp49
 70
     1
102
RTVSPropertyOp50
 70
     1
102
RTVSPropertyOp51
 70
     0
102
RTVSPropertyOp52
 70
     0
102
RTVSPropertyOp53
 70
     1
102
RTVSPropertyOp54
 70
     1
102
RTVSPropertyOp55
 70
     1
102
RTVSPropertyOp56
 70
     1
102
RTVSPropertyOp57
 70
     1
102
RTVSPropertyOp58
 70
     1
102
RTVSPropertyOp59
 70
     1
102
RTVSPropertyOp60
 70
     1
102
RTVSPropertyOp61
 70
     1
102
RTVSPropertyOp62
 70
     1
  0
XRECORD
  5
1B4F
102
{ACAD_REACTORS
330
1B4E
102
}
330
1B4E
100
AcDbXrecord
280
     1
102
RTVSPost2010Prop28
280
     0
102
RTVSPost2010PropOp28
 70
     1
102
RTVSPost2010Prop29
280
     1
102
RTVSPost2010PropOp29
 70
     1
102
RTVSPost2010Prop30
280
     1
102
RTVSPost2010PropOp30
 70
     1
102
RTVSPost2010Prop31
280
     0
102
RTVSPost2010PropOp31
 70
     1
102
RTVSPost2010Prop32
280
     0
102
RTVSPost2010PropOp32
 70
     1
102
RTVSPost2010Prop33
280
     0
102
RTVSPost2010PropOp33
 70
     1
102
RTVSPost2010Prop34
280
     0
102
RTVSPost2010PropOp34
 70
     1
102
RTVSPost2010Prop35
280
     0
102
RTVSPost2010PropOp35
 70
     1
102
RTVSPost2010Prop36
280
     0
102
RTVSPost2010PropOp36
 70
     1
102
RTVSPost2010Prop37
 90
       50
102
RTVSPost2010PropOp37
 70
     1
102
RTVSPost2010Prop38
140
0.0
102
RTVSPost2010PropOp38
 70
     1
102
RTVSPost2010Prop39
140
1.0
102
RTVSPost2010PropOp39
 70
     1
102
RTVSPost2010Prop40
 90
        0
102
RTVSPost2010PropOp40
 70
     1
102
RTVSPost2010Prop41ColorIndex
 90
       18
102
RTVSPost2010Prop41ColorRGB
 90
        0
102
RTVSPost2010PropOp41
 70
     1
102
RTVSPost2010Prop42
 90
       50
102
RTVSPost2010PropOp42
 70
     1
102
RTVSPost2010Prop43
 90
        3
102
RTVSPost2010PropOp43
 70
     1
102
RTVSPost2010Prop44ColorIndex
 90
        5
102
RTVSPost2010Prop44ColorRGB
 90
      255
102
RTVSPost2010PropOp44
 70
     1
102
RTVSPost2010Prop45
280
     0
102
RTVSPost2010PropOp45
 70
     1
102
RTVSPost2010Prop46
 90
       50
102
RTVSPost2010PropOp46
 70
     1
102
RTVSPost2010Prop47
 90
       50
102
RTVSPost2010PropOp47
 70
     1
102
RTVSPost2010Prop48
 90
       50
102
RTVSPost2010PropOp48
 70
     1
102
RTVSPost2010Prop49
280
     0
102
RTVSPost2010PropOp49
 70
     1
102
RTVSPost2010Prop50
 90
       50
102
RTVSPost2010PropOp50
 70
     1
102
RTVSPost2010Prop51ColorIndex
 90
      256
102
RTVSPost2010Prop51ColorRGB
 90
-16777216
102
RTVSPost2010PropOp51
 70
     0
102
RTVSPost2010Prop52
140
1.0
102
RTVSPost2010PropOp52
 70
     0
102
RTVSPost2010Prop53
 90
        2
102
RTVSPost2010PropOp53
 70
     1
102
RTVSPost2010Prop54
  1
strokes_ogs.tif
102
RTVSPost2010PropOp54
 70
     1
102
RTVSPost2010Prop55
280
     0
102
RTVSPost2010PropOp55
 70
     1
102
RTVSPost2010Prop56
140
1.0
102
RTVSPost2010PropOp56
 70
     1
102
RTVSPost2010Prop57
140
1.0
102
RTVSPost2010PropOp57
 70
     1
102
RTVSPropertyOp0
 70
     1
102
RTVSPropertyOp1
 70
     1
102
RTVSPropertyOp2
 70
     1
102
RTVSPropertyOp3
 70
     1
102
RTVSPropertyOp4
 70
     1
102
RTVSPropertyOp5
 70
     1
102
RTVSPropertyOp6
 70
     1
102
RTVSPropertyOp7
 70
     1
102
RTVSPropertyOp8
 70
     1
102
RTVSPropertyOp9
 70
     1
102
RTVSPropertyOp10
 70
     1
102
RTVSPropertyOp11
 70
     1
102
RTVSPropertyOp12
 70
     1
102
RTVSPropertyOp13
 70
     1
102
RTVSPropertyOp14
 70
     1
102
RTVSPropertyOp15
 70
     1
102
RTVSPropertyOp16
 70
     1
102
RTVSPropertyOp17
 70
     1
102
RTVSPropertyOp18
 70
     1
102
RTVSPropertyOp19
 70
     1
102
RTVSPropertyOp20
 70
     1
102
RTVSPropertyOp21
 70
     1
102
RTVSPropertyOp22
 70
     1
102
RTVSPropertyOp23
 70
     1
102
RTVSPropertyOp24
 70
     1
102
RTVSPropertyOp25
 70
     1
102
RTVSPropertyOp26
 70
     1
102
RTVSPropertyOp27
 70
     1
102
RTVSPropertyOp28
 70
     1
102
RTVSPropertyOp29
 70
     1
102
RTVSPropertyOp30
 70
     1
102
RTVSPropertyOp31
 70
     1
102
RTVSPropertyOp32
 70
     1
102
RTVSPropertyOp33
 70
     1
102
RTVSPropertyOp34
 70
     1
102
RTVSPropertyOp35
 70
     1
102
RTVSPropertyOp36
 70
     1
102
RTVSPropertyOp37
 70
     1
102
RTVSPropertyOp38
 70
     1
102
RTVSPropertyOp39
 70
     1
102
RTVSPropertyOp40
 70
     1
102
RTVSPropertyOp41
 70
     1
102
RTVSPropertyOp42
 70
     1
102
RTVSPropertyOp43
 70
     1
102
RTVSPropertyOp44
 70
     1
102
RTVSPropertyOp45
 70
     1
102
RTVSPropertyOp46
 70
     1
102
RTVSPropertyOp47
 70
     1
102
RTVSPropertyOp48
 70
     1
102
RTVSPropertyOp49
 70
     1
102
RTVSPropertyOp50
 70
     1
102
RTVSPropertyOp51
 70
     0
102
RTVSPropertyOp52
 70
     0
102
RTVSPropertyOp53
 70
     1
102
RTVSPropertyOp54
 70
     1
102
RTVSPropertyOp55
 70
     1
102
RTVSPropertyOp56
 70
     1
102
RTVSPropertyOp57
 70
     1
102
RTVSPropertyOp58
 70
     1
102
RTVSPropertyOp59
 70
     1
102
RTVSPropertyOp60
 70
     1
102
RTVSPropertyOp61
 70
     1
102
RTVSPropertyOp62
 70
     1
  0
XRECORD
  5
1B43
102
{ACAD_REACTORS
330
1B42
102
}
330
1B42
100
AcDbXrecord
280
     1
102
RTVSPost2010Prop28
280
     0
102
RTVSPost2010PropOp28
 70
     1
102
RTVSPost2010Prop29
280
     1
102
RTVSPost2010PropOp29
 70
     1
102
RTVSPost2010Prop30
280
     1
102
RTVSPost2010PropOp30
 70
     1
102
RTVSPost2010Prop31
280
     0
102
RTVSPost2010PropOp31
 70
     1
102
RTVSPost2010Prop32
280
     0
102
RTVSPost2010PropOp32
 70
     1
102
RTVSPost2010Prop33
280
     0
102
RTVSPost2010PropOp33
 70
     1
102
RTVSPost2010Prop34
280
     0
102
RTVSPost2010PropOp34
 70
     1
102
RTVSPost2010Prop35
280
     0
102
RTVSPost2010PropOp35
 70
     1
102
RTVSPost2010Prop36
280
     0
102
RTVSPost2010PropOp36
 70
     1
102
RTVSPost2010Prop37
 90
       50
102
RTVSPost2010PropOp37
 70
     1
102
RTVSPost2010Prop38
140
0.0
102
RTVSPost2010PropOp38
 70
     1
102
RTVSPost2010Prop39
140
1.0
102
RTVSPost2010PropOp39
 70
     1
102
RTVSPost2010Prop40
 90
        0
102
RTVSPost2010PropOp40
 70
     1
102
RTVSPost2010Prop41ColorIndex
 90
       18
102
RTVSPost2010Prop41ColorRGB
 90
        0
102
RTVSPost2010PropOp41
 70
     1
102
RTVSPost2010Prop42
 90
       50
102
RTVSPost2010PropOp42
 70
     1
102
RTVSPost2010Prop43
 90
        3
102
RTVSPost2010PropOp43
 70
     1
102
RTVSPost2010Prop44ColorIndex
 90
        5
102
RTVSPost2010Prop44ColorRGB
 90
      255
102
RTVSPost2010PropOp44
 70
     1
102
RTVSPost2010Prop45
280
     0
102
RTVSPost2010PropOp45
 70
     1
102
RTVSPost2010Prop46
 90
       50
102
RTVSPost2010PropOp46
 70
     1
102
RTVSPost2010Prop47
 90
       50
102
RTVSPost2010PropOp47
 70
     1
102
RTVSPost2010Prop48
 90
       50
102
RTVSPost2010PropOp48
 70
     1
102
RTVSPost2010Prop49
280
     0
102
RTVSPost2010PropOp49
 70
     1
102
RTVSPost2010Prop50
 90
       50
102
RTVSPost2010PropOp50
 70
     1
102
RTVSPost2010Prop51ColorIndex
 90
      256
102
RTVSPost2010Prop51ColorRGB
 90
-16777216
102
RTVSPost2010PropOp51
 70
     0
102
RTVSPost2010Prop52
140
1.0
102
RTVSPost2010PropOp52
 70
     0
102
RTVSPost2010Prop53
 90
        2
102
RTVSPost2010PropOp53
 70
     1
102
RTVSPost2010Prop54
  1
strokes_ogs.tif
102
RTVSPost2010PropOp54
 70
     1
102
RTVSPost2010Prop55
280
     0
102
RTVSPost2010PropOp55
 70
     1
102
RTVSPost2010Prop56
140
1.0
102
RTVSPost2010PropOp56
 70
     1
102
RTVSPost2010Prop57
140
1.0
102
RTVSPost2010PropOp57
 70
     1
102
RTVSPropertyOp0
 70
     1
102
RTVSPropertyOp1
 70
     1
102
RTVSPropertyOp2
 70
     1
102
RTVSPropertyOp3
 70
     1
102
RTVSPropertyOp4
 70
     1
102
RTVSPropertyOp5
 70
     1
102
RTVSPropertyOp6
 70
     1
102
RTVSPropertyOp7
 70
     1
102
RTVSPropertyOp8
 70
     1
102
RTVSPropertyOp9
 70
     1
102
RTVSPropertyOp10
 70
     1
102
RTVSPropertyOp11
 70
     1
102
RTVSPropertyOp12
 70
     1
102
RTVSPropertyOp13
 70
     1
102
RTVSPropertyOp14
 70
     1
102
RTVSPropertyOp15
 70
     1
102
RTVSPropertyOp16
 70
     1
102
RTVSPropertyOp17
 70
     1
102
RTVSPropertyOp18
 70
     1
102
RTVSPropertyOp19
 70
     1
102
RTVSPropertyOp20
 70
     1
102
RTVSPropertyOp21
 70
     1
102
RTVSPropertyOp22
 70
     1
102
RTVSPropertyOp23
 70
     1
102
RTVSPropertyOp24
 70
     1
102
RTVSPropertyOp25
 70
     1
102
RTVSPropertyOp26
 70
     1
102
RTVSPropertyOp27
 70
     1
102
RTVSPropertyOp28
 70
     1
102
RTVSPropertyOp29
 70
     1
102
RTVSPropertyOp30
 70
     1
102
RTVSPropertyOp31
 70
     1
102
RTVSPropertyOp32
 70
     1
102
RTVSPropertyOp33
 70
     1
102
RTVSPropertyOp34
 70
     1
102
RTVSPropertyOp35
 70
     1
102
RTVSPropertyOp36
 70
     1
102
RTVSPropertyOp37
 70
     1
102
RTVSPropertyOp38
 70
     1
102
RTVSPropertyOp39
 70
     1
102
RTVSPropertyOp40
 70
     1
102
RTVSPropertyOp41
 70
     1
102
RTVSPropertyOp42
 70
     1
102
RTVSPropertyOp43
 70
     1
102
RTVSPropertyOp44
 70
     1
102
RTVSPropertyOp45
 70
     1
102
RTVSPropertyOp46
 70
     1
102
RTVSPropertyOp47
 70
     1
102
RTVSPropertyOp48
 70
     1
102
RTVSPropertyOp49
 70
     1
102
RTVSPropertyOp50
 70
     1
102
RTVSPropertyOp51
 70
     0
102
RTVSPropertyOp52
 70
     0
102
RTVSPropertyOp53
 70
     1
102
RTVSPropertyOp54
 70
     1
102
RTVSPropertyOp55
 70
     1
102
RTVSPropertyOp56
 70
     1
102
RTVSPropertyOp57
 70
     1
102
RTVSPropertyOp58
 70
     1
102
RTVSPropertyOp59
 70
     1
102
RTVSPropertyOp60
 70
     1
102
RTVSPropertyOp61
 70
     1
102
RTVSPropertyOp62
 70
     1
  0
XRECORD
  5
1B5B
102
{ACAD_REACTORS
330
1B5A
102
}
330
1B5A
100
AcDbXrecord
280
     1
102
RTVSPost2010Prop28
280
     0
102
RTVSPost2010PropOp28
 70
     1
102
RTVSPost2010Prop29
280
     1
102
RTVSPost2010PropOp29
 70
     1
102
RTVSPost2010Prop30
280
     1
102
RTVSPost2010PropOp30
 70
     1
102
RTVSPost2010Prop31
280
     0
102
RTVSPost2010PropOp31
 70
     1
102
RTVSPost2010Prop32
280
     0
102
RTVSPost2010PropOp32
 70
     1
102
RTVSPost2010Prop33
280
     0
102
RTVSPost2010PropOp33
 70
     1
102
RTVSPost2010Prop34
280
     0
102
RTVSPost2010PropOp34
 70
     1
102
RTVSPost2010Prop35
280
     0
102
RTVSPost2010PropOp35
 70
     1
102
RTVSPost2010Prop36
280
     0
102
RTVSPost2010PropOp36
 70
     1
102
RTVSPost2010Prop37
 90
       50
102
RTVSPost2010PropOp37
 70
     1
102
RTVSPost2010Prop38
140
0.0
102
RTVSPost2010PropOp38
 70
     1
102
RTVSPost2010Prop39
140
1.0
102
RTVSPost2010PropOp39
 70
     1
102
RTVSPost2010Prop40
 90
        0
102
RTVSPost2010PropOp40
 70
     1
102
RTVSPost2010Prop41ColorIndex
 90
       18
102
RTVSPost2010Prop41ColorRGB
 90
        0
102
RTVSPost2010PropOp41
 70
     1
102
RTVSPost2010Prop42
 90
       50
102
RTVSPost2010PropOp42
 70
     1
102
RTVSPost2010Prop43
 90
        3
102
RTVSPost2010PropOp43
 70
     1
102
RTVSPost2010Prop44ColorIndex
 90
        5
102
RTVSPost2010Prop44ColorRGB
 90
      255
102
RTVSPost2010PropOp44
 70
     1
102
RTVSPost2010Prop45
280
     0
102
RTVSPost2010PropOp45
 70
     1
102
RTVSPost2010Prop46
 90
       50
102
RTVSPost2010PropOp46
 70
     1
102
RTVSPost2010Prop47
 90
       50
102
RTVSPost2010PropOp47
 70
     1
102
RTVSPost2010Prop48
 90
       50
102
RTVSPost2010PropOp48
 70
     1
102
RTVSPost2010Prop49
280
     0
102
RTVSPost2010PropOp49
 70
     1
102
RTVSPost2010Prop50
 90
       50
102
RTVSPost2010PropOp50
 70
     1
102
RTVSPost2010Prop51ColorIndex
 90
      256
102
RTVSPost2010Prop51ColorRGB
 90
-16777216
102
RTVSPost2010PropOp51
 70
     0
102
RTVSPost2010Prop52
140
1.0
102
RTVSPost2010PropOp52
 70
     0
102
RTVSPost2010Prop53
 90
        2
102
RTVSPost2010PropOp53
 70
     1
102
RTVSPost2010Prop54
  1
strokes_ogs.tif
102
RTVSPost2010PropOp54
 70
     1
102
RTVSPost2010Prop55
280
     0
102
RTVSPost2010PropOp55
 70
     1
102
RTVSPost2010Prop56
140
1.0
102
RTVSPost2010PropOp56
 70
     1
102
RTVSPost2010Prop57
140
1.0
102
RTVSPost2010PropOp57
 70
     1
102
RTVSPropertyOp0
 70
     1
102
RTVSPropertyOp1
 70
     1
102
RTVSPropertyOp2
 70
     1
102
RTVSPropertyOp3
 70
     1
102
RTVSPropertyOp4
 70
     1
102
RTVSPropertyOp5
 70
     1
102
RTVSPropertyOp6
 70
     1
102
RTVSPropertyOp7
 70
     1
102
RTVSPropertyOp8
 70
     1
102
RTVSPropertyOp9
 70
     1
102
RTVSPropertyOp10
 70
     1
102
RTVSPropertyOp11
 70
     1
102
RTVSPropertyOp12
 70
     1
102
RTVSPropertyOp13
 70
     1
102
RTVSPropertyOp14
 70
     1
102
RTVSPropertyOp15
 70
     1
102
RTVSPropertyOp16
 70
     1
102
RTVSPropertyOp17
 70
     1
102
RTVSPropertyOp18
 70
     1
102
RTVSPropertyOp19
 70
     1
102
RTVSPropertyOp20
 70
     1
102
RTVSPropertyOp21
 70
     1
102
RTVSPropertyOp22
 70
     1
102
RTVSPropertyOp23
 70
     1
102
RTVSPropertyOp24
 70
     1
102
RTVSPropertyOp25
 70
     1
102
RTVSPropertyOp26
 70
     1
102
RTVSPropertyOp27
 70
     1
102
RTVSPropertyOp28
 70
     1
102
RTVSPropertyOp29
 70
     1
102
RTVSPropertyOp30
 70
     1
102
RTVSPropertyOp31
 70
     1
102
RTVSPropertyOp32
 70
     1
102
RTVSPropertyOp33
 70
     1
102
RTVSPropertyOp34
 70
     1
102
RTVSPropertyOp35
 70
     1
102
RTVSPropertyOp36
 70
     1
102
RTVSPropertyOp37
 70
     1
102
RTVSPropertyOp38
 70
     1
102
RTVSPropertyOp39
 70
     1
102
RTVSPropertyOp40
 70
     1
102
RTVSPropertyOp41
 70
     1
102
RTVSPropertyOp42
 70
     1
102
RTVSPropertyOp43
 70
     1
102
RTVSPropertyOp44
 70
     1
102
RTVSPropertyOp45
 70
     1
102
RTVSPropertyOp46
 70
     1
102
RTVSPropertyOp47
 70
     1
102
RTVSPropertyOp48
 70
     1
102
RTVSPropertyOp49
 70
     1
102
RTVSPropertyOp50
 70
     1
102
RTVSPropertyOp51
 70
     0
102
RTVSPropertyOp52
 70
     0
102
RTVSPropertyOp53
 70
     1
102
RTVSPropertyOp54
 70
     1
102
RTVSPropertyOp55
 70
     1
102
RTVSPropertyOp56
 70
     1
102
RTVSPropertyOp57
 70
     1
102
RTVSPropertyOp58
 70
     1
102
RTVSPropertyOp59
 70
     1
102
RTVSPropertyOp60
 70
     1
102
RTVSPropertyOp61
 70
     1
102
RTVSPropertyOp62
 70
     1
  0
ENDSEC
  0
EOF
