  0
SECTION
  2
HEADER
  9
$ACADVER
  1
AC1009
  9
$INSBASE
 10
0.0
 20
0.0
 30
0.0
  9
$EXTMIN
 10
-1.258517
 20
-0.915285
 30
0.0
  9
$EXTMAX
 10
27501.259029
 20
20000.915658
 30
0.0
  9
$LIMMIN
 10
0.0
 20
0.0
  9
$LIMMAX
 10
420.0
 20
330.0
  9
$ORTHOMODE
 70
     1
  9
$REGENMODE
 70
     1
  9
$FILLMODE
 70
     1
  9
$QTEXTMODE
 70
     0
  9
$MIRRTEXT
 70
     1
  9
$DRAGMODE
 70
     2
  9
$LTSCALE
 40
1.0
  9
$OSMODE
 70
    35
  9
$ATTMODE
 70
     1
  9
$TEXTSIZE
 40
5.9
  9
$TRACEWID
 40
0.05
  9
$TEXTSTYLE
  7
STANDARD
  9
$CLAYER
  8
0
  9
$CELTYPE
  6
BYLAYER
  9
$CECOLOR
 62
   256
  9
$DIMSCALE
 40
1.0
  9
$DIMASZ
 40
0.18
  9
$DIMEXO
 40
0.0625
  9
$DIMDLI
 40
0.38
  9
$DIMRND
 40
0.0
  9
$DIMDLE
 40
0.0
  9
$DIMEXE
 40
0.18
  9
$DIMTP
 40
0.0
  9
$DIMTM
 40
0.0
  9
$DIMTXT
 40
0.18
  9
$DIMCEN
 40
0.09
  9
$DIMTSZ
 40
0.0
  9
$DIMTOL
 70
     0
  9
$DIMLIM
 70
     0
  9
$DIMTIH
 70
     1
  9
$DIMTOH
 70
     1
  9
$DIMSE1
 70
     0
  9
$DIMSE2
 70
     0
  9
$DIMTAD
 70
     0
  9
$DIMZIN
 70
     0
  9
$DIMBLK
  1

  9
$DIMASO
 70
     1
  9
$DIMSHO
 70
     0
  9
$DIMPOST
  1

  9
$DIMAPOST
  1

  9
$DIMALT
 70
     0
  9
$DIMALTD
 70
     2
  9
$DIMALTF
 40
25.4
  9
$DIMLFAC
 40
1.0
  9
$DIMTOFL
 70
     0
  9
$DIMTVP
 40
0.0
  9
$DIMTIX
 70
     0
  9
$DIMSOXD
 70
     0
  9
$DIMSAH
 70
     0
  9
$DIMBLK1
  1

  9
$DIMBLK2
  1

  9
$DIMSTYLE
  2
STANDARD
  9
$DIMCLRD
 70
     0
  9
$DIMCLRE
 70
     0
  9
$DIMCLRT
 70
     0
  9
$DIMTFAC
 40
1.0
  9
$DIMGAP
 40
0.09
  9
$LUNITS
 70
     2
  9
$LUPREC
 70
     4
  9
$SKETCHINC
 40
0.1
  9
$FILLETRAD
 40
1.0
  9
$AUNITS
 70
     0
  9
$AUPREC
 70
     0
  9
$MENU
  1
c:\acadwin\support\acad
  9
$ELEVATION
 40
0.0
  9
$PELEVATION
 40
0.0
  9
$THICKNESS
 40
0.0
  9
$LIMCHECK
 70
     0
  9
$BLIPMODE
 70
     1
  9
$CHAMFERA
 40
0.0
  9
$CHAMFERB
 40
0.0
  9
$SKPOLY
 70
     0
  9
$TDCREATE
 40
2453013.848474
  9
$TDUPDATE
 40
2455152.451266
  9
$TDINDWG
 40
0.024075
  9
$TDUSRTIMER
 40
0.024075
  9
$USRTIMER
 70
     1
  9
$ANGBASE
 50
0.0
  9
$ANGDIR
 70
     0
  9
$PDMODE
 70
     0
  9
$PDSIZE
 40
0.0
  9
$PLINEWID
 40
0.0
  9
$COORDS
 70
     2
  9
$SPLFRAME
 70
     0
  9
$SPLINETYPE
 70
     6
  9
$SPLINESEGS
 70
     8
  9
$ATTDIA
 70
     0
  9
$ATTREQ
 70
     1
  9
$HANDLING
 70
     1
  9
$HANDSEED
  5
4D1
  9
$SURFTAB1
 70
     6
  9
$SURFTAB2
 70
     6
  9
$SURFTYPE
 70
     6
  9
$SURFU
 70
     6
  9
$SURFV
 70
     6
  9
$UCSNAME
  2

  9
$UCSORG
 10
0.0
 20
0.0
 30
0.0
  9
$UCSXDIR
 10
1.0
 20
0.0
 30
0.0
  9
$UCSYDIR
 10
0.0
 20
1.0
 30
0.0
  9
$PUCSNAME
  2

  9
$PUCSORG
 10
0.0
 20
0.0
 30
0.0
  9
$PUCSXDIR
 10
1.0
 20
0.0
 30
0.0
  9
$PUCSYDIR
 10
0.0
 20
1.0
 30
0.0
  9
$USERI1
 70
     0
  9
$USERI2
 70
     0
  9
$USERI3
 70
     0
  9
$USERI4
 70
     0
  9
$USERI5
 70
     0
  9
$USERR1
 40
0.0
  9
$USERR2
 40
0.0
  9
$USERR3
 40
0.0
  9
$USERR4
 40
0.0
  9
$USERR5
 40
0.0
  9
$WORLDVIEW
 70
     1
  9
$SHADEDGE
 70
     3
  9
$SHADEDIF
 70
    70
  9
$TILEMODE
 70
     1
  9
$MAXACTVP
 70
    16
  9
$PLIMCHECK
 70
     0
  9
$PEXTMIN
 10
1.000000E+020
 20
1.000000E+020
 30
1.000000E+020
  9
$PEXTMAX
 10
-1.000000E+020
 20
-1.000000E+020
 30
-1.000000E+020
  9
$PLIMMIN
 10
0.0
 20
0.0
  9
$PLIMMAX
 10
12.0
 20
9.0
  9
$UNITMODE
 70
     0
  9
$VISRETAIN
 70
     0
  9
$PLINEGEN
 70
     0
  9
$PSLTSCALE
 70
     0
  0
ENDSEC
  0
SECTION
  2
TABLES
  0
TABLE
  2
VPORT
 70
     2
  0
VPORT
  2
*ACTIVE
 70
     0
 10
0.0
 20
0.0
 11
1.0
 21
1.0
 12
13750.000256
 22
10000.000186
 13
0.0
 23
0.0
 14
1.0
 24
1.0
 15
10.0
 25
10.0
 16
0.0
 26
0.0
 36
1.0
 17
0.0
 27
0.0
 37
0.0
 40
20175.759908
 41
1.476052
 42
50.0
 43
0.0
 44
0.0
 50
0.0
 51
0.0
 71
     0
 72
   100
 73
     1
 74
     0
 75
     0
 76
     0
 77
     0
 78
     0
  0
ENDTAB
  0
TABLE
  2
LTYPE
 70
     1
  0
LTYPE
  2
CONTINUOUS
 70
     0
  3
Solid line
 72
    65
 73
     0
 40
0.0
  0
ENDTAB
  0
TABLE
  2
LAYER
 70
    11
  0
LAYER
  2
0
 70
     0
 62
     7
  6
CONTINUOUS
  0
LAYER
  2
YKK_IN
 70
     0
 62
     1
  6
CONTINUOUS
  0
LAYER
  2
YKK_F1
 70
     0
 62
     7
  6
CONTINUOUS
  0
LAYER
  2
YKK_N1
 70
     0
 62
     2
  6
CONTINUOUS
  0
LAYER
  2
YKK_Z1
 70
     0
 62
     7
  6
CONTINUOUS
  0
LAYER
  2
YKK_A1
 70
     0
 62
     4
  6
CONTINUOUS
  0
LAYER
  2
YKK_A2
 70
     0
 62
     3
  6
CONTINUOUS
  0
LAYER
  2
YKK_B1
 70
     0
 62
     4
  6
CONTINUOUS
  0
LAYER
  2
YKK_C1
 70
     0
 62
     4
  6
CONTINUOUS
  0
LAYER
  2
YKK_B2
 70
     0
 62
     5
  6
CONTINUOUS
  0
LAYER
  2
YKK_C2
 70
     0
 62
     5
  6
CONTINUOUS
  0
ENDTAB
  0
TABLE
  2
STYLE
 70
     2
  0
STYLE
  2
STANDARD
 70
     0
 40
0.0
 41
1.0
 50
0.0
 71
     0
 42
0.2
  3
txt.shx
  4
bigfont.shx
  0
STYLE
  2
EXTFONT
 70
     0
 40
60.0
 41
1.0
 50
0.0
 71
     0
 42
60.0
  3
txt.shx
  4
EXTFONT
  0
ENDTAB
  0
TABLE
  2
VIEW
 70
     0
  0
ENDTAB
  0
TABLE
  2
UCS
 70
     0
  0
ENDTAB
  0
TABLE
  2
APPID
 70
     1
  0
APPID
  2
ACAD
 70
     0
  0
ENDTAB
  0
TABLE
  2
DIMSTYLE
 70
     1
  0
DIMSTYLE
  2
STANDARD
 70
     0
  3

  4

  5

  6

  7

 40
1.0
 41
0.18
 42
0.0625
 43
0.38
 44
0.18
 45
0.0
 46
0.0
 47
0.0
 48
0.0
140
0.18
141
0.09
142
0.0
143
25.4
144
1.0
145
0.0
146
1.0
147
0.09
 71
     0
 72
     0
 73
     1
 74
     1
 75
     0
 76
     0
 77
     0
 78
     0
170
     0
171
     2
172
     0
173
     0
174
     0
175
     0
176
     0
177
     0
178
     0
  0
ENDTAB
  0
ENDSEC
  0
SECTION
  2
BLOCKS
  0
BLOCK
  8
0
  2
$MODEL_SPACE
 70
     0
 10
0.0
 20
0.0
 30
0.0
  3
$MODEL_SPACE
  1

  0
ENDBLK
  5
6
  8
0
  0
BLOCK
 67
     1
  8
0
  2
$PAPER_SPACE
 70
     0
 10
0.0
 20
0.0
 30
0.0
  3
$PAPER_SPACE
  1

  0
ENDBLK
  5
9
 67
     1
  8
0
  0
ENDSEC
  0
SECTION
  2
ENTITIES
  0
LINE
  5
1D
  8
YKK_B1
 10
2615.999318
 20
9636.013608
 30
0.0
 11
1884.001843
 21
9636.013608
 31
0.0
  0
LINE
  5
1F
  8
YKK_B1
 10
2615.999301
 20
9658.013608
 30
0.0
 11
1884.001826
 21
9658.013608
 31
0.0
  0
LINE
  5
20
  8
YKK_B1
 10
9760.998294
 20
9658.010354
 30
0.0
 11
9028.999841
 21
9658.010354
 31
0.0
  0
LINE
  5
21
  8
YKK_B1
 10
9760.998311
 20
9636.010354
 30
0.0
 11
9028.999841
 21
9636.010354
 31
0.0
  0
LINE
  5
22
  8
YKK_B1
 10
8970.999615
 20
9636.010354
 30
0.0
 11
8239.000836
 21
9636.010354
 31
0.0
  0
LINE
  5
23
  8
YKK_B1
 10
8970.999615
 20
9658.010354
 30
0.0
 11
8239.000819
 21
9658.010354
 31
0.0
  0
TEXT
  5
24
  8
0
 10
13600.0
 20
18737.5
 30
0.0
 40
175.0
  1
H=1,170
  7
EXTFONT
  0
TEXT
  5
26
  8
0
 10
13600.0
 20
19187.5
 30
0.0
 40
175.0
  1
NXF-***11-M(-P)
  7
EXTFONT
  0
LINE
  5
27
  8
YKK_F1
 62
     7
 10
0.0
 20
11250.0
 30
0.0
 11
27000.0
 21
11250.0
 31
0.0
  0
LINE
  5
29
  8
YKK_F1
 62
     7
 10
0.0
 20
3000.0
 30
0.0
 11
27000.0
 21
3000.0
 31
0.0
  0
LINE
  5
2A
  8
YKK_F1
 62
     7
 10
0.0
 20
3450.0
 30
0.0
 11
27000.0
 21
3450.0
 31
0.0
  0
LINE
  5
2B
  8
YKK_F1
 62
     7
 10
0.0
 20
6900.0
 30
0.0
 11
27000.0
 21
6900.0
 31
0.0
  0
LINE
  5
2C
  8
YKK_F1
 62
     7
 10
0.0
 20
7350.0
 30
0.0
 11
27000.0
 21
7350.0
 31
0.0
  0
LINE
  5
2D
  8
YKK_F1
 62
     7
 10
0.0
 20
10800.0
 30
0.0
 11
27000.0
 21
10800.0
 31
0.0
  0
LINE
  5
2E
  8
YKK_F1
 62
     7
 10
0.0
 20
18600.0
 30
0.0
 11
27000.0
 21
18600.0
 31
0.0
  0
LINE
  5
2F
  8
YKK_F1
 62
     7
 10
0.0
 20
19050.0
 30
0.0
 11
27000.0
 21
19050.0
 31
0.0
  0
LINE
  5
30
  8
YKK_F1
 62
     7
 10
0.0
 20
3900.0
 30
0.0
 11
27000.0
 21
3900.0
 31
0.0
  0
LINE
  5
31
  8
YKK_F1
 62
     7
 10
0.0
 20
7800.0
 30
0.0
 11
27000.0
 21
7800.0
 31
0.0
  0
LINE
  5
32
  8
YKK_F1
 62
     7
 10
0.0
 20
11700.0
 30
0.0
 11
27000.0
 21
11700.0
 31
0.0
  0
LINE
  5
33
  8
YKK_F1
 62
     7
 10
0.0
 20
19500.0
 30
0.0
 11
27000.0
 21
19500.0
 31
0.0
  0
LINE
  5
34
  8
YKK_F1
 62
     7
 10
0.0
 20
0.0
 30
0.0
 11
27500.0
 21
0.0
 31
0.0
  0
LINE
  5
35
  8
YKK_F1
 62
     7
 10
0.0
 20
20000.0
 30
0.0
 11
27500.0
 21
20000.0
 31
0.0
  0
LINE
  5
36
  8
YKK_F1
 62
     7
 10
13500.0
 20
0.0
 30
0.0
 11
13500.0
 21
19500.0
 31
0.0
  0
LINE
  5
37
  8
YKK_F1
 62
     7
 10
4500.0
 20
0.0
 30
0.0
 11
4500.0
 21
19500.0
 31
0.0
  0
LINE
  5
38
  8
YKK_F1
 62
     7
 10
0.0
 20
0.0
 30
0.0
 11
0.0
 21
20000.0
 31
0.0
  0
POINT
  5
39
  8
YKK_IN
 10
0.0
 20
0.0
 30
0.0
  0
POINT
  5
3B
  8
YKK_F1
 10
0.0
 20
0.0
 30
0.0
  0
POINT
  5
3C
  8
YKK_N1
 10
0.0
 20
0.0
 30
0.0
  0
POINT
  5
3E
  8
YKK_Z1
 10
0.0
 20
0.0
 30
0.0
  0
POINT
  5
40
  8
YKK_A1
 10
0.0
 20
0.0
 30
0.0
  0
POINT
  5
42
  8
YKK_A2
 10
0.0
 20
0.0
 30
0.0
  0
POINT
  5
44
  8
YKK_B1
 10
0.0
 20
0.0
 30
0.0
  0
POINT
  5
45
  8
YKK_C1
 10
0.0
 20
0.0
 30
0.0
  0
POINT
  5
47
  8
YKK_B2
 10
0.0
 20
0.0
 30
0.0
  0
POINT
  5
49
  8
YKK_C2
 10
0.0
 20
0.0
 30
0.0
  0
LINE
  5
4B
  8
YKK_N1
  6
CONTINUOUS
 10
2915.200619
 20
9636.013595
 30
0.0
 11
3040.200619
 21
9636.013595
 31
0.0
  0
LINE
  5
4C
  8
YKK_N1
  6
CONTINUOUS
 10
2915.200619
 20
9680.013595
 30
0.0
 11
3040.200619
 21
9680.013595
 31
0.0
  0
TEXT
  5
4D
  8
YKK_N1
  6
CONTINUOUS
 10
3028.200619
 20
9688.013595
 30
0.0
 40
60.0
  1
44
 50
90.0
  0
TEXT
  5
4E
  8
YKK_N1
  6
CONTINUOUS
 10
3028.200619
 20
9487.013595
 30
0.0
 40
60.0
  1
15
 50
90.0
  0
LINE
  5
4F
  8
YKK_N1
  6
CONTINUOUS
 10
2915.200619
 20
9593.013595
 30
0.0
 11
3040.200619
 21
9593.013595
 31
0.0
  0
LINE
  5
50
  8
YKK_N1
  6
CONTINUOUS
 10
2915.200619
 20
9608.013595
 30
0.0
 11
3040.200619
 21
9608.013595
 31
0.0
  0
TEXT
  5
51
  8
YKK_N1
  6
CONTINUOUS
 10
1897.501007
 20
9317.013582
 30
0.0
 40
60.0
  1
20
  0
LINE
  5
52
  8
YKK_B1
 10
2610.001162
 20
9593.013608
 30
0.0
 11
1889.997233
 21
9593.013608
 31
0.0
  0
LINE
  5
53
  8
YKK_B2
 10
1879.999899
 20
9508.013607
 30
0.0
 11
2619.999899
 21
9508.013607
 31
0.0
  0
LINE
  5
54
  8
YKK_B1
 10
2621.001254
 20
9680.010724
 30
0.0
 11
1879.000637
 21
9680.010724
 31
0.0
  0
LINE
  5
55
  8
YKK_B1
 10
2610.001162
 20
9611.813608
 30
0.0
 11
1889.997233
 21
9611.813608
 31
0.0
  0
LINE
  5
56
  8
YKK_N1
  6
CONTINUOUS
 10
1860.001007
 20
9105.013582
 30
0.0
 11
1946.603547
 21
9155.013582
 31
0.0
  0
LINE
  5
57
  8
YKK_N1
  6
CONTINUOUS
 10
1860.001007
 20
9105.013582
 30
0.0
 11
1946.603547
 21
9055.013582
 31
0.0
  0
LINE
  5
58
  8
YKK_N1
  6
CONTINUOUS
 10
1860.001007
 20
9105.013582
 30
0.0
 11
2640.001007
 21
9105.013582
 31
0.0
  0
LINE
  5
59
  8
YKK_N1
  6
CONTINUOUS
 10
1860.001007
 20
9430.013582
 30
0.0
 11
1860.001007
 21
9105.013582
 31
0.0
  0
LINE
  5
5A
  8
YKK_N1
  6
CONTINUOUS
 10
1833.001007
 20
9430.013582
 30
0.0
 11
1833.001007
 21
9105.013582
 31
0.0
  0
TEXT
  5
5B
  8
YKK_N1
  6
CONTINUOUS
 10
1720.501007
 20
9117.013582
 30
0.0
 40
60.0
  1
27
  0
CIRCLE
  5
5C
  8
YKK_N1
  6
CONTINUOUS
 10
1833.001007
 20
9105.013582
 30
0.0
 40
5.0
  0
LINE
  5
5D
  8
YKK_N1
  6
CONTINUOUS
 10
1833.001007
 20
9105.013582
 30
0.0
 11
1860.001007
 21
9105.013582
 31
0.0
  0
LINE
  5
5E
  8
YKK_Z1
 10
1847.500639
 20
9636.010562
 30
0.0
 11
1742.500639
 21
9531.010562
 31
0.0
  0
LINE
  5
5F
  8
YKK_Z1
 10
1847.500639
 20
9531.010562
 30
0.0
 11
1742.500639
 21
9636.010562
 31
0.0
  0
LINE
  5
60
  8
YKK_Z1
 62
     7
 10
1742.500639
 20
9531.010562
 30
0.0
 11
1742.500639
 21
9636.010562
 31
0.0
  0
LINE
  5
61
  8
YKK_Z1
 62
     7
 10
1847.500639
 20
9636.010562
 30
0.0
 11
1847.500639
 21
9531.010562
 31
0.0
  0
LINE
  5
62
  8
YKK_B1
 10
1880.000622
 20
9593.013608
 30
0.0
 11
1880.000622
 21
9611.813608
 31
0.0
  0
LINE
  5
63
  8
YKK_B1
  6
CONTINUOUS
 10
1869.000638
 20
9608.013608
 30
0.0
 11
1869.000638
 21
9680.013608
 31
0.0
  0
LINE
  5
64
  8
YKK_Z1
  6
CONTINUOUS
 10
1847.499895
 20
9636.013608
 30
0.0
 11
1859.999899
 21
9608.013608
 31
0.0
  0
LINE
  5
65
  8
YKK_Z1
 10
1847.500639
 20
9609.010562
 30
0.0
 11
1847.500639
 21
9636.010562
 31
0.0
  0
LINE
  5
66
  8
YKK_Z1
 10
1860.000639
 20
9609.010562
 30
0.0
 11
1860.000639
 21
9636.010562
 31
0.0
  0
LINE
  5
67
  8
YKK_B1
 10
1878.502534
 20
9609.315274
 30
0.0
 11
1878.502534
 21
9610.515274
 31
0.0
  0
LINE
  5
68
  8
YKK_B1
 10
1875.002534
 20
9610.415274
 30
0.0
 11
1875.002534
 21
9609.315274
 31
0.0
  0
LINE
  5
69
  8
YKK_B1
 10
1869.500622
 20
9610.413608
 30
0.0
 11
1869.500622
 21
9609.113608
 31
0.0
  0
LINE
  5
6A
  8
YKK_B1
 10
1862.210991
 20
9609.915274
 30
0.0
 11
1862.902534
 21
9608.015274
 31
0.0
  0
LINE
  5
6B
  8
YKK_B1
 10
1860.802534
 20
9608.015274
 30
0.0
 11
1860.802534
 21
9609.915274
 31
0.0
  0
LINE
  5
6C
  8
YKK_B1
 10
1860.002534
 20
9610.715274
 30
0.0
 11
1860.002534
 21
9608.015274
 31
0.0
  0
LINE
  5
6D
  8
YKK_Z1
 62
     7
 10
1660.000639
 20
9531.010562
 30
0.0
 11
1860.001194
 21
9531.010562
 31
0.0
  0
LINE
  5
6E
  8
YKK_Z1
 62
     7
 10
1660.000639
 20
9518.510562
 30
0.0
 11
1860.001194
 21
9518.510562
 31
0.0
  0
LINE
  5
6F
  8
YKK_Z1
  6
CONTINUOUS
 10
1859.999898
 20
9531.013608
 30
0.0
 11
1847.499899
 21
9608.013608
 31
0.0
  0
LINE
  5
70
  8
YKK_Z1
 10
1860.000654
 20
9609.010562
 30
0.0
 11
1860.000654
 21
9531.010562
 31
0.0
  0
LINE
  5
71
  8
YKK_Z1
 10
1847.500639
 20
9531.010562
 30
0.0
 11
1847.500639
 21
9609.010562
 31
0.0
  0
LINE
  5
72
  8
YKK_B2
 10
1859.999899
 20
9607.013607
 30
0.0
 11
1859.999899
 21
9505.0136
 31
0.0
  0
LINE
  5
73
  8
YKK_B2
 10
1879.999905
 20
9575.523476
 30
0.0
 11
1859.999905
 21
9595.523476
 31
0.0
  0
LINE
  5
74
  8
YKK_B2
 10
1876.999899
 20
9593.513607
 30
0.0
 11
1876.999899
 21
9605.013607
 31
0.0
  0
LINE
  5
75
  8
YKK_B2
 10
1879.999905
 20
9530.268642
 30
0.0
 11
1859.999905
 21
9550.268642
 31
0.0
  0
LINE
  5
76
  8
YKK_B2
 10
1879.999899
 20
9507.0136
 30
0.0
 11
1879.999899
 21
9593.013607
 31
0.0
  0
LINE
  5
77
  8
YKK_Z1
 62
     7
 10
1847.500639
 20
9531.010562
 30
0.0
 11
1742.500639
 21
9531.010562
 31
0.0
  0
LINE
  5
78
  8
YKK_Z1
 10
1860.000654
 20
9531.010562
 30
0.0
 11
1847.500654
 21
9531.010562
 31
0.0
  0
ARC
  5
79
  8
YKK_B2
 10
1877.999899
 20
9507.0136
 30
0.0
 40
2.0
 50
270.0
 51
0.0
  0
LINE
  5
7A
  8
YKK_B2
 10
1859.999899
 20
9505.0136
 30
0.0
 11
1877.999899
 21
9505.0136
 31
0.0
  0
LINE
  5
7B
  8
YKK_B2
 10
1879.999905
 20
9507.641225
 30
0.0
 11
1859.999905
 21
9527.641225
 31
0.0
  0
LINE
  5
7C
  8
YKK_B2
 10
1879.999905
 20
9552.896059
 30
0.0
 11
1859.999905
 21
9572.896059
 31
0.0
  0
LINE
  5
7D
  8
YKK_B2
 10
1879.999899
 20
9593.013607
 30
0.0
 11
1877.499899
 21
9593.013607
 31
0.0
  0
ARC
  5
7E
  8
YKK_B2
 10
1877.499899
 20
9593.513607
 30
0.0
 40
0.5
 50
180.0
 51
270.0
  0
LINE
  5
7F
  8
YKK_B1
 10
1877.500622
 20
9593.013608
 30
0.0
 11
1880.000622
 21
9593.013608
 31
0.0
  0
LINE
  5
80
  8
YKK_N1
  6
CONTINUOUS
 10
1860.001007
 20
9305.013582
 30
0.0
 11
1880.001007
 21
9305.013582
 31
0.0
  0
CIRCLE
  5
81
  8
YKK_N1
  6
CONTINUOUS
 10
1860.001007
 20
9305.013582
 30
0.0
 40
5.0
  0
CIRCLE
  5
82
  8
YKK_N1
  6
CONTINUOUS
 10
1880.001007
 20
9305.013582
 30
0.0
 40
5.0
  0
LINE
  5
83
  8
YKK_N1
  6
CONTINUOUS
 10
1880.001007
 20
9430.013582
 30
0.0
 11
1880.001007
 21
9305.013582
 31
0.0
  0
LINE
  5
84
  8
YKK_Z1
  6
CONTINUOUS
 10
1847.499899
 20
9608.013608
 30
0.0
 11
1859.999898
 21
9608.013608
 31
0.0
  0
LINE
  5
85
  8
YKK_Z1
  6
CONTINUOUS
 10
1847.499899
 20
9608.013608
 30
0.0
 11
1859.999899
 21
9608.013608
 31
0.0
  0
LINE
  5
86
  8
YKK_B2
 10
1874.999899
 20
9607.013607
 30
0.0
 11
1859.999899
 21
9607.013607
 31
0.0
  0
LINE
  5
87
  8
YKK_B2
 10
1876.999899
 20
9605.013607
 30
0.0
 11
1874.999899
 21
9607.013607
 31
0.0
  0
LINE
  5
88
  8
YKK_B2
 10
1876.999905
 20
9601.150893
 30
0.0
 11
1871.137191
 21
9607.013607
 31
0.0
  0
LINE
  5
89
  8
YKK_B1
 10
1875.002534
 20
9609.315274
 30
0.0
 11
1878.502534
 21
9609.315274
 31
0.0
  0
LINE
  5
8A
  8
YKK_B1
 10
1873.200622
 20
9608.013608
 30
0.0
 11
1880.000622
 21
9608.013608
 31
0.0
  0
LINE
  5
8B
  8
YKK_B1
 10
1873.200622
 20
9609.113608
 30
0.0
 11
1873.200622
 21
9608.013608
 31
0.0
  0
LINE
  5
8C
  8
YKK_B1
 10
1869.500622
 20
9609.113608
 30
0.0
 11
1873.200622
 21
9609.113608
 31
0.0
  0
LINE
  5
8D
  8
YKK_B1
 10
1862.902534
 20
9608.015274
 30
0.0
 11
1871.502534
 21
9608.015274
 31
0.0
  0
LINE
  5
8E
  8
YKK_B1
 10
1860.002534
 20
9608.015274
 30
0.0
 11
1860.802534
 21
9608.015274
 31
0.0
  0
LINE
  5
8F
  8
YKK_Z1
 10
1742.500642
 20
9636.010562
 30
0.0
 11
1660.000639
 21
9636.010562
 31
0.0
  0
LINE
  5
90
  8
YKK_Z1
 62
     7
 10
1660.199896
 20
9666.010562
 30
0.0
 11
1857.799896
 21
9666.010562
 31
0.0
  0
LINE
  5
91
  8
YKK_Z1
 62
     7
 10
1660.199896
 20
9654.010562
 30
0.0
 11
1857.799896
 21
9654.010562
 31
0.0
  0
LINE
  5
92
  8
YKK_Z1
 10
1812.799896
 20
9636.010562
 30
0.0
 11
1857.799896
 21
9654.010562
 31
0.0
  0
LINE
  5
93
  8
YKK_Z1
 10
1812.799896
 20
9654.010562
 30
0.0
 11
1812.799896
 21
9636.010562
 31
0.0
  0
LINE
  5
94
  8
YKK_B1
  6
CONTINUOUS
 10
1833.002481
 20
9636.013608
 30
0.0
 11
1833.002481
 21
9638.013613
 31
0.0
  0
LINE
  5
95
  8
YKK_B1
  6
CONTINUOUS
 10
1860.000997
 20
9638.013613
 30
0.0
 11
1860.000997
 21
9636.013608
 31
0.0
  0
LINE
  5
96
  8
YKK_Z1
 62
     7
 10
1742.500639
 20
9636.010562
 30
0.0
 11
1847.500639
 21
9636.010562
 31
0.0
  0
LINE
  5
97
  8
YKK_B1
 10
1884.000771
 20
9619.413608
 30
0.0
 11
1884.000771
 21
9626.88438
 31
0.0
  0
LINE
  5
98
  8
YKK_B1
  6
CONTINUOUS
 10
1896.000771
 20
9631.013608
 30
0.0
 11
1892.000622
 21
9631.013608
 31
0.0
  0
LINE
  5
99
  8
YKK_B1
  6
CONTINUOUS
 10
1896.000771
 20
9619.413608
 30
0.0
 11
1896.000771
 21
9631.013608
 31
0.0
  0
LINE
  5
9A
  8
YKK_B1
 10
1869.200513
 20
9632.271233
 30
0.0
 11
1869.200513
 21
9635.085575
 31
0.0
  0
LINE
  5
9B
  8
YKK_B1
 10
1871.500525
 20
9636.113608
 30
0.0
 11
1871.500525
 21
9632.682815
 31
0.0
  0
LINE
  5
9C
  8
YKK_Z1
 10
1812.600639
 20
9636.010562
 30
0.0
 11
1857.600639
 21
9636.010562
 31
0.0
  0
LINE
  5
9D
  8
YKK_Z1
 10
1847.500639
 20
9636.010562
 30
0.0
 11
1860.000639
 21
9636.010562
 31
0.0
  0
LINE
  5
9E
  8
YKK_B1
 10
1869.000525
 20
9636.113608
 30
0.0
 11
1871.500525
 21
9636.113608
 31
0.0
  0
LINE
  5
9F
  8
YKK_B1
 10
1869.002534
 20
9610.415274
 30
0.0
 11
1875.002534
 21
9610.415274
 31
0.0
  0
LINE
  5
A0
  8
YKK_B1
 10
1880.000622
 20
9611.813608
 30
0.0
 11
1877.000622
 21
9611.813608
 31
0.0
  0
LINE
  5
A1
  8
YKK_B1
 10
1860.802534
 20
9609.915274
 30
0.0
 11
1862.210991
 21
9609.915274
 31
0.0
  0
LINE
  5
A2
  8
YKK_B1
  6
CONTINUOUS
 10
1896.000987
 20
9619.413608
 30
0.0
 11
1869.000622
 21
9619.413608
 31
0.0
  0
LINE
  5
A3
  8
YKK_B1
 10
1884.000771
 20
9626.88438
 30
0.0
 11
1869.200513
 21
9632.271233
 31
0.0
  0
LINE
  5
A4
  8
YKK_B1
 10
1886.500536
 20
9661.013614
 30
0.0
 11
1886.500536
 21
9666.513608
 31
0.0
  0
LINE
  5
A5
  8
YKK_B1
 10
1896.000536
 20
9666.513608
 30
0.0
 11
1896.000536
 21
9661.013608
 31
0.0
  0
LINE
  5
A6
  8
YKK_Z1
 10
1857.799896
 20
9654.010562
 30
0.0
 11
1812.799896
 21
9654.010562
 31
0.0
  0
LINE
  5
A7
  8
YKK_B1
  6
CONTINUOUS
 10
1833.002481
 20
9638.013613
 30
0.0
 11
1869.000638
 21
9638.013613
 31
0.0
  0
LINE
  5
A8
  8
YKK_B2
 10
1857.799896
 20
9656.010562
 30
0.0
 11
1869.199895
 21
9656.010562
 31
0.0
  0
LINE
  5
A9
  8
YKK_B2
 10
1857.799896
 20
9666.010562
 30
0.0
 11
1869.199895
 21
9666.010562
 31
0.0
  0
LINE
  5
AA
  8
YKK_B2
 10
1866.657745
 20
9666.010562
 30
0.0
 11
1857.799896
 21
9657.152697
 31
0.0
  0
LINE
  5
AB
  8
YKK_B2
 10
1861.000915
 20
9666.010562
 30
0.0
 11
1857.799896
 21
9662.809558
 31
0.0
  0
LINE
  5
AC
  8
YKK_Z1
 10
1857.799896
 20
9654.010562
 30
0.0
 11
1857.799896
 21
9666.010562
 31
0.0
  0
LINE
  5
AD
  8
YKK_Z1
 62
     7
 10
1857.799896
 20
9654.010562
 30
0.0
 11
1857.799896
 21
9666.010562
 31
0.0
  0
LINE
  5
AE
  8
YKK_Z1
 10
1857.799896
 20
9654.010562
 30
0.0
 11
1857.799896
 21
9638.010562
 31
0.0
  0
LINE
  5
AF
  8
YKK_Z1
 10
1857.799896
 20
9641.010562
 30
0.0
 11
1857.799896
 21
9653.010562
 31
0.0
  0
LINE
  5
B0
  8
YKK_B2
 10
1869.199895
 20
9662.895832
 30
0.0
 11
1862.314606
 21
9656.010562
 31
0.0
  0
LINE
  5
B1
  8
YKK_B1
  6
CONTINUOUS
 10
1869.000638
 20
9680.013608
 30
0.0
 11
1865.000622
 21
9680.013608
 31
0.0
  0
LINE
  5
B2
  8
YKK_B1
  6
CONTINUOUS
 10
1865.000622
 20
9677.013608
 30
0.0
 11
1865.000622
 21
9680.013608
 31
0.0
  0
LINE
  5
B3
  8
YKK_B1
  6
CONTINUOUS
 10
1869.000638
 20
9666.513608
 30
0.0
 11
1896.000619
 21
9666.513608
 31
0.0
  0
LINE
  5
B4
  8
YKK_N1
  6
CONTINUOUS
 10
2667.001007
 20
9430.013582
 30
0.0
 11
2667.001007
 21
9105.013582
 31
0.0
  0
LINE
  5
B5
  8
YKK_N1
  6
CONTINUOUS
 10
2640.001007
 20
9430.013582
 30
0.0
 11
2640.001007
 21
9105.013582
 31
0.0
  0
TEXT
  5
B6
  8
YKK_N1
  6
CONTINUOUS
 10
2105.001007
 20
9117.013582
 30
0.0
 40
60.0
  1
W=780
  0
LINE
  5
B7
  8
YKK_N1
  6
CONTINUOUS
 10
1946.603547
 20
9055.013582
 30
0.0
 11
1946.603547
 21
9155.013582
 31
0.0
  0
TEXT
  5
B8
  8
YKK_N1
  6
CONTINUOUS
 10
2679.501007
 20
9117.013582
 30
0.0
 40
60.0
  1
27
  0
LINE
  5
B9
  8
YKK_N1
  6
CONTINUOUS
 10
2553.398467
 20
9155.013582
 30
0.0
 11
2553.398467
 21
9055.013582
 31
0.0
  0
LINE
  5
BA
  8
YKK_N1
  6
CONTINUOUS
 10
2640.001007
 20
9105.013582
 30
0.0
 11
2553.398467
 21
9155.013582
 31
0.0
  0
LINE
  5
BB
  8
YKK_N1
  6
CONTINUOUS
 10
2640.001007
 20
9105.013582
 30
0.0
 11
2667.001007
 21
9105.013582
 31
0.0
  0
LINE
  5
BC
  8
YKK_N1
  6
CONTINUOUS
 10
2640.001007
 20
9105.013582
 30
0.0
 11
2553.398467
 21
9055.013582
 31
0.0
  0
CIRCLE
  5
BD
  8
YKK_N1
  6
CONTINUOUS
 10
2667.001007
 20
9105.013582
 30
0.0
 40
5.0
  0
LINE
  5
BE
  8
YKK_N1
  6
CONTINUOUS
 10
2403.387814
 20
9680.010724
 30
0.0
 11
2403.387814
 21
9608.010724
 31
0.0
  0
CIRCLE
  5
BF
  8
YKK_N1
  6
CONTINUOUS
 10
2403.387814
 20
9608.010724
 30
0.0
 40
5.0
  0
LINE
  5
C0
  8
YKK_N1
  6
CONTINUOUS
 10
2442.771191
 20
9608.010724
 30
0.0
 11
2403.387814
 21
9608.010724
 31
0.0
  0
CIRCLE
  5
C1
  8
YKK_N1
  6
CONTINUOUS
 10
2403.387814
 20
9680.010724
 30
0.0
 40
5.0
  0
TEXT
  5
C2
  8
YKK_N1
  6
CONTINUOUS
 10
2391.387814
 20
9698.010724
 30
0.0
 40
60.0
  1
72
 50
90.0
  0
LINE
  5
C3
  8
YKK_Z1
 62
     7
 10
2757.500639
 20
9531.010562
 30
0.0
 11
2757.500639
 21
9636.010562
 31
0.0
  0
LINE
  5
C4
  8
YKK_Z1
 62
     7
 10
2652.500639
 20
9636.010562
 30
0.0
 11
2652.500639
 21
9531.010562
 31
0.0
  0
LINE
  5
C5
  8
YKK_B1
 10
2620.001392
 20
9593.013608
 30
0.0
 11
2620.001392
 21
9611.813608
 31
0.0
  0
LINE
  5
C6
  8
YKK_B1
  6
CONTINUOUS
 10
2631.001376
 20
9608.013608
 30
0.0
 11
2631.001376
 21
9680.013608
 31
0.0
  0
LINE
  5
C7
  8
YKK_Z1
  6
CONTINUOUS
 10
2652.500623
 20
9636.013608
 30
0.0
 11
2640.00062
 21
9608.013608
 31
0.0
  0
LINE
  5
C8
  8
YKK_Z1
 10
2640.000639
 20
9609.010562
 30
0.0
 11
2640.000639
 21
9636.010562
 31
0.0
  0
LINE
  5
C9
  8
YKK_Z1
 10
2652.500639
 20
9609.010562
 30
0.0
 11
2652.500639
 21
9636.010562
 31
0.0
  0
LINE
  5
CA
  8
YKK_B1
 10
2639.19948
 20
9608.015274
 30
0.0
 11
2639.19948
 21
9609.915274
 31
0.0
  0
LINE
  5
CB
  8
YKK_B1
 10
2639.99948
 20
9610.715274
 30
0.0
 11
2639.99948
 21
9608.015274
 31
0.0
  0
LINE
  5
CC
  8
YKK_B1
 10
2621.49948
 20
9609.315274
 30
0.0
 11
2621.49948
 21
9610.515274
 31
0.0
  0
LINE
  5
CD
  8
YKK_B1
 10
2624.99948
 20
9610.415274
 30
0.0
 11
2624.99948
 21
9609.315274
 31
0.0
  0
LINE
  5
CE
  8
YKK_B1
 10
2630.501392
 20
9610.413608
 30
0.0
 11
2630.501392
 21
9609.113608
 31
0.0
  0
LINE
  5
CF
  8
YKK_B1
 10
2637.791023
 20
9609.915274
 30
0.0
 11
2637.09948
 21
9608.015274
 31
0.0
  0
LINE
  5
D0
  8
YKK_Z1
 10
2652.500639
 20
9531.010562
 30
0.0
 11
2757.500639
 21
9636.010562
 31
0.0
  0
LINE
  5
D1
  8
YKK_Z1
 10
2652.500639
 20
9636.010562
 30
0.0
 11
2757.500639
 21
9531.010562
 31
0.0
  0
LINE
  5
D2
  8
YKK_Z1
 62
     7
 10
2840.200619
 20
9531.010562
 30
0.0
 11
2640.000639
 21
9531.010562
 31
0.0
  0
LINE
  5
D3
  8
YKK_Z1
 62
     7
 10
2840.200619
 20
9518.510562
 30
0.0
 11
2640.000639
 21
9518.510562
 31
0.0
  0
LINE
  5
D4
  8
YKK_Z1
 62
     7
 10
2652.500639
 20
9531.010562
 30
0.0
 11
2757.500639
 21
9531.010562
 31
0.0
  0
LINE
  5
D5
  8
YKK_Z1
  6
CONTINUOUS
 10
2640.00062
 20
9531.013608
 30
0.0
 11
2652.50062
 21
9608.013608
 31
0.0
  0
LINE
  5
D6
  8
YKK_Z1
 10
2640.000623
 20
9609.010562
 30
0.0
 11
2640.000623
 21
9531.010562
 31
0.0
  0
LINE
  5
D7
  8
YKK_Z1
 10
2652.500639
 20
9531.010562
 30
0.0
 11
2652.500639
 21
9609.010562
 31
0.0
  0
LINE
  5
D8
  8
YKK_B2
 10
2639.999899
 20
9607.01359
 30
0.0
 11
2639.999899
 21
9505.013582
 31
0.0
  0
LINE
  5
D9
  8
YKK_B2
 10
2622.999899
 20
9593.51359
 30
0.0
 11
2622.999899
 21
9605.01359
 31
0.0
  0
LINE
  5
DA
  8
YKK_B2
 10
2619.999899
 20
9575.523489
 30
0.0
 11
2639.999899
 21
9595.523489
 31
0.0
  0
LINE
  5
DB
  8
YKK_B2
 10
2619.999899
 20
9507.013582
 30
0.0
 11
2619.999899
 21
9593.01359
 31
0.0
  0
LINE
  5
DC
  8
YKK_B2
 10
2619.999899
 20
9530.268655
 30
0.0
 11
2639.999899
 21
9550.268655
 31
0.0
  0
LINE
  5
DD
  8
YKK_Z1
 10
2640.000623
 20
9531.010562
 30
0.0
 11
2652.500623
 21
9531.010562
 31
0.0
  0
ARC
  5
DE
  8
YKK_B2
 10
2621.999899
 20
9507.013582
 30
0.0
 40
2.0
 50
180.0
 51
270.0
  0
LINE
  5
DF
  8
YKK_B2
 10
2619.999899
 20
9507.641238
 30
0.0
 11
2639.999899
 21
9527.641238
 31
0.0
  0
LINE
  5
E0
  8
YKK_B2
 10
2639.999899
 20
9505.013582
 30
0.0
 11
2621.999899
 21
9505.013582
 31
0.0
  0
LINE
  5
E1
  8
YKK_B2
 10
2619.999899
 20
9592.494052
 30
0.0
 11
2620.519668
 21
9593.013821
 31
0.0
  0
LINE
  5
E2
  8
YKK_B2
 10
2619.999899
 20
9593.01359
 30
0.0
 11
2622.499899
 21
9593.01359
 31
0.0
  0
ARC
  5
E3
  8
YKK_B2
 10
2622.499899
 20
9593.51359
 30
0.0
 40
0.5
 50
270.0
 51
0.0
  0
LINE
  5
E4
  8
YKK_B1
 10
2622.501392
 20
9593.013608
 30
0.0
 11
2620.001392
 21
9593.013608
 31
0.0
  0
LINE
  5
E5
  8
YKK_B2
 10
2619.999899
 20
9552.896072
 30
0.0
 11
2639.999899
 21
9572.896072
 31
0.0
  0
TEXT
  5
E6
  8
YKK_N1
  6
CONTINUOUS
 10
2512.501007
 20
9317.013582
 30
0.0
 40
60.0
  1
20
  0
CIRCLE
  5
E7
  8
YKK_N1
  6
CONTINUOUS
 10
2620.001007
 20
9305.013582
 30
0.0
 40
5.0
  0
CIRCLE
  5
E8
  8
YKK_N1
  6
CONTINUOUS
 10
2640.001007
 20
9305.013582
 30
0.0
 40
5.0
  0
LINE
  5
E9
  8
YKK_N1
  6
CONTINUOUS
 10
2620.001007
 20
9305.013582
 30
0.0
 11
2640.001007
 21
9305.013582
 31
0.0
  0
LINE
  5
EA
  8
YKK_N1
  6
CONTINUOUS
 10
2620.001007
 20
9430.013582
 30
0.0
 11
2620.001007
 21
9305.013582
 31
0.0
  0
LINE
  5
EB
  8
YKK_Z1
  6
CONTINUOUS
 10
2652.50062
 20
9608.013608
 30
0.0
 11
2640.00062
 21
9608.013608
 31
0.0
  0
LINE
  5
EC
  8
YKK_Z1
  6
CONTINUOUS
 10
2652.50062
 20
9608.013608
 30
0.0
 11
2640.00062
 21
9608.013608
 31
0.0
  0
LINE
  5
ED
  8
YKK_B1
 10
2639.99948
 20
9608.015274
 30
0.0
 11
2639.19948
 21
9608.015274
 31
0.0
  0
LINE
  5
EE
  8
YKK_B2
 10
2622.999899
 20
9601.150906
 30
0.0
 11
2628.862582
 21
9607.01359
 31
0.0
  0
LINE
  5
EF
  8
YKK_B2
 10
2622.999899
 20
9605.01359
 30
0.0
 11
2624.999899
 21
9607.01359
 31
0.0
  0
LINE
  5
F0
  8
YKK_B1
 10
2624.99948
 20
9609.315274
 30
0.0
 11
2621.49948
 21
9609.315274
 31
0.0
  0
LINE
  5
F1
  8
YKK_B1
 10
2626.801392
 20
9608.013608
 30
0.0
 11
2620.001392
 21
9608.013608
 31
0.0
  0
LINE
  5
F2
  8
YKK_B1
 10
2626.801392
 20
9609.113608
 30
0.0
 11
2626.801392
 21
9608.013608
 31
0.0
  0
LINE
  5
F3
  8
YKK_B1
 10
2630.501392
 20
9609.113608
 30
0.0
 11
2626.801392
 21
9609.113608
 31
0.0
  0
LINE
  5
F4
  8
YKK_B1
 10
2637.09948
 20
9608.015274
 30
0.0
 11
2628.49948
 21
9608.015274
 31
0.0
  0
LINE
  5
F5
  8
YKK_B2
 10
2624.999899
 20
9607.01359
 30
0.0
 11
2639.999899
 21
9607.01359
 31
0.0
  0
LINE
  5
F6
  8
YKK_Z1
 62
     7
 10
2757.500639
 20
9636.010562
 30
0.0
 11
2652.500639
 21
9636.010562
 31
0.0
  0
LINE
  5
F7
  8
YKK_Z1
 62
     7
 10
2840.002247
 20
9666.010562
 30
0.0
 11
2642.202266
 21
9666.010562
 31
0.0
  0
LINE
  5
F8
  8
YKK_Z1
 62
     7
 10
2840.002247
 20
9654.010562
 30
0.0
 11
2642.202266
 21
9654.010562
 31
0.0
  0
LINE
  5
F9
  8
YKK_B1
  6
CONTINUOUS
 10
2666.999533
 20
9636.013608
 30
0.0
 11
2666.999533
 21
9638.013613
 31
0.0
  0
LINE
  5
FA
  8
YKK_B1
  6
CONTINUOUS
 10
2640.001017
 20
9638.013613
 30
0.0
 11
2640.001017
 21
9636.013608
 31
0.0
  0
LINE
  5
FB
  8
YKK_Z1
 10
2687.400639
 20
9636.010562
 30
0.0
 11
2642.400639
 21
9636.010562
 31
0.0
  0
LINE
  5
FC
  8
YKK_Z1
 10
2652.500639
 20
9636.010562
 30
0.0
 11
2640.000639
 21
9636.010562
 31
0.0
  0
LINE
  5
FD
  8
YKK_B1
 10
2630.99948
 20
9610.415274
 30
0.0
 11
2624.99948
 21
9610.415274
 31
0.0
  0
LINE
  5
FE
  8
YKK_B1
 10
2620.001392
 20
9611.813608
 30
0.0
 11
2623.001392
 21
9611.813608
 31
0.0
  0
LINE
  5
FF
  8
YKK_B1
  6
CONTINUOUS
 10
2604.001243
 20
9631.013608
 30
0.0
 11
2608.001392
 21
9631.013608
 31
0.0
  0
LINE
  5
100
  8
YKK_B1
  6
CONTINUOUS
 10
2604.001027
 20
9619.413608
 30
0.0
 11
2631.001392
 21
9619.413608
 31
0.0
  0
LINE
  5
101
  8
YKK_B1
 10
2616.001243
 20
9626.88438
 30
0.0
 11
2630.801501
 21
9632.271233
 31
0.0
  0
LINE
  5
102
  8
YKK_B1
 10
2630.801501
 20
9632.271233
 30
0.0
 11
2630.801501
 21
9635.085575
 31
0.0
  0
LINE
  5
103
  8
YKK_B1
 10
2628.501489
 20
9636.113608
 30
0.0
 11
2628.501489
 21
9632.682815
 31
0.0
  0
LINE
  5
104
  8
YKK_B1
 10
2631.001489
 20
9636.113608
 30
0.0
 11
2628.501489
 21
9636.113608
 31
0.0
  0
LINE
  5
105
  8
YKK_B1
 10
2616.001243
 20
9619.413608
 30
0.0
 11
2616.001243
 21
9626.88438
 31
0.0
  0
LINE
  5
106
  8
YKK_B1
  6
CONTINUOUS
 10
2604.001243
 20
9619.413608
 30
0.0
 11
2604.001243
 21
9631.013608
 31
0.0
  0
LINE
  5
107
  8
YKK_B1
 10
2639.19948
 20
9609.915274
 30
0.0
 11
2637.791023
 21
9609.915274
 31
0.0
  0
LINE
  5
108
  8
YKK_Z1
  6
CONTINUOUS
 10
2654.689804
 20
9640.018623
 30
0.0
 11
2687.202266
 21
9654.013608
 31
0.0
  0
LINE
  5
109
  8
YKK_Z1
 10
2642.202266
 20
9654.010562
 30
0.0
 11
2687.202266
 21
9654.010562
 31
0.0
  0
LINE
  5
10A
  8
YKK_B1
  6
CONTINUOUS
 10
2666.999533
 20
9638.013613
 30
0.0
 11
2631.001376
 21
9638.013613
 31
0.0
  0
LINE
  5
10B
  8
YKK_Z1
 62
     7
 10
2642.202266
 20
9654.010562
 30
0.0
 11
2642.202266
 21
9666.010562
 31
0.0
  0
LINE
  5
10C
  8
YKK_Z1
 10
2642.202266
 20
9653.010562
 30
0.0
 11
2642.202266
 21
9666.010562
 31
0.0
  0
LINE
  5
10D
  8
YKK_B2
 10
2639.527706
 20
9655.992861
 30
0.0
 11
2642.202266
 21
9658.667422
 31
0.0
  0
LINE
  5
10E
  8
YKK_Z1
 10
2642.202266
 20
9641.010562
 30
0.0
 11
2642.202266
 21
9653.010562
 31
0.0
  0
LINE
  5
10F
  8
YKK_Z1
 10
2642.202266
 20
9654.010562
 30
0.0
 11
2642.202266
 21
9638.010562
 31
0.0
  0
LINE
  5
110
  8
YKK_B2
 10
2630.802881
 20
9658.581746
 30
0.0
 11
2638.231716
 21
9666.010562
 31
0.0
  0
LINE
  5
111
  8
YKK_B2
 10
2630.802881
 20
9664.238587
 30
0.0
 11
2632.574855
 21
9666.010562
 31
0.0
  0
LINE
  5
112
  8
YKK_B1
  6
CONTINUOUS
 10
2631.001376
 20
9666.513608
 30
0.0
 11
2604.001395
 21
9666.513608
 31
0.0
  0
LINE
  5
113
  8
YKK_B1
 10
2613.501479
 20
9661.013614
 30
0.0
 11
2613.501479
 21
9666.513608
 31
0.0
  0
LINE
  5
114
  8
YKK_B1
 10
2604.001479
 20
9666.513608
 30
0.0
 11
2604.001479
 21
9661.013608
 31
0.0
  0
LINE
  5
115
  8
YKK_B1
  6
CONTINUOUS
 10
2635.001392
 20
9677.013608
 30
0.0
 11
2635.001392
 21
9680.013608
 31
0.0
  0
LINE
  5
116
  8
YKK_B1
  6
CONTINUOUS
 10
2631.001376
 20
9680.013608
 30
0.0
 11
2635.001392
 21
9680.013608
 31
0.0
  0
LINE
  5
117
  8
YKK_B2
 10
2642.202266
 20
9656.010562
 30
0.0
 11
2630.802881
 21
9656.010562
 31
0.0
  0
LINE
  5
118
  8
YKK_B2
 10
2642.202266
 20
9666.010562
 30
0.0
 11
2630.802881
 21
9666.010562
 31
0.0
  0
LINE
  5
119
  8
YKK_B2
 10
2633.888561
 20
9656.010562
 30
0.0
 11
2642.202266
 21
9664.324267
 31
0.0
  0
LINE
  5
11A
  8
YKK_Z1
  6
CONTINUOUS
 10
2687.202266
 20
9654.013608
 30
0.0
 11
2687.202266
 21
9638.013604
 31
0.0
  0
LINE
  5
11B
  8
YKK_Z1
 10
2757.500635
 20
9636.010562
 30
0.0
 11
2840.200619
 21
9636.010562
 31
0.0
  0
TEXT
  5
11C
  8
YKK_N1
  6
CONTINUOUS
 10
3112.200619
 20
9571.513595
 30
0.0
 40
60.0
  1
28
 50
90.0
  0
LINE
  5
11D
  8
YKK_N1
  6
CONTINUOUS
 10
3040.200619
 20
9636.013595
 30
0.0
 11
3040.200619
 21
9608.013595
 31
0.0
  0
CIRCLE
  5
11E
  8
YKK_N1
  6
CONTINUOUS
 10
3040.200619
 20
9608.013595
 30
0.0
 40
5.0
  0
LINE
  5
11F
  8
YKK_N1
  6
CONTINUOUS
 10
3040.200619
 20
9608.013595
 30
0.0
 11
3040.200619
 21
9593.013595
 31
0.0
  0
CIRCLE
  5
120
  8
YKK_N1
  6
CONTINUOUS
 10
3040.200619
 20
9593.013595
 30
0.0
 40
5.0
  0
CIRCLE
  5
121
  8
YKK_N1
  6
CONTINUOUS
 10
3040.200619
 20
9636.013595
 30
0.0
 40
5.0
  0
LINE
  5
122
  8
YKK_N1
  6
CONTINUOUS
 10
3040.200619
 20
9680.013595
 30
0.0
 11
3040.200619
 21
9636.013595
 31
0.0
  0
CIRCLE
  5
123
  8
YKK_N1
  6
CONTINUOUS
 10
3040.200619
 20
9680.013595
 30
0.0
 40
5.0
  0
LINE
  5
124
  8
YKK_F1
 62
     7
 10
9000.0
 20
0.0
 30
0.0
 11
9000.0
 21
7800.0
 31
0.0
  0
LINE
  5
125
  8
YKK_B2
 10
8234.998892
 20
9508.010354
 30
0.0
 11
9764.998892
 21
9508.010354
 31
0.0
  0
LINE
  5
126
  8
YKK_B1
 10
9766.000247
 20
9680.007471
 30
0.0
 11
8233.99963
 21
9680.007471
 31
0.0
  0
LINE
  5
127
  8
YKK_B1
 10
9755.000154
 20
9611.810354
 30
0.0
 11
9034.999615
 21
9611.810354
 31
0.0
  0
LINE
  5
128
  8
YKK_B1
 10
9755.000154
 20
9593.010354
 30
0.0
 11
9034.999615
 21
9593.010354
 31
0.0
  0
LINE
  5
129
  8
YKK_N1
  6
CONTINUOUS
 10
8215.0
 20
9105.010329
 30
0.0
 11
9784.999969
 21
9105.010329
 31
0.0
  0
LINE
  5
12A
  8
YKK_N1
  6
CONTINUOUS
 10
8215.0
 20
8905.010329
 30
0.0
 11
9785.0
 21
8905.010329
 31
0.0
  0
TEXT
  5
12B
  8
YKK_N1
  6
CONTINUOUS
 10
9243.046787
 20
9115.34417
 30
0.0
 40
60.0
  1
W2=780
  0
LINE
  5
12C
  8
YKK_B1
 10
8964.999841
 20
9593.010354
 30
0.0
 11
8244.996226
 21
9593.010354
 31
0.0
  0
LINE
  5
12D
  8
YKK_B1
 10
8964.999841
 20
9611.810354
 30
0.0
 11
8244.996226
 21
9611.810354
 31
0.0
  0
LINE
  5
12E
  8
YKK_N1
  6
CONTINUOUS
 10
8188.0
 20
9430.010329
 30
0.0
 11
8188.0
 21
8905.010329
 31
0.0
  0
LINE
  5
12F
  8
YKK_N1
  6
CONTINUOUS
 10
8215.0
 20
9430.010329
 30
0.0
 11
8215.0
 21
8905.010329
 31
0.0
  0
TEXT
  5
130
  8
YKK_N1
  6
CONTINUOUS
 10
8075.5
 20
8917.010329
 30
0.0
 40
60.0
  1
27
  0
LINE
  5
131
  8
YKK_N1
  6
CONTINUOUS
 10
8301.60254
 20
8855.010329
 30
0.0
 11
8301.60254
 21
8955.010329
 31
0.0
  0
CIRCLE
  5
132
  8
YKK_N1
  6
CONTINUOUS
 10
8215.0
 20
9105.010329
 30
0.0
 40
5.0
  0
LINE
  5
133
  8
YKK_N1
  6
CONTINUOUS
 10
8188.0
 20
8905.010329
 30
0.0
 11
8215.0
 21
8905.010329
 31
0.0
  0
CIRCLE
  5
134
  8
YKK_N1
  6
CONTINUOUS
 10
8188.0
 20
8905.010329
 30
0.0
 40
5.0
  0
LINE
  5
135
  8
YKK_N1
  6
CONTINUOUS
 10
8215.0
 20
8905.010329
 30
0.0
 11
8301.60254
 21
8855.010329
 31
0.0
  0
LINE
  5
136
  8
YKK_N1
  6
CONTINUOUS
 10
8215.0
 20
8905.010329
 30
0.0
 11
8301.60254
 21
8955.010329
 31
0.0
  0
LINE
  5
137
  8
YKK_Z1
 62
     7
 10
8202.499632
 20
9636.007308
 30
0.0
 11
8202.499632
 21
9531.007308
 31
0.0
  0
LINE
  5
138
  8
YKK_Z1
 62
     7
 10
8097.499632
 20
9531.007308
 30
0.0
 11
8097.499632
 21
9636.007308
 31
0.0
  0
LINE
  5
139
  8
YKK_Z1
 10
8202.499632
 20
9531.007308
 30
0.0
 11
8097.499632
 21
9636.007308
 31
0.0
  0
LINE
  5
13A
  8
YKK_Z1
 10
8202.499632
 20
9636.007308
 30
0.0
 11
8097.499632
 21
9531.007308
 31
0.0
  0
LINE
  5
13B
  8
YKK_B1
 10
8234.999615
 20
9593.010354
 30
0.0
 11
8234.999615
 21
9611.810354
 31
0.0
  0
LINE
  5
13C
  8
YKK_B1
  6
CONTINUOUS
 10
8223.999631
 20
9608.010354
 30
0.0
 11
8223.999631
 21
9680.010354
 31
0.0
  0
LINE
  5
13D
  8
YKK_B1
 10
8215.001527
 20
9610.71202
 30
0.0
 11
8215.001527
 21
9608.01202
 31
0.0
  0
LINE
  5
13E
  8
YKK_B1
 10
8215.801527
 20
9608.01202
 30
0.0
 11
8215.801527
 21
9609.91202
 31
0.0
  0
LINE
  5
13F
  8
YKK_B1
 10
8217.209984
 20
9609.91202
 30
0.0
 11
8217.901527
 21
9608.01202
 31
0.0
  0
LINE
  5
140
  8
YKK_B1
 10
8224.499615
 20
9610.410354
 30
0.0
 11
8224.499615
 21
9609.110354
 31
0.0
  0
LINE
  5
141
  8
YKK_B1
 10
8230.001527
 20
9610.41202
 30
0.0
 11
8230.001527
 21
9609.31202
 31
0.0
  0
LINE
  5
142
  8
YKK_B1
 10
8233.501527
 20
9609.31202
 30
0.0
 11
8233.501527
 21
9610.51202
 31
0.0
  0
LINE
  5
143
  8
YKK_Z1
 10
8214.999632
 20
9609.007308
 30
0.0
 11
8214.999632
 21
9636.007308
 31
0.0
  0
LINE
  5
144
  8
YKK_Z1
 10
8202.499632
 20
9609.007308
 30
0.0
 11
8202.499632
 21
9636.007308
 31
0.0
  0
LINE
  5
145
  8
YKK_Z1
  6
CONTINUOUS
 10
8202.498888
 20
9636.010354
 30
0.0
 11
8214.998891
 21
9608.010354
 31
0.0
  0
LINE
  5
146
  8
YKK_Z1
 62
     7
 10
8202.499632
 20
9531.007308
 30
0.0
 11
8097.499632
 21
9531.007308
 31
0.0
  0
LINE
  5
147
  8
YKK_Z1
 62
     7
 10
8014.999632
 20
9518.507308
 30
0.0
 11
8215.000187
 21
9518.507308
 31
0.0
  0
LINE
  5
148
  8
YKK_Z1
 62
     7
 10
8014.999632
 20
9531.007308
 30
0.0
 11
8215.000187
 21
9531.007308
 31
0.0
  0
TEXT
  5
149
  8
YKK_N1
  6
CONTINUOUS
 10
8252.5
 20
9317.010329
 30
0.0
 40
60.0
  1
20
  0
LINE
  5
14A
  8
YKK_B2
 10
8214.998892
 20
9607.010354
 30
0.0
 11
8214.998892
 21
9505.010346
 31
0.0
  0
LINE
  5
14B
  8
YKK_Z1
 10
8202.499632
 20
9531.007308
 30
0.0
 11
8202.499632
 21
9609.007308
 31
0.0
  0
LINE
  5
14C
  8
YKK_Z1
 10
8214.999647
 20
9609.007308
 30
0.0
 11
8214.999647
 21
9531.007308
 31
0.0
  0
LINE
  5
14D
  8
YKK_Z1
  6
CONTINUOUS
 10
8214.998891
 20
9531.010354
 30
0.0
 11
8202.498891
 21
9608.010354
 31
0.0
  0
LINE
  5
14E
  8
YKK_B2
 10
8231.998892
 20
9593.510354
 30
0.0
 11
8231.998892
 21
9605.010354
 31
0.0
  0
LINE
  5
14F
  8
YKK_B2
 10
8234.998898
 20
9575.520222
 30
0.0
 11
8214.998898
 21
9595.520222
 31
0.0
  0
LINE
  5
150
  8
YKK_B2
 10
8234.998892
 20
9507.010346
 30
0.0
 11
8234.998892
 21
9593.010354
 31
0.0
  0
LINE
  5
151
  8
YKK_B2
 10
8234.998898
 20
9530.265389
 30
0.0
 11
8214.998898
 21
9550.265389
 31
0.0
  0
LINE
  5
152
  8
YKK_B2
 10
8234.998898
 20
9507.637972
 30
0.0
 11
8214.998898
 21
9527.637972
 31
0.0
  0
LINE
  5
153
  8
YKK_B2
 10
8214.998892
 20
9505.010346
 30
0.0
 11
8232.998892
 21
9505.010346
 31
0.0
  0
ARC
  5
154
  8
YKK_B2
 10
8232.998892
 20
9507.010346
 30
0.0
 40
2.0
 50
270.0
 51
0.0
  0
LINE
  5
155
  8
YKK_Z1
 10
8214.999647
 20
9531.007308
 30
0.0
 11
8202.499647
 21
9531.007308
 31
0.0
  0
LINE
  5
156
  8
YKK_B1
 10
8232.499615
 20
9593.010354
 30
0.0
 11
8234.999615
 21
9593.010354
 31
0.0
  0
ARC
  5
157
  8
YKK_B2
 10
8232.498892
 20
9593.510354
 30
0.0
 40
0.5
 50
180.0
 51
270.0
  0
LINE
  5
158
  8
YKK_B2
 10
8234.998892
 20
9593.010354
 30
0.0
 11
8232.498892
 21
9593.010354
 31
0.0
  0
LINE
  5
159
  8
YKK_B2
 10
8234.998898
 20
9552.892806
 30
0.0
 11
8214.998898
 21
9572.892806
 31
0.0
  0
CIRCLE
  5
15A
  8
YKK_N1
  6
CONTINUOUS
 10
8235.0
 20
9305.010329
 30
0.0
 40
5.0
  0
CIRCLE
  5
15B
  8
YKK_N1
  6
CONTINUOUS
 10
8215.0
 20
9305.010329
 30
0.0
 40
5.0
  0
LINE
  5
15C
  8
YKK_N1
  6
CONTINUOUS
 10
8215.0
 20
9305.010329
 30
0.0
 11
8235.0
 21
9305.010329
 31
0.0
  0
LINE
  5
15D
  8
YKK_N1
  6
CONTINUOUS
 10
8235.0
 20
9430.010329
 30
0.0
 11
8235.0
 21
9305.010329
 31
0.0
  0
LINE
  5
15E
  8
YKK_B1
 10
8215.001527
 20
9608.01202
 30
0.0
 11
8215.801527
 21
9608.01202
 31
0.0
  0
LINE
  5
15F
  8
YKK_B1
 10
8217.901527
 20
9608.01202
 30
0.0
 11
8226.501527
 21
9608.01202
 31
0.0
  0
LINE
  5
160
  8
YKK_B1
 10
8224.499615
 20
9609.110354
 30
0.0
 11
8228.199615
 21
9609.110354
 31
0.0
  0
LINE
  5
161
  8
YKK_B1
 10
8228.199615
 20
9609.110354
 30
0.0
 11
8228.199615
 21
9608.010354
 31
0.0
  0
LINE
  5
162
  8
YKK_B1
 10
8228.199615
 20
9608.010354
 30
0.0
 11
8234.999615
 21
9608.010354
 31
0.0
  0
LINE
  5
163
  8
YKK_B1
 10
8230.001527
 20
9609.31202
 30
0.0
 11
8233.501527
 21
9609.31202
 31
0.0
  0
LINE
  5
164
  8
YKK_B2
 10
8231.998898
 20
9601.14764
 30
0.0
 11
8226.136184
 21
9607.010354
 31
0.0
  0
LINE
  5
165
  8
YKK_B2
 10
8231.998892
 20
9605.010354
 30
0.0
 11
8229.998892
 21
9607.010354
 31
0.0
  0
LINE
  5
166
  8
YKK_B2
 10
8229.998892
 20
9607.010354
 30
0.0
 11
8214.998892
 21
9607.010354
 31
0.0
  0
LINE
  5
167
  8
YKK_Z1
  6
CONTINUOUS
 10
8202.498891
 20
9608.010354
 30
0.0
 11
8214.998891
 21
9608.010354
 31
0.0
  0
LINE
  5
168
  8
YKK_Z1
  6
CONTINUOUS
 10
8202.498891
 20
9608.010354
 30
0.0
 11
8214.998891
 21
9608.010354
 31
0.0
  0
LINE
  5
169
  8
YKK_Z1
 62
     7
 10
8097.499632
 20
9636.007308
 30
0.0
 11
8202.499632
 21
9636.007308
 31
0.0
  0
LINE
  5
16A
  8
YKK_Z1
 62
     7
 10
8015.198889
 20
9654.007308
 30
0.0
 11
8212.798889
 21
9654.007308
 31
0.0
  0
LINE
  5
16B
  8
YKK_Z1
 62
     7
 10
8015.198889
 20
9666.007308
 30
0.0
 11
8212.798889
 21
9666.007308
 31
0.0
  0
LINE
  5
16C
  8
YKK_Z1
 10
8097.499635
 20
9636.007308
 30
0.0
 11
8014.999632
 21
9636.007308
 31
0.0
  0
LINE
  5
16D
  8
YKK_B1
  6
CONTINUOUS
 10
8250.999764
 20
9619.410354
 30
0.0
 11
8250.999764
 21
9631.010354
 31
0.0
  0
LINE
  5
16E
  8
YKK_B1
 10
8250.999529
 20
9666.510354
 30
0.0
 11
8250.999529
 21
9661.010354
 31
0.0
  0
LINE
  5
16F
  8
YKK_B1
  6
CONTINUOUS
 10
8214.99999
 20
9638.010359
 30
0.0
 11
8214.99999
 21
9636.010354
 31
0.0
  0
LINE
  5
170
  8
YKK_B1
  6
CONTINUOUS
 10
8188.001474
 20
9636.010354
 30
0.0
 11
8188.001474
 21
9638.010359
 31
0.0
  0
LINE
  5
171
  8
YKK_Z1
 10
8167.798889
 20
9654.007308
 30
0.0
 11
8167.798889
 21
9636.007308
 31
0.0
  0
LINE
  5
172
  8
YKK_Z1
 10
8167.798889
 20
9636.007308
 30
0.0
 11
8212.798889
 21
9654.007308
 31
0.0
  0
LINE
  5
173
  8
YKK_B1
 10
8238.999764
 20
9626.881126
 30
0.0
 11
8224.199506
 21
9632.267979
 31
0.0
  0
LINE
  5
174
  8
YKK_B1
 10
8223.999518
 20
9636.110354
 30
0.0
 11
8226.499518
 21
9636.110354
 31
0.0
  0
LINE
  5
175
  8
YKK_Z1
 10
8202.499632
 20
9636.007308
 30
0.0
 11
8214.999632
 21
9636.007308
 31
0.0
  0
LINE
  5
176
  8
YKK_Z1
 10
8167.599632
 20
9636.007308
 30
0.0
 11
8212.599632
 21
9636.007308
 31
0.0
  0
LINE
  5
177
  8
YKK_B1
 10
8226.499518
 20
9636.110354
 30
0.0
 11
8226.499518
 21
9632.679561
 31
0.0
  0
LINE
  5
178
  8
YKK_B1
 10
8224.199506
 20
9632.267979
 30
0.0
 11
8224.199506
 21
9635.082321
 31
0.0
  0
LINE
  5
179
  8
YKK_B1
 10
8215.801527
 20
9609.91202
 30
0.0
 11
8217.209984
 21
9609.91202
 31
0.0
  0
LINE
  5
17A
  8
YKK_B1
 10
8234.999615
 20
9611.810354
 30
0.0
 11
8231.999615
 21
9611.810354
 31
0.0
  0
LINE
  5
17B
  8
YKK_B1
 10
8224.001527
 20
9610.41202
 30
0.0
 11
8230.001527
 21
9610.41202
 31
0.0
  0
LINE
  5
17C
  8
YKK_B1
 10
8238.999764
 20
9619.410354
 30
0.0
 11
8238.999764
 21
9626.881126
 31
0.0
  0
LINE
  5
17D
  8
YKK_B1
  6
CONTINUOUS
 10
8219.999615
 20
9677.010354
 30
0.0
 11
8219.999615
 21
9680.010354
 31
0.0
  0
LINE
  5
17E
  8
YKK_B1
  6
CONTINUOUS
 10
8223.999631
 20
9680.010354
 30
0.0
 11
8219.999615
 21
9680.010354
 31
0.0
  0
LINE
  5
17F
  8
YKK_B2
 10
8224.198888
 20
9662.892578
 30
0.0
 11
8217.313599
 21
9656.007308
 31
0.0
  0
LINE
  5
180
  8
YKK_Z1
 10
8212.798889
 20
9641.007308
 30
0.0
 11
8212.798889
 21
9653.007308
 31
0.0
  0
LINE
  5
181
  8
YKK_Z1
 10
8212.798889
 20
9654.007308
 30
0.0
 11
8212.798889
 21
9638.007308
 31
0.0
  0
LINE
  5
182
  8
YKK_Z1
 62
     7
 10
8212.798889
 20
9654.007308
 30
0.0
 11
8212.798889
 21
9666.007308
 31
0.0
  0
LINE
  5
183
  8
YKK_Z1
 10
8212.798889
 20
9654.007308
 30
0.0
 11
8212.798889
 21
9666.007308
 31
0.0
  0
LINE
  5
184
  8
YKK_B2
 10
8215.999908
 20
9666.007308
 30
0.0
 11
8212.798889
 21
9662.806304
 31
0.0
  0
LINE
  5
185
  8
YKK_B2
 10
8221.656738
 20
9666.007308
 30
0.0
 11
8212.798889
 21
9657.149443
 31
0.0
  0
LINE
  5
186
  8
YKK_B2
 10
8212.798889
 20
9666.007308
 30
0.0
 11
8224.198888
 21
9666.007308
 31
0.0
  0
LINE
  5
187
  8
YKK_B2
 10
8212.798889
 20
9656.007308
 30
0.0
 11
8224.198888
 21
9656.007308
 31
0.0
  0
LINE
  5
188
  8
YKK_B1
  6
CONTINUOUS
 10
8188.001474
 20
9638.010359
 30
0.0
 11
8223.999631
 21
9638.010359
 31
0.0
  0
LINE
  5
189
  8
YKK_Z1
 10
8212.798889
 20
9654.007308
 30
0.0
 11
8167.798889
 21
9654.007308
 31
0.0
  0
LINE
  5
18A
  8
YKK_B1
 10
8241.499529
 20
9661.010361
 30
0.0
 11
8241.499529
 21
9666.510354
 31
0.0
  0
LINE
  5
18B
  8
YKK_B1
  6
CONTINUOUS
 10
8250.999764
 20
9631.010354
 30
0.0
 11
8246.999615
 21
9631.010354
 31
0.0
  0
LINE
  5
18C
  8
YKK_B1
  6
CONTINUOUS
 10
8250.99998
 20
9619.410354
 30
0.0
 11
8223.999615
 21
9619.410354
 31
0.0
  0
LINE
  5
18D
  8
YKK_B1
  6
CONTINUOUS
 10
8223.999631
 20
9666.510354
 30
0.0
 11
8250.999612
 21
9666.510354
 31
0.0
  0
LINE
  5
18E
  8
YKK_N1
  6
CONTINUOUS
 10
8995.0
 20
9430.010329
 30
0.0
 11
8995.0
 21
9105.010329
 31
0.0
  0
LINE
  5
18F
  8
YKK_N1
  6
CONTINUOUS
 10
9005.0
 20
9430.010329
 30
0.0
 11
9005.0
 21
9105.010329
 31
0.0
  0
TEXT
  5
190
  8
YKK_N1
  6
CONTINUOUS
 10
8807.537817
 20
8917.010329
 30
0.0
 40
60.0
  1
W=1570
  0
TEXT
  5
191
  8
YKK_N1
  6
CONTINUOUS
 10
8437.5858
 20
9115.34417
 30
0.0
 40
60.0
  1
W1=780
  0
CIRCLE
  5
192
  8
YKK_N1
  6
CONTINUOUS
 10
9005.0
 20
9105.010329
 30
0.0
 40
5.0
  0
CIRCLE
  5
193
  8
YKK_N1
  6
CONTINUOUS
 10
8995.0
 20
9105.010329
 30
0.0
 40
5.0
  0
TEXT
  5
194
  8
YKK_N1
  6
CONTINUOUS
 10
8880.440281
 20
9317.010329
 30
0.0
 40
60.0
  1
10
  0
LINE
  5
195
  8
YKK_N1
  6
CONTINUOUS
 10
9153.386807
 20
9680.007471
 30
0.0
 11
9153.386807
 21
9608.007471
 31
0.0
  0
CIRCLE
  5
196
  8
YKK_N1
  6
CONTINUOUS
 10
9153.386807
 20
9608.007471
 30
0.0
 40
5.0
  0
LINE
  5
197
  8
YKK_B1
 10
8974.999615
 20
9611.810354
 30
0.0
 11
8974.999841
 21
9591.01036
 31
0.0
  0
LINE
  5
198
  8
YKK_B1
 10
9024.999615
 20
9591.01036
 30
0.0
 11
9024.999841
 21
9611.810354
 31
0.0
  0
LINE
  5
199
  8
YKK_B1
  6
CONTINUOUS
 10
9013.999266
 20
9680.026523
 30
0.0
 11
9013.999266
 21
9609.026485
 31
0.0
  0
LINE
  5
19A
  8
YKK_B1
  6
CONTINUOUS
 10
8985.999615
 20
9609.010316
 30
0.0
 11
8985.999615
 21
9680.010354
 31
0.0
  0
LINE
  5
19B
  8
YKK_B1
  6
CONTINUOUS
 10
9013.999666
 20
9606.310354
 30
0.0
 11
9013.999666
 21
9680.005894
 31
0.0
  0
LINE
  5
19C
  8
YKK_B1
  6
CONTINUOUS
 10
8985.999596
 20
9606.310354
 30
0.0
 11
8985.999596
 21
9680.005894
 31
0.0
  0
LINE
  5
19D
  8
YKK_B1
 10
9004.999615
 20
9610.210354
 30
0.0
 11
9004.199615
 21
9608.824715
 31
0.0
  0
LINE
  5
19E
  8
YKK_B1
 10
8994.999662
 20
9610.210273
 30
0.0
 11
8995.799615
 21
9608.824715
 31
0.0
  0
LINE
  5
19F
  8
YKK_B1
  6
CONTINUOUS
 10
9004.99962
 20
9609.026523
 30
0.0
 11
9004.99962
 21
9613.026523
 31
0.0
  0
LINE
  5
1A0
  8
YKK_B1
  6
CONTINUOUS
 10
9005.000026
 20
9613.005894
 30
0.0
 11
9005.000026
 21
9609.005894
 31
0.0
  0
LINE
  5
1A1
  8
YKK_B1
  6
CONTINUOUS
 10
8994.999256
 20
9613.010354
 30
0.0
 11
8994.999256
 21
9609.010354
 31
0.0
  0
LINE
  5
1A2
  8
YKK_B1
  6
CONTINUOUS
 10
8994.999237
 20
9609.005894
 30
0.0
 11
8994.999237
 21
9613.005894
 31
0.0
  0
LINE
  5
1A3
  8
YKK_B1
 10
8994.999662
 20
9608.010354
 30
0.0
 11
8994.999662
 21
9631.510354
 31
0.0
  0
LINE
  5
1A4
  8
YKK_B1
 10
9004.999662
 20
9608.010354
 30
0.0
 11
9004.999662
 21
9631.510354
 31
0.0
  0
LINE
  5
1A5
  8
YKK_N1
  6
CONTINUOUS
 10
9192.770184
 20
9608.007471
 30
0.0
 11
9153.386807
 21
9608.007471
 31
0.0
  0
LINE
  5
1A6
  8
YKK_B1
 10
8977.499842
 20
9593.010384
 30
0.0
 11
8977.499842
 21
9598.010393
 31
0.0
  0
LINE
  5
1A7
  8
YKK_B1
 10
9022.499841
 20
9593.010354
 30
0.0
 11
9022.499615
 21
9598.010393
 31
0.0
  0
LINE
  5
1A8
  8
YKK_B1
  6
BYBLOCK
 10
8999.999599
 20
9603.01036
 30
0.0
 11
8999.999599
 21
9591.01036
 31
0.0
  0
LINE
  5
1A9
  8
YKK_B1
 10
8974.999841
 20
9591.01036
 30
0.0
 11
9024.999615
 21
9591.01036
 31
0.0
  0
LINE
  5
1AA
  8
YKK_B1
 10
8974.999615
 20
9593.010354
 30
0.0
 11
8977.499842
 21
9593.010384
 31
0.0
  0
LINE
  5
1AB
  8
YKK_B1
 10
9024.999615
 20
9593.01036
 30
0.0
 11
9022.499841
 21
9593.010354
 31
0.0
  0
LINE
  5
1AC
  8
YKK_B1
 10
8978.173043
 20
9603.01036
 30
0.0
 11
9021.826413
 21
9603.01036
 31
0.0
  0
LINE
  5
1AD
  8
YKK_B1
 10
8996.999615
 20
9606.310354
 30
0.0
 11
8985.999596
 21
9606.310354
 31
0.0
  0
LINE
  5
1AE
  8
YKK_B1
 10
8980.482436
 20
9607.01036
 30
0.0
 11
8982.999842
 21
9607.01036
 31
0.0
  0
LINE
  5
1AF
  8
YKK_B1
 10
8977.999842
 20
9602.710365
 30
0.0
 11
8980.482436
 21
9607.01036
 31
0.0
  0
LINE
  5
1B0
  8
YKK_B1
 10
8977.999842
 20
9601.01036
 30
0.0
 11
8977.999842
 21
9602.710365
 31
0.0
  0
LINE
  5
1B1
  8
YKK_B1
 10
8984.999842
 20
9601.01036
 30
0.0
 11
8977.999842
 21
9601.01036
 31
0.0
  0
LINE
  5
1B2
  8
YKK_B1
 10
8984.999842
 20
9598.010393
 30
0.0
 11
8984.999842
 21
9601.01036
 31
0.0
  0
LINE
  5
1B3
  8
YKK_B1
 10
8977.499842
 20
9598.010393
 30
0.0
 11
8984.999842
 21
9598.010393
 31
0.0
  0
LINE
  5
1B4
  8
YKK_B1
 10
9004.999599
 20
9605.41029
 30
0.0
 11
9004.999599
 21
9603.01036
 31
0.0
  0
LINE
  5
1B5
  8
YKK_B1
 10
8994.999599
 20
9605.41029
 30
0.0
 11
8994.999599
 21
9603.01036
 31
0.0
  0
LINE
  5
1B6
  8
YKK_B1
 10
9019.517019
 20
9607.01036
 30
0.0
 11
9016.999615
 21
9607.01036
 31
0.0
  0
LINE
  5
1B7
  8
YKK_B1
 10
9021.999615
 20
9602.710365
 30
0.0
 11
9019.517019
 21
9607.01036
 31
0.0
  0
LINE
  5
1B8
  8
YKK_B1
 10
9021.999615
 20
9601.01036
 30
0.0
 11
9021.999615
 21
9602.710365
 31
0.0
  0
LINE
  5
1B9
  8
YKK_B1
 10
9014.999356
 20
9601.01036
 30
0.0
 11
9021.999615
 21
9601.01036
 31
0.0
  0
LINE
  5
1BA
  8
YKK_B1
 10
9014.999356
 20
9598.010393
 30
0.0
 11
9014.999356
 21
9601.01036
 31
0.0
  0
LINE
  5
1BB
  8
YKK_B1
 10
9022.499615
 20
9598.010393
 30
0.0
 11
9014.999356
 21
9598.010393
 31
0.0
  0
LINE
  5
1BC
  8
YKK_B1
 10
9002.999615
 20
9606.310354
 30
0.0
 11
9013.999666
 21
9606.310354
 31
0.0
  0
LINE
  5
1BD
  8
YKK_B1
 10
9004.199615
 20
9608.824715
 30
0.0
 11
9004.199615
 21
9606.310354
 31
0.0
  0
LINE
  5
1BE
  8
YKK_B1
 10
8995.799615
 20
9608.824715
 30
0.0
 11
8995.799615
 21
9606.310354
 31
0.0
  0
CIRCLE
  5
1BF
  8
YKK_N1
  6
CONTINUOUS
 10
9153.386807
 20
9680.007471
 30
0.0
 40
5.0
  0
TEXT
  5
1C0
  8
YKK_N1
  6
CONTINUOUS
 10
9141.386807
 20
9698.007471
 30
0.0
 40
60.0
  1
72
 50
90.0
  0
LINE
  5
1C1
  8
YKK_B1
 10
9003.499662
 20
9633.010354
 30
0.0
 11
9003.499662
 21
9661.510354
 31
0.0
  0
LINE
  5
1C2
  8
YKK_B1
 10
8996.499662
 20
9633.010354
 30
0.0
 11
8996.499662
 21
9661.510354
 31
0.0
  0
LINE
  5
1C3
  8
YKK_B1
 10
9004.99912
 20
9638.009819
 30
0.0
 11
9004.99912
 21
9636.010272
 31
0.0
  0
LINE
  5
1C4
  8
YKK_B1
 10
8995.000095
 20
9638.009311
 30
0.0
 11
8995.000095
 21
9636.009764
 31
0.0
  0
LINE
  5
1C5
  8
YKK_B1
 10
8977.999615
 20
9611.810354
 30
0.0
 11
8974.999615
 21
9611.810354
 31
0.0
  0
LINE
  5
1C6
  8
YKK_B1
 10
8977.999615
 20
9611.410354
 30
0.0
 11
8977.999615
 21
9611.810354
 31
0.0
  0
LINE
  5
1C7
  8
YKK_B1
 10
8985.999615
 20
9611.410354
 30
0.0
 11
8977.999615
 21
9611.410354
 31
0.0
  0
LINE
  5
1C8
  8
YKK_B1
 10
8985.800096
 20
9632.267173
 30
0.0
 11
8985.800096
 21
9634.972337
 31
0.0
  0
LINE
  5
1C9
  8
YKK_B1
  6
CONTINUOUS
 10
8983.500084
 20
9632.679049
 30
0.0
 11
8983.500084
 21
9636.109842
 31
0.0
  0
LINE
  5
1CA
  8
YKK_B1
 10
8970.999839
 20
9626.880319
 30
0.0
 11
8985.800096
 21
9632.267173
 31
0.0
  0
LINE
  5
1CB
  8
YKK_B1
  6
CONTINUOUS
 10
8958.999231
 20
9631.007173
 30
0.0
 11
8962.999615
 21
9631.007173
 31
0.0
  0
LINE
  5
1CC
  8
YKK_B1
 10
8983.500084
 20
9636.109842
 30
0.0
 11
8985.999596
 21
9636.109842
 31
0.0
  0
LINE
  5
1CD
  8
YKK_B1
  6
CONTINUOUS
 10
8958.999839
 20
9619.409547
 30
0.0
 11
8986.000204
 21
9619.409547
 31
0.0
  0
LINE
  5
1CE
  8
YKK_B1
 10
8970.999839
 20
9619.409547
 30
0.0
 11
8970.999839
 21
9626.880319
 31
0.0
  0
LINE
  5
1CF
  8
YKK_B1
  6
CONTINUOUS
 10
8958.999231
 20
9619.409547
 30
0.0
 11
8958.999231
 21
9631.007173
 31
0.0
  0
LINE
  5
1D0
  8
YKK_B1
 10
9021.999841
 20
9611.410354
 30
0.0
 11
9013.999841
 21
9611.410354
 31
0.0
  0
LINE
  5
1D1
  8
YKK_B1
 10
9021.999841
 20
9611.810354
 30
0.0
 11
9021.999841
 21
9611.410354
 31
0.0
  0
LINE
  5
1D2
  8
YKK_B1
 10
9024.999841
 20
9611.810354
 30
0.0
 11
9021.999841
 21
9611.810354
 31
0.0
  0
LINE
  5
1D3
  8
YKK_B1
 10
8994.999662
 20
9612.010354
 30
0.0
 11
9004.999615
 21
9612.010354
 31
0.0
  0
LINE
  5
1D4
  8
YKK_B1
 10
9028.999376
 20
9626.881121
 30
0.0
 11
9014.199119
 21
9632.267974
 31
0.0
  0
LINE
  5
1D5
  8
YKK_B1
 10
9014.199119
 20
9632.267974
 30
0.0
 11
9014.199119
 21
9634.990139
 31
0.0
  0
LINE
  5
1D6
  8
YKK_B1
 10
9016.499131
 20
9636.110349
 30
0.0
 11
9016.499131
 21
9632.577276
 31
0.0
  0
LINE
  5
1D7
  8
YKK_B1
 10
9004.999662
 20
9631.510354
 30
0.0
 11
9003.499662
 21
9633.010354
 31
0.0
  0
LINE
  5
1D8
  8
YKK_B1
 10
8994.999662
 20
9631.510354
 30
0.0
 11
8996.499662
 21
9633.010354
 31
0.0
  0
LINE
  5
1D9
  8
YKK_B1
 10
9013.999131
 20
9636.110349
 30
0.0
 11
9016.499131
 21
9636.110349
 31
0.0
  0
LINE
  5
1DA
  8
YKK_B1
  6
CONTINUOUS
 10
9041.000032
 20
9631.027349
 30
0.0
 11
9036.99984
 21
9631.027349
 31
0.0
  0
LINE
  5
1DB
  8
YKK_B1
  6
CONTINUOUS
 10
9041.000032
 20
9619.427349
 30
0.0
 11
9013.999666
 21
9619.427349
 31
0.0
  0
LINE
  5
1DC
  8
YKK_B1
 10
9028.999376
 20
9619.427349
 30
0.0
 11
9028.999376
 21
9626.881121
 31
0.0
  0
LINE
  5
1DD
  8
YKK_B1
  6
CONTINUOUS
 10
9041.000032
 20
9619.427349
 30
0.0
 11
9041.000032
 21
9631.027349
 31
0.0
  0
LINE
  5
1DE
  8
YKK_B1
  6
CONTINUOUS
 10
8985.999596
 20
9638.009311
 30
0.0
 11
8995.000095
 21
9638.009311
 31
0.0
  0
LINE
  5
1DF
  8
YKK_B1
  6
CONTINUOUS
 10
8985.999615
 20
9680.010354
 30
0.0
 11
8989.999631
 21
9680.010354
 31
0.0
  0
LINE
  5
1E0
  8
YKK_B1
  6
CONTINUOUS
 10
8985.999596
 20
9680.005894
 30
0.0
 11
8989.999612
 21
9680.005894
 31
0.0
  0
LINE
  5
1E1
  8
YKK_B1
 10
8965.999615
 20
9661.010354
 30
0.0
 11
8968.499615
 21
9661.010354
 31
0.0
  0
LINE
  5
1E2
  8
YKK_B1
 10
8958.999615
 20
9661.010354
 30
0.0
 11
8961.999615
 21
9661.010354
 31
0.0
  0
LINE
  5
1E3
  8
YKK_B1
 10
8968.499615
 20
9661.010354
 30
0.0
 11
8968.499615
 21
9666.510347
 31
0.0
  0
LINE
  5
1E4
  8
YKK_B1
 10
8958.999615
 20
9661.010354
 30
0.0
 11
8958.999615
 21
9666.510354
 31
0.0
  0
LINE
  5
1E5
  8
YKK_B1
  6
CONTINUOUS
 10
8985.999596
 20
9666.510354
 30
0.0
 11
8958.999615
 21
9666.510354
 31
0.0
  0
LINE
  5
1E6
  8
YKK_B1
 10
9037.999841
 20
9661.010354
 30
0.0
 11
9040.999841
 21
9661.010354
 31
0.0
  0
LINE
  5
1E7
  8
YKK_B1
 10
9031.499841
 20
9661.010354
 30
0.0
 11
9033.999841
 21
9661.010354
 31
0.0
  0
LINE
  5
1E8
  8
YKK_B1
  6
CONTINUOUS
 10
9013.999841
 20
9666.510354
 30
0.0
 11
9040.999666
 21
9666.510354
 31
0.0
  0
LINE
  5
1E9
  8
YKK_B1
 10
8989.999662
 20
9680.010354
 30
0.0
 11
9009.999245
 21
9680.010354
 31
0.0
  0
LINE
  5
1EA
  8
YKK_B1
 10
8991.499662
 20
9680.010354
 30
0.0
 11
8991.499662
 21
9676.010354
 31
0.0
  0
LINE
  5
1EB
  8
YKK_B1
  6
CONTINUOUS
 10
8989.999631
 20
9677.410546
 30
0.0
 11
8989.999631
 21
9680.010354
 31
0.0
  0
LINE
  5
1EC
  8
YKK_B1
 10
8991.499662
 20
9676.010354
 30
0.0
 11
8987.999662
 21
9676.010354
 31
0.0
  0
LINE
  5
1ED
  8
YKK_B1
  6
CONTINUOUS
 10
8989.999612
 20
9677.406086
 30
0.0
 11
8989.999612
 21
9680.005894
 31
0.0
  0
LINE
  5
1EE
  8
YKK_B1
  6
CONTINUOUS
 10
9013.999666
 20
9638.009819
 30
0.0
 11
9004.99912
 21
9638.009819
 31
0.0
  0
LINE
  5
1EF
  8
YKK_B1
 10
9003.499662
 20
9661.510354
 30
0.0
 11
9003.499662
 21
9680.010406
 31
0.0
  0
LINE
  5
1F0
  8
YKK_B1
 10
8996.499662
 20
9661.510354
 30
0.0
 11
9003.499662
 21
9661.510354
 31
0.0
  0
LINE
  5
1F1
  8
YKK_B1
 10
9008.49966
 20
9680.010354
 30
0.0
 11
9008.49966
 21
9676.010354
 31
0.0
  0
LINE
  5
1F2
  8
YKK_B1
  6
CONTINUOUS
 10
9009.999245
 20
9677.426715
 30
0.0
 11
9009.999245
 21
9680.026523
 31
0.0
  0
LINE
  5
1F3
  8
YKK_B1
  6
CONTINUOUS
 10
9009.999651
 20
9677.406086
 30
0.0
 11
9009.999651
 21
9680.005894
 31
0.0
  0
LINE
  5
1F4
  8
YKK_B1
 10
9008.49966
 20
9676.010354
 30
0.0
 11
9011.99966
 21
9676.010354
 31
0.0
  0
LINE
  5
1F5
  8
YKK_B1
  6
CONTINUOUS
 10
9013.999266
 20
9680.026523
 30
0.0
 11
9009.999245
 21
9680.026523
 31
0.0
  0
LINE
  5
1F6
  8
YKK_B1
  6
CONTINUOUS
 10
9013.999666
 20
9680.005894
 30
0.0
 11
9009.999651
 21
9680.005894
 31
0.0
  0
LINE
  5
1F7
  8
YKK_B1
 10
9040.999841
 20
9661.010354
 30
0.0
 11
9040.999841
 21
9666.510354
 31
0.0
  0
LINE
  5
1F8
  8
YKK_B1
 10
9031.499841
 20
9661.010354
 30
0.0
 11
9031.499841
 21
9666.510347
 31
0.0
  0
LINE
  5
1F9
  8
YKK_N1
  6
CONTINUOUS
 10
9785.0
 20
9430.010329
 30
0.0
 11
9785.0
 21
8905.010329
 31
0.0
  0
LINE
  5
1FA
  8
YKK_N1
  6
CONTINUOUS
 10
9812.0
 20
9430.010329
 30
0.0
 11
9812.0
 21
8905.010329
 31
0.0
  0
LINE
  5
1FB
  8
YKK_N1
  6
CONTINUOUS
 10
9785.0
 20
8905.010329
 30
0.0
 11
9698.39746
 21
8855.010329
 31
0.0
  0
LINE
  5
1FC
  8
YKK_N1
  6
CONTINUOUS
 10
9785.0
 20
8905.010329
 30
0.0
 11
9698.39746
 21
8955.010329
 31
0.0
  0
LINE
  5
1FD
  8
YKK_N1
  6
CONTINUOUS
 10
9698.39746
 20
8955.010329
 30
0.0
 11
9698.39746
 21
8855.010329
 31
0.0
  0
CIRCLE
  5
1FE
  8
YKK_N1
  6
CONTINUOUS
 10
9784.999969
 20
9105.010329
 30
0.0
 40
5.0
  0
CIRCLE
  5
1FF
  8
YKK_N1
  6
CONTINUOUS
 10
9812.0
 20
8905.010329
 30
0.0
 40
5.0
  0
LINE
  5
200
  8
YKK_N1
  6
CONTINUOUS
 10
9785.0
 20
8905.010329
 30
0.0
 11
9812.0
 21
8905.010329
 31
0.0
  0
TEXT
  5
201
  8
YKK_N1
  6
CONTINUOUS
 10
9824.5
 20
8917.010329
 30
0.0
 40
60.0
  1
27
  0
LINE
  5
202
  8
YKK_Z1
 62
     7
 10
9902.499632
 20
9531.007308
 30
0.0
 11
9902.499632
 21
9636.007308
 31
0.0
  0
LINE
  5
203
  8
YKK_Z1
 62
     7
 10
9797.499632
 20
9636.007308
 30
0.0
 11
9797.499632
 21
9531.007308
 31
0.0
  0
LINE
  5
204
  8
YKK_B1
 10
9765.000385
 20
9593.010354
 30
0.0
 11
9765.000385
 21
9611.810354
 31
0.0
  0
LINE
  5
205
  8
YKK_Z1
 10
9797.499632
 20
9636.007308
 30
0.0
 11
9902.499632
 21
9531.007308
 31
0.0
  0
LINE
  5
206
  8
YKK_Z1
 10
9797.499632
 20
9531.007308
 30
0.0
 11
9902.499632
 21
9636.007308
 31
0.0
  0
LINE
  5
207
  8
YKK_B1
  6
CONTINUOUS
 10
9776.000369
 20
9608.010354
 30
0.0
 11
9776.000369
 21
9680.010354
 31
0.0
  0
LINE
  5
208
  8
YKK_B1
 10
9782.790016
 20
9609.91202
 30
0.0
 11
9782.098473
 21
9608.01202
 31
0.0
  0
LINE
  5
209
  8
YKK_B1
 10
9775.500385
 20
9610.410354
 30
0.0
 11
9775.500385
 21
9609.110354
 31
0.0
  0
LINE
  5
20A
  8
YKK_B1
 10
9769.998473
 20
9610.41202
 30
0.0
 11
9769.998473
 21
9609.31202
 31
0.0
  0
LINE
  5
20B
  8
YKK_B1
 10
9784.998473
 20
9610.71202
 30
0.0
 11
9784.998473
 21
9608.01202
 31
0.0
  0
LINE
  5
20C
  8
YKK_B1
 10
9784.198473
 20
9608.01202
 30
0.0
 11
9784.198473
 21
9609.91202
 31
0.0
  0
LINE
  5
20D
  8
YKK_B1
 10
9766.498473
 20
9609.31202
 30
0.0
 11
9766.498473
 21
9610.51202
 31
0.0
  0
LINE
  5
20E
  8
YKK_Z1
 10
9797.499632
 20
9609.007308
 30
0.0
 11
9797.499632
 21
9636.007308
 31
0.0
  0
LINE
  5
20F
  8
YKK_Z1
 10
9784.999632
 20
9609.007308
 30
0.0
 11
9784.999632
 21
9636.007308
 31
0.0
  0
LINE
  5
210
  8
YKK_Z1
  6
CONTINUOUS
 10
9797.499616
 20
9636.010354
 30
0.0
 11
9784.999613
 21
9608.010354
 31
0.0
  0
TEXT
  5
211
  8
YKK_N1
  6
CONTINUOUS
 10
9657.5
 20
9317.010329
 30
0.0
 40
60.0
  1
20
  0
LINE
  5
212
  8
YKK_B2
 10
9784.998892
 20
9607.010336
 30
0.0
 11
9784.998892
 21
9505.010329
 31
0.0
  0
LINE
  5
213
  8
YKK_Z1
 10
9797.499632
 20
9531.007308
 30
0.0
 11
9797.499632
 21
9609.007308
 31
0.0
  0
LINE
  5
214
  8
YKK_Z1
 10
9784.999616
 20
9609.007308
 30
0.0
 11
9784.999616
 21
9531.007308
 31
0.0
  0
LINE
  5
215
  8
YKK_Z1
  6
CONTINUOUS
 10
9784.999613
 20
9531.010354
 30
0.0
 11
9797.499613
 21
9608.010354
 31
0.0
  0
LINE
  5
216
  8
YKK_B2
 10
9767.998892
 20
9593.510336
 30
0.0
 11
9767.998892
 21
9605.010336
 31
0.0
  0
LINE
  5
217
  8
YKK_B2
 10
9764.998892
 20
9575.520236
 30
0.0
 11
9784.998892
 21
9595.520236
 31
0.0
  0
LINE
  5
218
  8
YKK_B2
 10
9764.998892
 20
9507.010329
 30
0.0
 11
9764.998892
 21
9593.010336
 31
0.0
  0
LINE
  5
219
  8
YKK_B2
 10
9764.998892
 20
9530.265402
 30
0.0
 11
9784.998892
 21
9550.265402
 31
0.0
  0
LINE
  5
21A
  8
YKK_B2
 10
9764.998892
 20
9507.637985
 30
0.0
 11
9784.998892
 21
9527.637985
 31
0.0
  0
ARC
  5
21B
  8
YKK_B2
 10
9766.998892
 20
9507.010329
 30
0.0
 40
2.0
 50
180.0
 51
270.0
  0
LINE
  5
21C
  8
YKK_B2
 10
9784.998892
 20
9505.010329
 30
0.0
 11
9766.998892
 21
9505.010329
 31
0.0
  0
LINE
  5
21D
  8
YKK_Z1
 10
9784.999616
 20
9531.007308
 30
0.0
 11
9797.499616
 21
9531.007308
 31
0.0
  0
LINE
  5
21E
  8
YKK_B1
 10
9767.500385
 20
9593.010354
 30
0.0
 11
9765.000385
 21
9593.010354
 31
0.0
  0
LINE
  5
21F
  8
YKK_B2
 10
9764.998892
 20
9593.010336
 30
0.0
 11
9767.498892
 21
9593.010336
 31
0.0
  0
LINE
  5
220
  8
YKK_B2
 10
9764.998892
 20
9592.490798
 30
0.0
 11
9765.518661
 21
9593.010568
 31
0.0
  0
ARC
  5
221
  8
YKK_B2
 10
9767.498892
 20
9593.510336
 30
0.0
 40
0.5
 50
270.0
 51
0.0
  0
LINE
  5
222
  8
YKK_B2
 10
9764.998892
 20
9552.892819
 30
0.0
 11
9784.998892
 21
9572.892819
 31
0.0
  0
CIRCLE
  5
223
  8
YKK_N1
  6
CONTINUOUS
 10
9785.0
 20
9305.010329
 30
0.0
 40
5.0
  0
LINE
  5
224
  8
YKK_N1
  6
CONTINUOUS
 10
9765.0
 20
9305.010329
 30
0.0
 11
9785.0
 21
9305.010329
 31
0.0
  0
CIRCLE
  5
225
  8
YKK_N1
  6
CONTINUOUS
 10
9765.0
 20
9305.010329
 30
0.0
 40
5.0
  0
LINE
  5
226
  8
YKK_N1
  6
CONTINUOUS
 10
9765.0
 20
9430.010329
 30
0.0
 11
9765.0
 21
9305.010329
 31
0.0
  0
LINE
  5
227
  8
YKK_B2
 10
9769.998892
 20
9607.010336
 30
0.0
 11
9784.998892
 21
9607.010336
 31
0.0
  0
LINE
  5
228
  8
YKK_B1
 10
9782.098473
 20
9608.01202
 30
0.0
 11
9773.498473
 21
9608.01202
 31
0.0
  0
LINE
  5
229
  8
YKK_B1
 10
9775.500385
 20
9609.110354
 30
0.0
 11
9771.800385
 21
9609.110354
 31
0.0
  0
LINE
  5
22A
  8
YKK_B1
 10
9771.800385
 20
9609.110354
 30
0.0
 11
9771.800385
 21
9608.010354
 31
0.0
  0
LINE
  5
22B
  8
YKK_B2
 10
9767.998892
 20
9605.010336
 30
0.0
 11
9769.998892
 21
9607.010336
 31
0.0
  0
LINE
  5
22C
  8
YKK_B2
 10
9767.998892
 20
9601.147653
 30
0.0
 11
9773.861575
 21
9607.010336
 31
0.0
  0
LINE
  5
22D
  8
YKK_B1
 10
9784.998473
 20
9608.01202
 30
0.0
 11
9784.198473
 21
9608.01202
 31
0.0
  0
LINE
  5
22E
  8
YKK_Z1
  6
CONTINUOUS
 10
9797.499613
 20
9608.010354
 30
0.0
 11
9784.999613
 21
9608.010354
 31
0.0
  0
LINE
  5
22F
  8
YKK_Z1
  6
CONTINUOUS
 10
9797.499613
 20
9608.010354
 30
0.0
 11
9784.999613
 21
9608.010354
 31
0.0
  0
LINE
  5
230
  8
YKK_B1
 10
9771.800385
 20
9608.010354
 30
0.0
 11
9765.000385
 21
9608.010354
 31
0.0
  0
LINE
  5
231
  8
YKK_B1
 10
9769.998473
 20
9609.31202
 30
0.0
 11
9766.498473
 21
9609.31202
 31
0.0
  0
LINE
  5
232
  8
YKK_Z1
 62
     7
 10
9797.499632
 20
9531.007308
 30
0.0
 11
9902.499632
 21
9531.007308
 31
0.0
  0
LINE
  5
233
  8
YKK_Z1
 62
     7
 10
9985.199612
 20
9518.507308
 30
0.0
 11
9784.999632
 21
9518.507308
 31
0.0
  0
LINE
  5
234
  8
YKK_Z1
 62
     7
 10
9985.199612
 20
9531.007308
 30
0.0
 11
9784.999632
 21
9531.007308
 31
0.0
  0
LINE
  5
235
  8
YKK_Z1
 10
9902.499628
 20
9636.007308
 30
0.0
 11
9985.199612
 21
9636.007308
 31
0.0
  0
LINE
  5
236
  8
YKK_B1
  6
CONTINUOUS
 10
9785.00001
 20
9638.010359
 30
0.0
 11
9785.00001
 21
9636.010354
 31
0.0
  0
LINE
  5
237
  8
YKK_B1
  6
CONTINUOUS
 10
9811.998526
 20
9636.010354
 30
0.0
 11
9811.998526
 21
9638.010359
 31
0.0
  0
LINE
  5
238
  8
YKK_B1
 10
9776.000482
 20
9636.110354
 30
0.0
 11
9773.500482
 21
9636.110354
 31
0.0
  0
LINE
  5
239
  8
YKK_B1
 10
9773.500482
 20
9636.110354
 30
0.0
 11
9773.500482
 21
9632.679561
 31
0.0
  0
LINE
  5
23A
  8
YKK_B1
 10
9775.800494
 20
9632.267979
 30
0.0
 11
9775.800494
 21
9635.082321
 31
0.0
  0
LINE
  5
23B
  8
YKK_Z1
 10
9797.499632
 20
9636.007308
 30
0.0
 11
9784.999632
 21
9636.007308
 31
0.0
  0
LINE
  5
23C
  8
YKK_Z1
 10
9832.399632
 20
9636.007308
 30
0.0
 11
9787.399632
 21
9636.007308
 31
0.0
  0
LINE
  5
23D
  8
YKK_B1
  6
CONTINUOUS
 10
9749.000236
 20
9631.010354
 30
0.0
 11
9753.000385
 21
9631.010354
 31
0.0
  0
LINE
  5
23E
  8
YKK_B1
 10
9761.000236
 20
9626.881126
 30
0.0
 11
9775.800494
 21
9632.267979
 31
0.0
  0
LINE
  5
23F
  8
YKK_B1
 10
9784.198473
 20
9609.91202
 30
0.0
 11
9782.790016
 21
9609.91202
 31
0.0
  0
LINE
  5
240
  8
YKK_B1
 10
9775.998473
 20
9610.41202
 30
0.0
 11
9769.998473
 21
9610.41202
 31
0.0
  0
LINE
  5
241
  8
YKK_B1
  6
CONTINUOUS
 10
9749.00002
 20
9619.410354
 30
0.0
 11
9776.000385
 21
9619.410354
 31
0.0
  0
LINE
  5
242
  8
YKK_B1
 10
9765.000385
 20
9611.810354
 30
0.0
 11
9768.000385
 21
9611.810354
 31
0.0
  0
LINE
  5
243
  8
YKK_B1
  6
CONTINUOUS
 10
9749.000236
 20
9619.410354
 30
0.0
 11
9749.000236
 21
9631.010354
 31
0.0
  0
LINE
  5
244
  8
YKK_B1
 10
9761.000236
 20
9619.410354
 30
0.0
 11
9761.000236
 21
9626.881126
 31
0.0
  0
LINE
  5
245
  8
YKK_B1
  6
CONTINUOUS
 10
9811.998526
 20
9638.010359
 30
0.0
 11
9776.000369
 21
9638.010359
 31
0.0
  0
LINE
  5
246
  8
YKK_B2
 10
9778.887554
 20
9656.007308
 30
0.0
 11
9787.201259
 21
9664.321013
 31
0.0
  0
LINE
  5
247
  8
YKK_B2
 10
9787.201259
 20
9666.007308
 30
0.0
 11
9775.801874
 21
9666.007308
 31
0.0
  0
LINE
  5
248
  8
YKK_B2
 10
9787.201259
 20
9656.007308
 30
0.0
 11
9775.801874
 21
9656.007308
 31
0.0
  0
LINE
  5
249
  8
YKK_B1
  6
CONTINUOUS
 10
9776.000369
 20
9680.010354
 30
0.0
 11
9780.000385
 21
9680.010354
 31
0.0
  0
LINE
  5
24A
  8
YKK_B1
  6
CONTINUOUS
 10
9780.000385
 20
9677.010354
 30
0.0
 11
9780.000385
 21
9680.010354
 31
0.0
  0
LINE
  5
24B
  8
YKK_B2
 10
9775.801874
 20
9664.235334
 30
0.0
 11
9777.573848
 21
9666.007308
 31
0.0
  0
LINE
  5
24C
  8
YKK_B2
 10
9775.801874
 20
9658.578492
 30
0.0
 11
9783.230709
 21
9666.007308
 31
0.0
  0
LINE
  5
24D
  8
YKK_Z1
 10
9787.201259
 20
9654.007308
 30
0.0
 11
9787.201259
 21
9638.007308
 31
0.0
  0
LINE
  5
24E
  8
YKK_Z1
 10
9787.201259
 20
9641.007308
 30
0.0
 11
9787.201259
 21
9653.007308
 31
0.0
  0
LINE
  5
24F
  8
YKK_B2
 10
9784.526699
 20
9655.989608
 30
0.0
 11
9787.201259
 21
9658.664168
 31
0.0
  0
LINE
  5
250
  8
YKK_Z1
 10
9787.201259
 20
9653.007308
 30
0.0
 11
9787.201259
 21
9666.007308
 31
0.0
  0
LINE
  5
251
  8
YKK_Z1
 62
     7
 10
9787.201259
 20
9654.007308
 30
0.0
 11
9787.201259
 21
9666.007308
 31
0.0
  0
LINE
  5
252
  8
YKK_Z1
 10
9787.201259
 20
9654.007308
 30
0.0
 11
9832.201259
 21
9654.007308
 31
0.0
  0
LINE
  5
253
  8
YKK_Z1
  6
CONTINUOUS
 10
9832.201259
 20
9654.010354
 30
0.0
 11
9832.201259
 21
9638.010351
 31
0.0
  0
LINE
  5
254
  8
YKK_Z1
  6
CONTINUOUS
 10
9799.688797
 20
9640.015369
 30
0.0
 11
9832.201259
 21
9654.010354
 31
0.0
  0
LINE
  5
255
  8
YKK_B1
 10
9749.000471
 20
9666.510354
 30
0.0
 11
9749.000471
 21
9661.010354
 31
0.0
  0
LINE
  5
256
  8
YKK_B1
 10
9758.500471
 20
9661.010361
 30
0.0
 11
9758.500471
 21
9666.510354
 31
0.0
  0
LINE
  5
257
  8
YKK_B1
  6
CONTINUOUS
 10
9776.000369
 20
9666.510354
 30
0.0
 11
9749.000388
 21
9666.510354
 31
0.0
  0
LINE
  5
258
  8
YKK_Z1
 62
     7
 10
9902.499632
 20
9636.007308
 30
0.0
 11
9797.499632
 21
9636.007308
 31
0.0
  0
LINE
  5
259
  8
YKK_Z1
 62
     7
 10
9985.00124
 20
9654.007308
 30
0.0
 11
9787.201259
 21
9654.007308
 31
0.0
  0
LINE
  5
25A
  8
YKK_Z1
 62
     7
 10
9985.00124
 20
9666.007308
 30
0.0
 11
9787.201259
 21
9666.007308
 31
0.0
  0
TEXT
  5
25B
  8
YKK_N1
  6
CONTINUOUS
 10
10257.199612
 20
9571.510342
 30
0.0
 40
60.0
  1
28
 50
90.0
  0
CIRCLE
  5
25C
  8
YKK_N1
  6
CONTINUOUS
 10
10185.199612
 20
9608.010342
 30
0.0
 40
5.0
  0
LINE
  5
25D
  8
YKK_N1
  6
CONTINUOUS
 10
10185.199612
 20
9636.010342
 30
0.0
 11
10185.199612
 21
9608.010342
 31
0.0
  0
LINE
  5
25E
  8
YKK_N1
  6
CONTINUOUS
 10
10185.199612
 20
9608.010342
 30
0.0
 11
10185.199612
 21
9593.010342
 31
0.0
  0
CIRCLE
  5
25F
  8
YKK_N1
  6
CONTINUOUS
 10
10185.199612
 20
9593.010342
 30
0.0
 40
5.0
  0
TEXT
  5
260
  8
YKK_N1
  6
CONTINUOUS
 10
10173.199612
 20
9487.010342
 30
0.0
 40
60.0
  1
15
 50
90.0
  0
LINE
  5
261
  8
YKK_N1
  6
CONTINUOUS
 10
10060.199612
 20
9593.010342
 30
0.0
 11
10185.199612
 21
9593.010342
 31
0.0
  0
LINE
  5
262
  8
YKK_N1
  6
CONTINUOUS
 10
10060.199612
 20
9608.010342
 30
0.0
 11
10185.199612
 21
9608.010342
 31
0.0
  0
LINE
  5
263
  8
YKK_N1
  6
CONTINUOUS
 10
10185.199612
 20
9680.010342
 30
0.0
 11
10185.199612
 21
9636.010342
 31
0.0
  0
CIRCLE
  5
264
  8
YKK_N1
  6
CONTINUOUS
 10
10185.199612
 20
9636.010342
 30
0.0
 40
5.0
  0
CIRCLE
  5
265
  8
YKK_N1
  6
CONTINUOUS
 10
10185.199612
 20
9680.010342
 30
0.0
 40
5.0
  0
LINE
  5
266
  8
YKK_N1
  6
CONTINUOUS
 10
10060.199612
 20
9636.010342
 30
0.0
 11
10185.199612
 21
9636.010342
 31
0.0
  0
TEXT
  5
267
  8
YKK_N1
  6
CONTINUOUS
 10
10173.199612
 20
9688.010342
 30
0.0
 40
60.0
  1
44
 50
90.0
  0
LINE
  5
268
  8
YKK_N1
  6
CONTINUOUS
 10
10060.199612
 20
9680.010342
 30
0.0
 11
10185.199612
 21
9680.010342
 31
0.0
  0
LINE
  5
269
  8
YKK_F1
 62
     7
 10
0.0
 20
14700.0
 30
0.0
 11
13500.0
 21
14700.0
 31
0.0
  0
LINE
  5
26A
  8
YKK_F1
 62
     7
 10
0.0
 20
15150.0
 30
0.0
 11
13500.0
 21
15150.0
 31
0.0
  0
LINE
  5
26B
  8
YKK_F1
 62
     7
 10
0.0
 20
15600.0
 30
0.0
 11
13500.0
 21
15600.0
 31
0.0
  0
TEXT
  5
26C
  8
0
 10
500.0
 20
19625.0
 30
0.0
 40
250.0
  1
ＮＸＦＭ＿５６　フレミングＪ　台形ＦＩＸ窓　【新寸法体系サッシ（在来用）】
  7
EXTFONT
  0
TEXT
  5
26D
  8
0
 10
4600.0
 20
15287.5
 30
0.0
 40
175.0
  1
ホームベース型（6寸勾配）
  7
EXTFONT
  0
TEXT
  5
26E
  8
0
 10
4600.0
 20
19187.5
 30
0.0
 40
175.0
  1
ホームベース型（5寸勾配）
  7
EXTFONT
  0
TEXT
  5
26F
  8
0
 10
4600.0
 20
14837.5
 30
0.0
 40
175.0
  1
W=1,570 H=1,170
  7
EXTFONT
  0
TEXT
  5
270
  8
0
 10
4600.0
 20
18737.5
 30
0.0
 40
175.0
  1
W=1,570 H=1,170
  7
EXTFONT
  0
LINE
  5
271
  8
YKK_N1
  6
CONTINUOUS
 10
1767.068727
 20
16283.0
 30
0.0
 11
1680.46616
 21
16232.999984
 31
0.0
  0
LINE
  5
272
  8
YKK_N1
  6
CONTINUOUS
 10
1680.466187
 20
16333.000001
 30
0.0
 11
1680.466187
 21
16233.000001
 31
0.0
  0
LINE
  5
273
  8
YKK_N1
  6
CONTINUOUS
 10
1073.671238
 20
16332.999993
 30
0.0
 11
1073.671238
 21
16232.999993
 31
0.0
  0
LINE
  5
274
  8
YKK_N1
  6
CONTINUOUS
 10
987.068712
 20
16283.0
 30
0.0
 11
1073.671249
 21
16233.000001
 31
0.0
  0
LINE
  5
275
  8
YKK_N1
  6
CONTINUOUS
 10
2664.249797
 20
16283.000015
 30
0.0
 11
2750.852334
 21
16233.000016
 31
0.0
  0
LINE
  5
276
  8
YKK_N1
  6
CONTINUOUS
 10
2750.852323
 20
16333.000008
 30
0.0
 11
2750.852323
 21
16233.000008
 31
0.0
  0
LINE
  5
277
  8
YKK_N1
  6
CONTINUOUS
 10
3444.249812
 20
16283.000015
 30
0.0
 11
3357.647245
 21
16232.999999
 31
0.0
  0
LINE
  5
278
  8
YKK_N1
  6
CONTINUOUS
 10
3357.647272
 20
16333.000016
 30
0.0
 11
3357.647272
 21
16233.000016
 31
0.0
  0
TEXT
  5
279
  8
0
 10
100.0
 20
11387.5
 30
0.0
 40
175.0
  1
NXF-074**-M-P5(6)R(L)
  7
EXTFONT
  0
TEXT
  5
27A
  8
0
 10
100.0
 20
15287.5
 30
0.0
 40
175.0
  1
NXF-07411-M-P6R(L)
  7
EXTFONT
  0
TEXT
  5
27B
  8
0
 10
100.0
 20
10937.5
 30
0.0
 40
175.0
  1
W=780
  7
EXTFONT
  0
TEXT
  5
27C
  8
0
 10
100.0
 20
14837.5
 30
0.0
 40
175.0
  1
W=780 H=1,170
  7
EXTFONT
  0
TEXT
  5
27D
  8
YKK_N1
 10
1950.069093
 20
13036.499985
 30
0.0
 40
60.0
  1
H=1170
 50
90.0
  0
LINE
  5
27E
  8
YKK_N1
  6
CONTINUOUS
 10
1962.069093
 20
13769.999985
 30
0.0
 11
1962.069093
 21
12599.999985
 31
0.0
  0
LINE
  5
27F
  8
YKK_A1
  6
CONTINUOUS
 10
1023.068696
 20
13697.707802
 30
0.0
 11
1023.068696
 21
12635.999985
 31
0.0
  0
LINE
  5
280
  8
YKK_A1
  6
CONTINUOUS
 10
992.068315
 20
13770.001013
 30
0.0
 11
992.068315
 21
12582.999985
 31
0.0
  0
LINE
  5
281
  8
YKK_A1
  6
CONTINUOUS
 10
996.06833
 20
13767.597561
 30
0.0
 11
996.06833
 21
12582.999985
 31
0.0
  0
LINE
  5
282
  8
YKK_A1
  6
CONTINUOUS
 10
1731.068696
 20
13272.298483
 30
0.0
 11
1731.068696
 21
12635.999985
 31
0.0
  0
LINE
  5
283
  8
YKK_A1
  6
CONTINUOUS
 10
1758.069032
 20
13309.741348
 30
0.0
 11
1758.069032
 21
12582.999985
 31
0.0
  0
LINE
  5
284
  8
YKK_A1
  6
CONTINUOUS
 10
1762.069093
 20
13307.337869
 30
0.0
 11
1762.069093
 21
12582.999985
 31
0.0
  0
LINE
  5
285
  8
YKK_A1
  6
CONTINUOUS
 10
3435.250193
 20
13767.597577
 30
0.0
 11
3435.250193
 21
12583.0
 31
0.0
  0
LINE
  5
286
  8
YKK_A1
  6
CONTINUOUS
 10
3408.249827
 20
13697.707817
 30
0.0
 11
3408.249827
 21
12636.0
 31
0.0
  0
LINE
  5
287
  8
YKK_N1
  6
CONTINUOUS
 10
3639.250178
 20
13770.0
 30
0.0
 11
3639.250178
 21
12600.0
 31
0.0
  0
LINE
  5
288
  8
YKK_A1
  6
CONTINUOUS
 10
3439.250209
 20
13770.001028
 30
0.0
 11
3439.250209
 21
12583.0
 31
0.0
  0
TEXT
  5
289
  8
YKK_N1
 10
3627.250178
 20
13036.5
 30
0.0
 40
60.0
  1
H=1170
 50
90.0
  0
LINE
  5
28A
  8
YKK_A1
  6
CONTINUOUS
 10
2669.24943
 20
13307.337884
 30
0.0
 11
2669.24943
 21
12583.0
 31
0.0
  0
LINE
  5
28B
  8
YKK_A1
  6
CONTINUOUS
 10
2673.249491
 20
13309.741363
 30
0.0
 11
2673.249491
 21
12583.0
 31
0.0
  0
LINE
  5
28C
  8
YKK_A1
  6
CONTINUOUS
 10
2700.249827
 20
13272.298499
 30
0.0
 11
2700.249827
 21
12636.0
 31
0.0
  0
TEXT
  5
28D
  8
YKK_N1
 10
2909.249781
 20
12395.000015
 30
0.0
 40
60.0
  1
W=780
  0
LINE
  5
28E
  8
YKK_N1
  6
CONTINUOUS
 10
2664.249797
 20
12383.000015
 30
0.0
 11
3444.249812
 21
12383.000015
 31
0.0
  0
LINE
  5
28F
  8
YKK_A1
  6
CONTINUOUS
 10
3408.249827
 20
12636.0
 30
0.0
 11
2700.249827
 21
12636.0
 31
0.0
  0
LINE
  5
290
  8
YKK_A1
  6
CONTINUOUS
 10
3435.250193
 20
12588.801024
 30
0.0
 11
2673.249491
 21
12588.801024
 31
0.0
  0
LINE
  5
291
  8
YKK_A1
  6
CONTINUOUS
 10
3435.250193
 20
12596.53686
 30
0.0
 11
2673.249491
 21
12596.53686
 31
0.0
  0
LINE
  5
292
  8
YKK_A1
  6
CONTINUOUS
 10
3439.250209
 20
12583.0
 30
0.0
 11
2669.24943
 21
12583.0
 31
0.0
  0
LINE
  5
293
  8
YKK_N1
  6
CONTINUOUS
 10
1962.069093
 20
12599.999985
 30
0.0
 11
1837.069093
 21
12599.999985
 31
0.0
  0
LINE
  5
294
  8
YKK_N1
  6
CONTINUOUS
 10
1962.069093
 20
12599.999985
 30
0.0
 11
1912.069092
 21
12686.602525
 31
0.0
  0
LINE
  5
295
  8
YKK_N1
  6
CONTINUOUS
 10
2012.069092
 20
12686.602525
 30
0.0
 11
1912.069092
 21
12686.602525
 31
0.0
  0
LINE
  5
296
  8
YKK_N1
  6
CONTINUOUS
 10
1680.466187
 20
12433.000001
 30
0.0
 11
1680.466187
 21
12333.000001
 31
0.0
  0
LINE
  5
297
  8
YKK_N1
  6
CONTINUOUS
 10
1767.068727
 20
12383.0
 30
0.0
 11
1680.46616
 21
12332.999984
 31
0.0
  0
LINE
  5
298
  8
YKK_N1
  6
CONTINUOUS
 10
1073.671238
 20
12432.999993
 30
0.0
 11
1073.671238
 21
12332.999993
 31
0.0
  0
LINE
  5
299
  8
YKK_N1
  6
CONTINUOUS
 10
987.068712
 20
12383.0
 30
0.0
 11
1073.671249
 21
12333.000001
 31
0.0
  0
LINE
  5
29A
  8
YKK_IN
  6
CONTINUOUS
 10
1341.713397
 20
12635.355343
 30
0.0
 11
1412.424076
 21
12564.644664
 31
0.0
  0
LINE
  5
29B
  8
YKK_IN
  6
CONTINUOUS
 10
1341.713378
 20
12564.644641
 30
0.0
 11
1412.424078
 21
12635.35534
 31
0.0
  0
CIRCLE
  5
29C
  8
YKK_IN
  6
CONTINUOUS
 10
1377.068727
 20
12599.999985
 30
0.0
 40
25.0
  0
LINE
  5
29D
  8
YKK_A1
  6
CONTINUOUS
 10
1023.068696
 20
12635.999985
 30
0.0
 11
1731.068696
 21
12635.999985
 31
0.0
  0
LINE
  5
29E
  8
YKK_A1
  6
CONTINUOUS
 10
996.06833
 20
12588.801009
 30
0.0
 11
1758.069032
 21
12588.801009
 31
0.0
  0
LINE
  5
29F
  8
YKK_A1
  6
CONTINUOUS
 10
996.06833
 20
12596.536844
 30
0.0
 11
1758.069032
 21
12596.536844
 31
0.0
  0
LINE
  5
2A0
  8
YKK_A1
  6
CONTINUOUS
 10
992.068315
 20
12582.999985
 30
0.0
 11
1762.069093
 21
12582.999985
 31
0.0
  0
LINE
  5
2A1
  8
YKK_N1
  6
CONTINUOUS
 10
987.068712
 20
12383.0
 30
0.0
 11
1767.068727
 21
12383.0
 31
0.0
  0
TEXT
  5
2A2
  8
YKK_N1
 10
1232.068696
 20
12395.0
 30
0.0
 40
60.0
  1
W=780
  0
LINE
  5
2A3
  8
YKK_N1
  6
CONTINUOUS
 10
987.068712
 20
12383.0
 30
0.0
 11
1073.671238
 21
12432.999993
 31
0.0
  0
LINE
  5
2A4
  8
YKK_N1
  6
CONTINUOUS
 10
987.068712
 20
12507.999985
 30
0.0
 11
987.068712
 21
12383.0
 31
0.0
  0
TEXT
  5
2A5
  8
YKK_A1
 10
1654.40203
 20
12690.999985
 30
0.0
 40
50.0
  1
F
  0
LINE
  5
2A6
  8
YKK_N1
  6
CONTINUOUS
 10
1767.068727
 20
12507.999985
 30
0.0
 11
1767.068727
 21
12383.0
 31
0.0
  0
LINE
  5
2A7
  8
YKK_N1
  6
CONTINUOUS
 10
1767.068727
 20
12383.0
 30
0.0
 11
1680.466187
 21
12433.000001
 31
0.0
  0
LINE
  5
2A8
  8
YKK_N1
  6
CONTINUOUS
 10
2750.852323
 20
12433.000008
 30
0.0
 11
2750.852323
 21
12333.000008
 31
0.0
  0
LINE
  5
2A9
  8
YKK_N1
  6
CONTINUOUS
 10
2664.249797
 20
12383.000015
 30
0.0
 11
2750.852334
 21
12333.000016
 31
0.0
  0
LINE
  5
2AA
  8
YKK_N1
  6
CONTINUOUS
 10
1962.069093
 20
12599.999985
 30
0.0
 11
2012.069094
 21
12686.602525
 31
0.0
  0
LINE
  5
2AB
  8
YKK_N1
  6
CONTINUOUS
 10
2664.249797
 20
12383.000015
 30
0.0
 11
2750.852323
 21
12433.000008
 31
0.0
  0
LINE
  5
2AC
  8
YKK_N1
  6
CONTINUOUS
 10
2664.249797
 20
12508.0
 30
0.0
 11
2664.249797
 21
12383.000015
 31
0.0
  0
LINE
  5
2AD
  8
YKK_N1
  6
CONTINUOUS
 10
3444.249812
 20
12383.000015
 30
0.0
 11
3357.647245
 21
12332.999999
 31
0.0
  0
LINE
  5
2AE
  8
YKK_N1
  6
CONTINUOUS
 10
3357.647272
 20
12433.000016
 30
0.0
 11
3357.647272
 21
12333.000016
 31
0.0
  0
LINE
  5
2AF
  8
YKK_N1
  6
CONTINUOUS
 10
3639.250178
 20
12600.0
 30
0.0
 11
3514.250178
 21
12600.0
 31
0.0
  0
TEXT
  5
2B0
  8
YKK_A1
 10
3331.583115
 20
12691.0
 30
0.0
 40
50.0
  1
F
  0
LINE
  5
2B1
  8
YKK_IN
  6
CONTINUOUS
 10
3018.894482
 20
12635.355358
 30
0.0
 11
3089.605161
 21
12564.644679
 31
0.0
  0
LINE
  5
2B2
  8
YKK_IN
  6
CONTINUOUS
 10
3018.894463
 20
12564.644656
 30
0.0
 11
3089.605163
 21
12635.355356
 31
0.0
  0
CIRCLE
  5
2B3
  8
YKK_IN
  6
CONTINUOUS
 10
3054.249812
 20
12600.0
 30
0.0
 40
25.0
  0
LINE
  5
2B4
  8
YKK_N1
  6
CONTINUOUS
 10
3444.249812
 20
12508.0
 30
0.0
 11
3444.249812
 21
12383.000015
 31
0.0
  0
LINE
  5
2B5
  8
YKK_N1
  6
CONTINUOUS
 10
3444.249812
 20
12383.000015
 30
0.0
 11
3357.647272
 21
12433.000016
 31
0.0
  0
LINE
  5
2B6
  8
YKK_N1
  6
CONTINUOUS
 10
3639.250178
 20
12600.0
 30
0.0
 11
3589.250177
 21
12686.60254
 31
0.0
  0
LINE
  5
2B7
  8
YKK_N1
  6
CONTINUOUS
 10
3689.250177
 20
12686.60254
 30
0.0
 11
3589.250177
 21
12686.60254
 31
0.0
  0
LINE
  5
2B8
  8
YKK_N1
  6
CONTINUOUS
 10
3639.250178
 20
12600.0
 30
0.0
 11
3689.250179
 21
12686.60254
 31
0.0
  0
LINE
  5
2B9
  8
YKK_A1
  6
CONTINUOUS
 10
3435.250193
 20
13758.847826
 30
0.0
 11
2673.249491
 21
13300.991613
 31
0.0
  0
LINE
  5
2BA
  8
YKK_A1
  6
CONTINUOUS
 10
3408.249827
 20
13697.707817
 30
0.0
 11
2700.249827
 21
13272.298499
 31
0.0
  0
LINE
  5
2BB
  8
YKK_A1
  6
CONTINUOUS
 10
3439.250209
 20
13770.001028
 30
0.0
 11
2669.249433
 21
13307.337885
 31
0.0
  0
LINE
  5
2BC
  8
YKK_N1
  6
CONTINUOUS
 10
1962.069093
 20
13769.999985
 30
0.0
 11
1837.069093
 21
13769.999985
 31
0.0
  0
LINE
  5
2BD
  8
YKK_N1
  6
CONTINUOUS
 10
1912.069092
 20
13683.397445
 30
0.0
 11
2012.069092
 21
13683.397445
 31
0.0
  0
LINE
  5
2BE
  8
YKK_N1
  6
CONTINUOUS
 10
1962.069093
 20
13769.999985
 30
0.0
 11
1912.069092
 21
13683.397445
 31
0.0
  0
LINE
  5
2BF
  8
YKK_A1
  6
CONTINUOUS
 10
1023.068696
 20
13697.707802
 30
0.0
 11
1731.068696
 21
13272.298483
 31
0.0
  0
LINE
  5
2C0
  8
YKK_A1
  6
CONTINUOUS
 10
996.06833
 20
13758.847811
 30
0.0
 11
1758.069032
 21
13300.991597
 31
0.0
  0
LINE
  5
2C1
  8
YKK_A1
  6
CONTINUOUS
 10
992.068315
 20
13770.001013
 30
0.0
 11
1762.069091
 21
13307.33787
 31
0.0
  0
LINE
  5
2C2
  8
YKK_N1
  6
CONTINUOUS
 10
1962.069093
 20
13769.999985
 30
0.0
 11
2012.069094
 21
13683.397445
 31
0.0
  0
LINE
  5
2C3
  8
YKK_N1
  6
CONTINUOUS
 10
3639.250178
 20
13770.0
 30
0.0
 11
3514.250178
 21
13770.0
 31
0.0
  0
LINE
  5
2C4
  8
YKK_N1
  6
CONTINUOUS
 10
3639.250178
 20
13770.0
 30
0.0
 11
3589.250177
 21
13683.39746
 31
0.0
  0
LINE
  5
2C5
  8
YKK_N1
  6
CONTINUOUS
 10
3639.250178
 20
13770.0
 30
0.0
 11
3689.250179
 21
13683.39746
 31
0.0
  0
LINE
  5
2C6
  8
YKK_N1
  6
CONTINUOUS
 10
3589.250177
 20
13683.39746
 30
0.0
 11
3689.250177
 21
13683.39746
 31
0.0
  0
TEXT
  5
2C7
  8
0
 10
100.0
 20
19187.5
 30
0.0
 40
175.0
  1
NXF-07411-M-P5R(L)
  7
EXTFONT
  0
TEXT
  5
2C8
  8
0
 10
100.0
 20
18737.5
 30
0.0
 40
175.0
  1
W=780 H=1,170
  7
EXTFONT
  0
TEXT
  5
2C9
  8
YKK_N1
 10
2909.249781
 20
16295.000015
 30
0.0
 40
60.0
  1
W=780
  0
LINE
  5
2CA
  8
YKK_A1
  6
CONTINUOUS
 10
3408.249827
 20
16536.0
 30
0.0
 11
2700.249827
 21
16536.0
 31
0.0
  0
LINE
  5
2CB
  8
YKK_A1
  6
CONTINUOUS
 10
3435.250193
 20
16488.801024
 30
0.0
 11
2673.249491
 21
16488.801024
 31
0.0
  0
LINE
  5
2CC
  8
YKK_A1
  6
CONTINUOUS
 10
3435.250193
 20
16496.53686
 30
0.0
 11
2673.249491
 21
16496.53686
 31
0.0
  0
LINE
  5
2CD
  8
YKK_A1
  6
CONTINUOUS
 10
3439.250209
 20
16483.0
 30
0.0
 11
2669.24943
 21
16483.0
 31
0.0
  0
LINE
  5
2CE
  8
YKK_N1
  6
CONTINUOUS
 10
2664.249797
 20
16283.000015
 30
0.0
 11
3444.249812
 21
16283.000015
 31
0.0
  0
LINE
  5
2CF
  8
YKK_A1
  6
CONTINUOUS
 10
3439.250209
 20
17670.001028
 30
0.0
 11
2669.249433
 21
17285.000638
 31
0.0
  0
LINE
  5
2D0
  8
YKK_A1
  6
CONTINUOUS
 10
3408.249827
 20
17603.070156
 30
0.0
 11
2700.249827
 21
17249.070154
 31
0.0
  0
LINE
  5
2D1
  8
YKK_A1
  6
CONTINUOUS
 10
3435.250193
 20
17659.615766
 30
0.0
 11
2673.249491
 21
17278.615413
 31
0.0
  0
LINE
  5
2D2
  8
YKK_N1
  6
CONTINUOUS
 10
1962.069093
 20
17669.999985
 30
0.0
 11
1837.069093
 21
17669.999985
 31
0.0
  0
LINE
  5
2D3
  8
YKK_N1
  6
CONTINUOUS
 10
1962.069093
 20
17669.999985
 30
0.0
 11
1912.069092
 21
17583.397445
 31
0.0
  0
LINE
  5
2D4
  8
YKK_N1
  6
CONTINUOUS
 10
1912.069092
 20
17583.397445
 30
0.0
 11
2012.069092
 21
17583.397445
 31
0.0
  0
LINE
  5
2D5
  8
YKK_N1
  6
CONTINUOUS
 10
1962.069093
 20
16499.999985
 30
0.0
 11
1837.069093
 21
16499.999985
 31
0.0
  0
LINE
  5
2D6
  8
YKK_N1
  6
CONTINUOUS
 10
1962.069093
 20
16499.999985
 30
0.0
 11
1912.069092
 21
16586.602525
 31
0.0
  0
LINE
  5
2D7
  8
YKK_N1
  6
CONTINUOUS
 10
2012.069092
 20
16586.602525
 30
0.0
 11
1912.069092
 21
16586.602525
 31
0.0
  0
TEXT
  5
2D8
  8
YKK_N1
 10
1950.069093
 20
16936.499985
 30
0.0
 40
60.0
  1
H=1170
 50
90.0
  0
LINE
  5
2D9
  8
YKK_A1
  6
CONTINUOUS
 10
1731.068696
 20
17249.070139
 30
0.0
 11
1731.068696
 21
16535.999985
 31
0.0
  0
LINE
  5
2DA
  8
YKK_A1
  6
CONTINUOUS
 10
1758.069032
 20
17287.000652
 30
0.0
 11
1758.069032
 21
16482.999985
 31
0.0
  0
LINE
  5
2DB
  8
YKK_A1
  6
CONTINUOUS
 10
1762.069093
 20
17285.000622
 30
0.0
 11
1762.069093
 21
16482.999985
 31
0.0
  0
LINE
  5
2DC
  8
YKK_A1
  6
CONTINUOUS
 10
992.068315
 20
17670.001013
 30
0.0
 11
992.068315
 21
16482.999985
 31
0.0
  0
LINE
  5
2DD
  8
YKK_A1
  6
CONTINUOUS
 10
996.06833
 20
17668.001005
 30
0.0
 11
996.06833
 21
16482.999985
 31
0.0
  0
LINE
  5
2DE
  8
YKK_A1
  6
CONTINUOUS
 10
1023.068696
 20
17603.070141
 30
0.0
 11
1023.068696
 21
16535.999985
 31
0.0
  0
CIRCLE
  5
2DF
  8
YKK_IN
  6
CONTINUOUS
 10
1377.068727
 20
16499.999985
 30
0.0
 40
25.0
  0
LINE
  5
2E0
  8
YKK_IN
  6
CONTINUOUS
 10
1341.713397
 20
16535.355343
 30
0.0
 11
1412.424076
 21
16464.644664
 31
0.0
  0
LINE
  5
2E1
  8
YKK_IN
  6
CONTINUOUS
 10
1341.713378
 20
16464.644641
 30
0.0
 11
1412.424078
 21
16535.35534
 31
0.0
  0
TEXT
  5
2E2
  8
YKK_N1
 10
1232.068696
 20
16295.0
 30
0.0
 40
60.0
  1
W=780
  0
LINE
  5
2E3
  8
YKK_A1
  6
CONTINUOUS
 10
996.06833
 20
16488.801009
 30
0.0
 11
1758.069032
 21
16488.801009
 31
0.0
  0
LINE
  5
2E4
  8
YKK_A1
  6
CONTINUOUS
 10
1023.068696
 20
16535.999985
 30
0.0
 11
1731.068696
 21
16535.999985
 31
0.0
  0
LINE
  5
2E5
  8
YKK_A1
  6
CONTINUOUS
 10
992.068315
 20
16482.999985
 30
0.0
 11
1762.069093
 21
16482.999985
 31
0.0
  0
LINE
  5
2E6
  8
YKK_A1
  6
CONTINUOUS
 10
996.06833
 20
16496.536844
 30
0.0
 11
1758.069032
 21
16496.536844
 31
0.0
  0
LINE
  5
2E7
  8
YKK_N1
  6
CONTINUOUS
 10
987.068712
 20
16283.0
 30
0.0
 11
1767.068727
 21
16283.0
 31
0.0
  0
LINE
  5
2E8
  8
YKK_N1
  6
CONTINUOUS
 10
987.068712
 20
16283.0
 30
0.0
 11
1073.671238
 21
16332.999993
 31
0.0
  0
LINE
  5
2E9
  8
YKK_N1
  6
CONTINUOUS
 10
987.068712
 20
16407.999985
 30
0.0
 11
987.068712
 21
16283.0
 31
0.0
  0
TEXT
  5
2EA
  8
YKK_A1
 10
1654.40203
 20
16590.999985
 30
0.0
 40
50.0
  1
F
  0
LINE
  5
2EB
  8
YKK_N1
  6
CONTINUOUS
 10
1767.068727
 20
16407.999985
 30
0.0
 11
1767.068727
 21
16283.0
 31
0.0
  0
LINE
  5
2EC
  8
YKK_N1
  6
CONTINUOUS
 10
1767.068727
 20
16283.0
 30
0.0
 11
1680.466187
 21
16333.000001
 31
0.0
  0
LINE
  5
2ED
  8
YKK_A1
  6
CONTINUOUS
 10
992.068315
 20
17670.001013
 30
0.0
 11
1762.069091
 21
17285.000623
 31
0.0
  0
LINE
  5
2EE
  8
YKK_A1
  6
CONTINUOUS
 10
996.06833
 20
17659.61575
 30
0.0
 11
1758.069032
 21
17278.615397
 31
0.0
  0
LINE
  5
2EF
  8
YKK_A1
  6
CONTINUOUS
 10
1023.068696
 20
17603.070141
 30
0.0
 11
1731.068696
 21
17249.070139
 31
0.0
  0
LINE
  5
2F0
  8
YKK_N1
  6
CONTINUOUS
 10
1962.069093
 20
17669.999985
 30
0.0
 11
1962.069093
 21
16499.999985
 31
0.0
  0
LINE
  5
2F1
  8
YKK_A1
  6
CONTINUOUS
 10
2700.249827
 20
17249.070154
 30
0.0
 11
2700.249827
 21
16536.0
 31
0.0
  0
LINE
  5
2F2
  8
YKK_A1
  6
CONTINUOUS
 10
2673.249491
 20
17287.000668
 30
0.0
 11
2673.249491
 21
16483.0
 31
0.0
  0
LINE
  5
2F3
  8
YKK_A1
  6
CONTINUOUS
 10
2669.24943
 20
17285.000637
 30
0.0
 11
2669.24943
 21
16483.0
 31
0.0
  0
LINE
  5
2F4
  8
YKK_N1
  6
CONTINUOUS
 10
1962.069093
 20
16499.999985
 30
0.0
 11
2012.069094
 21
16586.602525
 31
0.0
  0
LINE
  5
2F5
  8
YKK_N1
  6
CONTINUOUS
 10
2664.249797
 20
16283.000015
 30
0.0
 11
2750.852323
 21
16333.000008
 31
0.0
  0
LINE
  5
2F6
  8
YKK_N1
  6
CONTINUOUS
 10
2664.249797
 20
16408.0
 30
0.0
 11
2664.249797
 21
16283.000015
 31
0.0
  0
LINE
  5
2F7
  8
YKK_N1
  6
CONTINUOUS
 10
1962.069093
 20
17669.999985
 30
0.0
 11
2012.069094
 21
17583.397445
 31
0.0
  0
LINE
  5
2F8
  8
YKK_N1
  6
CONTINUOUS
 10
3639.250178
 20
17670.0
 30
0.0
 11
3639.250178
 21
16500.0
 31
0.0
  0
LINE
  5
2F9
  8
YKK_A1
  6
CONTINUOUS
 10
3408.249827
 20
17603.070156
 30
0.0
 11
3408.249827
 21
16536.0
 31
0.0
  0
LINE
  5
2FA
  8
YKK_A1
  6
CONTINUOUS
 10
3439.250209
 20
17670.001028
 30
0.0
 11
3439.250209
 21
16483.0
 31
0.0
  0
LINE
  5
2FB
  8
YKK_A1
  6
CONTINUOUS
 10
3435.250193
 20
17668.001021
 30
0.0
 11
3435.250193
 21
16483.0
 31
0.0
  0
TEXT
  5
2FC
  8
YKK_N1
 10
3627.250178
 20
16936.5
 30
0.0
 40
60.0
  1
H=1170
 50
90.0
  0
LINE
  5
2FD
  8
YKK_N1
  6
CONTINUOUS
 10
3639.250178
 20
16500.0
 30
0.0
 11
3514.250178
 21
16500.0
 31
0.0
  0
TEXT
  5
2FE
  8
YKK_A1
 10
3331.583115
 20
16591.0
 30
0.0
 40
50.0
  1
F
  0
LINE
  5
2FF
  8
YKK_IN
  6
CONTINUOUS
 10
3018.894482
 20
16535.355358
 30
0.0
 11
3089.605161
 21
16464.644679
 31
0.0
  0
LINE
  5
300
  8
YKK_IN
  6
CONTINUOUS
 10
3018.894463
 20
16464.644656
 30
0.0
 11
3089.605163
 21
16535.355356
 31
0.0
  0
CIRCLE
  5
301
  8
YKK_IN
  6
CONTINUOUS
 10
3054.249812
 20
16500.0
 30
0.0
 40
25.0
  0
LINE
  5
302
  8
YKK_N1
  6
CONTINUOUS
 10
3444.249812
 20
16408.0
 30
0.0
 11
3444.249812
 21
16283.000015
 31
0.0
  0
LINE
  5
303
  8
YKK_N1
  6
CONTINUOUS
 10
3444.249812
 20
16283.000015
 30
0.0
 11
3357.647272
 21
16333.000016
 31
0.0
  0
LINE
  5
304
  8
YKK_N1
  6
CONTINUOUS
 10
3639.250178
 20
16500.0
 30
0.0
 11
3589.250177
 21
16586.60254
 31
0.0
  0
LINE
  5
305
  8
YKK_N1
  6
CONTINUOUS
 10
3639.250178
 20
16500.0
 30
0.0
 11
3689.250179
 21
16586.60254
 31
0.0
  0
LINE
  5
306
  8
YKK_N1
  6
CONTINUOUS
 10
3689.250177
 20
16586.60254
 30
0.0
 11
3589.250177
 21
16586.60254
 31
0.0
  0
LINE
  5
307
  8
YKK_N1
  6
CONTINUOUS
 10
3639.250178
 20
17670.0
 30
0.0
 11
3514.250178
 21
17670.0
 31
0.0
  0
LINE
  5
308
  8
YKK_N1
  6
CONTINUOUS
 10
3639.250178
 20
17670.0
 30
0.0
 11
3589.250177
 21
17583.39746
 31
0.0
  0
LINE
  5
309
  8
YKK_N1
  6
CONTINUOUS
 10
3639.250178
 20
17670.0
 30
0.0
 11
3689.250179
 21
17583.39746
 31
0.0
  0
LINE
  5
30A
  8
YKK_N1
  6
CONTINUOUS
 10
3589.250177
 20
17583.39746
 30
0.0
 11
3689.250177
 21
17583.39746
 31
0.0
  0
LINE
  5
30B
  8
YKK_N1
  6
CONTINUOUS
 10
5964.999992
 20
16282.999996
 30
0.0
 11
6051.60253
 21
16232.999997
 31
0.0
  0
LINE
  5
30C
  8
YKK_N1
  6
CONTINUOUS
 10
6051.602519
 20
16332.999989
 30
0.0
 11
6051.602519
 21
16232.999989
 31
0.0
  0
LINE
  5
30D
  8
YKK_N1
  6
CONTINUOUS
 10
7448.397468
 20
16332.999997
 30
0.0
 11
7448.397468
 21
16232.999997
 31
0.0
  0
LINE
  5
30E
  8
YKK_N1
  6
CONTINUOUS
 10
7535.000008
 20
16282.999996
 30
0.0
 11
7448.397441
 21
16232.99998
 31
0.0
  0
LINE
  5
30F
  8
YKK_N1
  6
CONTINUOUS
 10
10464.999992
 20
16283.000015
 30
0.0
 11
10551.60253
 21
16233.000016
 31
0.0
  0
LINE
  5
310
  8
YKK_N1
  6
CONTINUOUS
 10
10551.602519
 20
16333.000008
 30
0.0
 11
10551.602519
 21
16233.000008
 31
0.0
  0
LINE
  5
311
  8
YKK_N1
  6
CONTINUOUS
 10
11948.397468
 20
16333.000016
 30
0.0
 11
11948.397468
 21
16233.000016
 31
0.0
  0
LINE
  5
312
  8
YKK_N1
  6
CONTINUOUS
 10
12035.000008
 20
16283.000015
 30
0.0
 11
11948.397441
 21
16232.999999
 31
0.0
  0
LINE
  5
313
  8
YKK_F1
 62
     7
 10
9000.0
 20
11700.0
 30
0.0
 11
9000.0
 21
19500.0
 31
0.0
  0
TEXT
  5
314
  8
0
 10
8239.739977
 20
11387.5
 30
0.0
 40
175.0
  1
NXX-11-M-S**
  7
EXTFONT
  0
TEXT
  5
315
  8
0
 10
9100.0
 20
15287.5
 30
0.0
 40
175.0
  1
片流れ型（6寸勾配）
  7
EXTFONT
  0
TEXT
  5
316
  8
0
 10
9100.0
 20
14837.5
 30
0.0
 40
175.0
  1
W=1,570 H=1,170
  7
EXTFONT
  0
LINE
  5
317
  8
YKK_A1
  6
CONTINUOUS
 10
5969.999626
 20
13307.337865
 30
0.0
 11
5969.999626
 21
12582.999981
 31
0.0
  0
LINE
  5
318
  8
YKK_A1
  6
CONTINUOUS
 10
5973.999687
 20
13309.741344
 30
0.0
 11
5973.999687
 21
12582.999981
 31
0.0
  0
LINE
  5
319
  8
YKK_A1
  6
CONTINUOUS
 10
6001.000023
 20
13272.29848
 30
0.0
 11
6001.000023
 21
12635.999981
 31
0.0
  0
LINE
  5
31A
  8
YKK_A1
  6
CONTINUOUS
 10
6736.000389
 20
13767.597558
 30
0.0
 11
6736.000389
 21
12582.999981
 31
0.0
  0
LINE
  5
31B
  8
YKK_A1
  6
CONTINUOUS
 10
6709.000023
 20
13697.707798
 30
0.0
 11
6709.000023
 21
12635.999981
 31
0.0
  0
LINE
  5
31C
  8
YKK_A1
  6
CONTINUOUS
 10
6763.999615
 20
13767.597558
 30
0.0
 11
6763.999615
 21
12582.999981
 31
0.0
  0
LINE
  5
31D
  8
YKK_A1
  6
CONTINUOUS
 10
6790.999981
 20
13697.707798
 30
0.0
 11
6790.999981
 21
12635.999981
 31
0.0
  0
LINE
  5
31E
  8
YKK_A1
  6
CONTINUOUS
 10
7530.000377
 20
13307.337865
 30
0.0
 11
7530.000377
 21
12582.999981
 31
0.0
  0
LINE
  5
31F
  8
YKK_A1
  6
CONTINUOUS
 10
7526.000316
 20
13309.741344
 30
0.0
 11
7526.000316
 21
12582.999981
 31
0.0
  0
LINE
  5
320
  8
YKK_A1
  6
CONTINUOUS
 10
7498.999981
 20
13272.29848
 30
0.0
 11
7498.999981
 21
12635.999981
 31
0.0
  0
LINE
  5
321
  8
YKK_N1
  6
CONTINUOUS
 10
7730.000377
 20
13769.999981
 30
0.0
 11
7730.000377
 21
12599.999981
 31
0.0
  0
TEXT
  5
322
  8
YKK_N1
 10
7718.000377
 20
13036.499981
 30
0.0
 40
60.0
  1
H=1170
 50
90.0
  0
LINE
  5
323
  8
YKK_A1
  6
CONTINUOUS
 10
6790.999981
 20
12635.999981
 30
0.0
 11
7498.999981
 21
12635.999981
 31
0.0
  0
LINE
  5
324
  8
YKK_A1
  6
CONTINUOUS
 10
6763.999615
 20
12588.801006
 30
0.0
 11
7526.000316
 21
12588.801006
 31
0.0
  0
LINE
  5
325
  8
YKK_A1
  6
CONTINUOUS
 10
6763.999615
 20
12596.536841
 30
0.0
 11
7526.000316
 21
12596.536841
 31
0.0
  0
LINE
  5
326
  8
YKK_A1
  6
CONTINUOUS
 10
7530.000377
 20
12582.999981
 30
0.0
 11
5969.999626
 21
12582.999981
 31
0.0
  0
LINE
  5
327
  8
YKK_N1
  6
CONTINUOUS
 10
5964.999992
 20
12382.999996
 30
0.0
 11
7535.000008
 21
12382.999996
 31
0.0
  0
LINE
  5
328
  8
YKK_A1
  6
CONTINUOUS
 10
6709.000023
 20
12635.999981
 30
0.0
 11
6001.000023
 21
12635.999981
 31
0.0
  0
LINE
  5
329
  8
YKK_A1
  6
CONTINUOUS
 10
6736.000389
 20
12588.801006
 30
0.0
 11
5973.999687
 21
12588.801006
 31
0.0
  0
LINE
  5
32A
  8
YKK_A1
  6
CONTINUOUS
 10
6736.000389
 20
12596.536841
 30
0.0
 11
5973.999687
 21
12596.536841
 31
0.0
  0
LINE
  5
32B
  8
YKK_N1
  6
CONTINUOUS
 10
5964.999992
 20
12382.999996
 30
0.0
 11
6051.60253
 21
12332.999997
 31
0.0
  0
LINE
  5
32C
  8
YKK_N1
  6
CONTINUOUS
 10
6051.602519
 20
12432.999989
 30
0.0
 11
6051.602519
 21
12332.999989
 31
0.0
  0
LINE
  5
32D
  8
YKK_N1
  6
CONTINUOUS
 10
5964.999992
 20
12507.999981
 30
0.0
 11
5964.999992
 21
12382.999996
 31
0.0
  0
LINE
  5
32E
  8
YKK_N1
  6
CONTINUOUS
 10
5964.999992
 20
12382.999996
 30
0.0
 11
6051.602519
 21
12432.999989
 31
0.0
  0
CIRCLE
  5
32F
  8
YKK_IN
  6
CONTINUOUS
 10
6749.999983
 20
12599.999981
 30
0.0
 40
25.0
  0
LINE
  5
330
  8
YKK_IN
  6
CONTINUOUS
 10
6714.644634
 20
12564.644637
 30
0.0
 11
6785.355333
 21
12635.355337
 31
0.0
  0
LINE
  5
331
  8
YKK_IN
  6
CONTINUOUS
 10
6714.644653
 20
12635.35534
 30
0.0
 11
6785.355332
 21
12564.64466
 31
0.0
  0
TEXT
  5
332
  8
YKK_N1
 10
6604.999977
 20
12394.999996
 30
0.0
 40
60.0
  1
W=1570
  0
TEXT
  5
333
  8
YKK_A1
 10
6632.33331
 20
12690.999981
 30
0.0
 40
50.0
  1
F
  0
TEXT
  5
334
  8
0
 10
8239.739977
 20
10937.5
 30
0.0
 40
175.0
  1
W=1,570
  7
EXTFONT
  0
LINE
  5
335
  8
YKK_N1
  6
CONTINUOUS
 10
7535.000008
 20
12382.999996
 30
0.0
 11
7448.397441
 21
12332.99998
 31
0.0
  0
LINE
  5
336
  8
YKK_N1
  6
CONTINUOUS
 10
7448.397468
 20
12432.999997
 30
0.0
 11
7448.397468
 21
12332.999997
 31
0.0
  0
TEXT
  5
337
  8
YKK_A1
 10
7422.333268
 20
12690.999981
 30
0.0
 40
50.0
  1
F
  0
LINE
  5
338
  8
YKK_N1
  6
CONTINUOUS
 10
7535.000008
 20
12507.999981
 30
0.0
 11
7535.000008
 21
12382.999996
 31
0.0
  0
LINE
  5
339
  8
YKK_N1
  6
CONTINUOUS
 10
7535.000008
 20
12382.999996
 30
0.0
 11
7448.397468
 21
12432.999997
 31
0.0
  0
LINE
  5
33A
  8
YKK_N1
  6
CONTINUOUS
 10
7780.000377
 20
12686.602521
 30
0.0
 11
7680.000377
 21
12686.602521
 31
0.0
  0
LINE
  5
33B
  8
YKK_N1
  6
CONTINUOUS
 10
7730.000377
 20
12599.999981
 30
0.0
 11
7680.000377
 21
12686.602521
 31
0.0
  0
LINE
  5
33C
  8
YKK_N1
  6
CONTINUOUS
 10
7730.000377
 20
12599.999981
 30
0.0
 11
7780.000378
 21
12686.602521
 31
0.0
  0
LINE
  5
33D
  8
YKK_N1
  6
CONTINUOUS
 10
7730.000377
 20
12599.999981
 30
0.0
 11
7605.000377
 21
12599.999981
 31
0.0
  0
LINE
  5
33E
  8
YKK_A1
  6
CONTINUOUS
 10
6763.999615
 20
13758.847807
 30
0.0
 11
7526.000316
 21
13300.991594
 31
0.0
  0
LINE
  5
33F
  8
YKK_A1
  6
CONTINUOUS
 10
6790.999981
 20
13697.707798
 30
0.0
 11
7498.999981
 21
13272.29848
 31
0.0
  0
LINE
  5
340
  8
YKK_A1
  6
CONTINUOUS
 10
6763.999615
 20
13767.597558
 30
0.0
 11
7530.000375
 21
13307.337867
 31
0.0
  0
LINE
  5
341
  8
YKK_A1
  6
CONTINUOUS
 10
6736.000389
 20
13758.847807
 30
0.0
 11
5973.999687
 21
13300.991594
 31
0.0
  0
LINE
  5
342
  8
YKK_A1
  6
CONTINUOUS
 10
6709.000023
 20
13697.707798
 30
0.0
 11
6001.000023
 21
13272.29848
 31
0.0
  0
LINE
  5
343
  8
YKK_A1
  6
CONTINUOUS
 10
6736.000389
 20
13767.597558
 30
0.0
 11
5969.999628
 21
13307.337867
 31
0.0
  0
LINE
  5
344
  8
YKK_N1
  6
CONTINUOUS
 10
7730.000377
 20
13769.999981
 30
0.0
 11
7680.000377
 21
13683.397441
 31
0.0
  0
LINE
  5
345
  8
YKK_N1
  6
CONTINUOUS
 10
7730.000377
 20
13769.999981
 30
0.0
 11
7780.000378
 21
13683.397441
 31
0.0
  0
LINE
  5
346
  8
YKK_N1
  6
CONTINUOUS
 10
7680.000377
 20
13683.397441
 30
0.0
 11
7780.000377
 21
13683.397441
 31
0.0
  0
LINE
  5
347
  8
YKK_N1
  6
CONTINUOUS
 10
7730.000377
 20
13769.999981
 30
0.0
 11
7605.000377
 21
13769.999981
 31
0.0
  0
TEXT
  5
348
  8
YKK_N1
 10
12218.000374
 20
13036.5
 30
0.0
 40
60.0
  1
H=1170
 50
90.0
  0
LINE
  5
349
  8
YKK_A1
  6
CONTINUOUS
 10
11208.999977
 20
13223.0279
 30
0.0
 11
10500.999977
 21
12797.618582
 31
0.0
  0
LINE
  5
34A
  8
YKK_A1
  6
CONTINUOUS
 10
11235.999623
 20
13284.167477
 30
0.0
 11
10473.999611
 21
12826.311678
 31
0.0
  0
LINE
  5
34B
  8
YKK_A1
  6
CONTINUOUS
 10
11263.999687
 20
13309.741363
 30
0.0
 11
11263.999687
 21
12583.0
 31
0.0
  0
LINE
  5
34C
  8
YKK_A1
  6
CONTINUOUS
 10
11291.000023
 20
13272.298499
 30
0.0
 11
11291.000023
 21
12636.0
 31
0.0
  0
LINE
  5
34D
  8
YKK_A1
  6
CONTINUOUS
 10
11208.999977
 20
13223.0279
 30
0.0
 11
11208.999977
 21
12636.0
 31
0.0
  0
LINE
  5
34E
  8
YKK_A1
 10
11235.999623
 20
13292.917227
 30
0.0
 11
11235.999623
 21
12583.0
 31
0.0
  0
LINE
  5
34F
  8
YKK_A1
  6
CONTINUOUS
 10
12026.000389
 20
13767.597577
 30
0.0
 11
12026.000389
 21
12583.0
 31
0.0
  0
LINE
  5
350
  8
YKK_A1
  6
CONTINUOUS
 10
11999.000023
 20
13697.707817
 30
0.0
 11
11999.000023
 21
12636.0
 31
0.0
  0
LINE
  5
351
  8
YKK_A1
  6
CONTINUOUS
 10
12030.000404
 20
13770.001028
 30
0.0
 11
10469.999596
 21
12832.657977
 31
0.0
  0
LINE
  5
352
  8
YKK_A1
  6
CONTINUOUS
 10
12030.000404
 20
13770.001028
 30
0.0
 11
12030.000404
 21
12583.0
 31
0.0
  0
LINE
  5
353
  8
YKK_N1
  6
CONTINUOUS
 10
12230.000374
 20
13770.0
 30
0.0
 11
12230.000374
 21
12600.0
 31
0.0
  0
LINE
  5
354
  8
YKK_A1
  6
CONTINUOUS
 10
11999.000023
 20
12636.0
 30
0.0
 11
11291.000023
 21
12636.0
 31
0.0
  0
LINE
  5
355
  8
YKK_A1
  6
CONTINUOUS
 10
12026.000389
 20
12588.801024
 30
0.0
 11
11263.999687
 21
12588.801024
 31
0.0
  0
LINE
  5
356
  8
YKK_A1
  6
CONTINUOUS
 10
12026.000389
 20
12596.53686
 30
0.0
 11
11263.999687
 21
12596.53686
 31
0.0
  0
LINE
  5
357
  8
YKK_A1
  6
CONTINUOUS
 10
12030.000404
 20
12583.0
 30
0.0
 11
10469.999596
 21
12583.0
 31
0.0
  0
LINE
  5
358
  8
YKK_N1
  6
CONTINUOUS
 10
10464.999992
 20
12383.000015
 30
0.0
 11
12035.000008
 21
12383.000015
 31
0.0
  0
LINE
  5
359
  8
YKK_N1
  6
CONTINUOUS
 10
10464.999992
 20
12383.000015
 30
0.0
 11
10551.602519
 21
12433.000008
 31
0.0
  0
LINE
  5
35A
  8
YKK_N1
  6
CONTINUOUS
 10
10464.999992
 20
12383.000015
 30
0.0
 11
10551.60253
 21
12333.000016
 31
0.0
  0
LINE
  5
35B
  8
YKK_A1
  6
CONTINUOUS
 10
11208.999977
 20
12636.0
 30
0.0
 11
10500.999977
 21
12636.0
 31
0.0
  0
LINE
  5
35C
  8
YKK_A1
  6
CONTINUOUS
 10
11235.999623
 20
12596.53686
 30
0.0
 11
10473.999611
 21
12596.53686
 31
0.0
  0
LINE
  5
35D
  8
YKK_A1
  6
CONTINUOUS
 10
11235.999623
 20
12588.801024
 30
0.0
 11
10473.999611
 21
12588.801024
 31
0.0
  0
LINE
  5
35E
  8
YKK_A1
  6
CONTINUOUS
 10
10473.999611
 20
12835.061428
 30
0.0
 11
10473.999611
 21
12583.0
 31
0.0
  0
LINE
  5
35F
  8
YKK_A1
  6
CONTINUOUS
 10
10500.999977
 20
12797.618582
 30
0.0
 11
10500.999977
 21
12636.0
 31
0.0
  0
LINE
  5
360
  8
YKK_A1
  6
CONTINUOUS
 10
10469.999596
 20
12832.657977
 30
0.0
 11
10469.999596
 21
12583.0
 31
0.0
  0
LINE
  5
361
  8
YKK_N1
  6
CONTINUOUS
 10
10464.999992
 20
12508.0
 30
0.0
 11
10464.999992
 21
12383.000015
 31
0.0
  0
LINE
  5
362
  8
YKK_N1
  6
CONTINUOUS
 10
10551.602519
 20
12433.000008
 30
0.0
 11
10551.602519
 21
12333.000008
 31
0.0
  0
TEXT
  5
363
  8
YKK_A1
 10
11132.333265
 20
12691.0
 30
0.0
 40
50.0
  1
F
  0
TEXT
  5
364
  8
YKK_N1
 10
11104.999977
 20
12395.000015
 30
0.0
 40
60.0
  1
W=1570
  0
CIRCLE
  5
365
  8
YKK_IN
  6
CONTINUOUS
 10
11250.000001
 20
12600.000037
 30
0.0
 40
25.0
  0
LINE
  5
366
  8
YKK_IN
  6
CONTINUOUS
 10
11285.35535
 20
12635.355381
 30
0.0
 11
11214.64465
 21
12564.644682
 31
0.0
  0
LINE
  5
367
  8
YKK_IN
  6
CONTINUOUS
 10
11285.355331
 20
12564.644679
 30
0.0
 11
11214.644652
 21
12635.355358
 31
0.0
  0
LINE
  5
368
  8
YKK_N1
  6
CONTINUOUS
 10
12035.000008
 20
12383.000015
 30
0.0
 11
11948.397441
 21
12332.999999
 31
0.0
  0
LINE
  5
369
  8
YKK_N1
  6
CONTINUOUS
 10
11948.397468
 20
12433.000016
 30
0.0
 11
11948.397468
 21
12333.000016
 31
0.0
  0
LINE
  5
36A
  8
YKK_N1
  6
CONTINUOUS
 10
12230.000374
 20
12600.0
 30
0.0
 11
12105.000374
 21
12600.0
 31
0.0
  0
TEXT
  5
36B
  8
YKK_A1
 10
11922.33331
 20
12691.0
 30
0.0
 40
50.0
  1
F
  0
LINE
  5
36C
  8
YKK_N1
  6
CONTINUOUS
 10
12035.000008
 20
12508.0
 30
0.0
 11
12035.000008
 21
12383.000015
 31
0.0
  0
LINE
  5
36D
  8
YKK_N1
  6
CONTINUOUS
 10
12035.000008
 20
12383.000015
 30
0.0
 11
11948.397468
 21
12433.000016
 31
0.0
  0
LINE
  5
36E
  8
YKK_N1
  6
CONTINUOUS
 10
12230.000374
 20
12600.0
 30
0.0
 11
12280.000375
 21
12686.60254
 31
0.0
  0
LINE
  5
36F
  8
YKK_N1
  6
CONTINUOUS
 10
12280.000373
 20
12686.60254
 30
0.0
 11
12180.000373
 21
12686.60254
 31
0.0
  0
LINE
  5
370
  8
YKK_N1
  6
CONTINUOUS
 10
12230.000374
 20
12600.0
 30
0.0
 11
12180.000373
 21
12686.60254
 31
0.0
  0
LINE
  5
371
  8
YKK_A1
  6
CONTINUOUS
 10
12026.000389
 20
13758.847826
 30
0.0
 11
11263.999687
 21
13300.991613
 31
0.0
  0
LINE
  5
372
  8
YKK_A1
  6
CONTINUOUS
 10
11999.000023
 20
13697.707817
 30
0.0
 11
11291.000023
 21
13272.298499
 31
0.0
  0
LINE
  5
373
  8
YKK_N1
  6
CONTINUOUS
 10
12230.000374
 20
13770.0
 30
0.0
 11
12105.000374
 21
13770.0
 31
0.0
  0
LINE
  5
374
  8
YKK_N1
  6
CONTINUOUS
 10
12230.000374
 20
13770.0
 30
0.0
 11
12280.000375
 21
13683.39746
 31
0.0
  0
LINE
  5
375
  8
YKK_N1
  6
CONTINUOUS
 10
12180.000373
 20
13683.39746
 30
0.0
 11
12280.000373
 21
13683.39746
 31
0.0
  0
LINE
  5
376
  8
YKK_N1
  6
CONTINUOUS
 10
12230.000374
 20
13770.0
 30
0.0
 11
12180.000373
 21
13683.39746
 31
0.0
  0
TEXT
  5
377
  8
0
 10
9100.0
 20
19187.5
 30
0.0
 40
175.0
  1
片流れ型（5寸勾配）
  7
EXTFONT
  0
TEXT
  5
378
  8
0
 10
9100.0
 20
18737.5
 30
0.0
 40
175.0
  1
W=1,570 H=1,170
  7
EXTFONT
  0
LINE
  5
379
  8
YKK_N1
  6
CONTINUOUS
 10
5964.999992
 20
16282.999996
 30
0.0
 11
7535.000008
 21
16282.999996
 31
0.0
  0
LINE
  5
37A
  8
YKK_A1
  6
CONTINUOUS
 10
7530.000377
 20
16482.999981
 30
0.0
 11
5969.999626
 21
16482.999981
 31
0.0
  0
LINE
  5
37B
  8
YKK_A1
  6
CONTINUOUS
 10
6790.999981
 20
16535.999981
 30
0.0
 11
7498.999981
 21
16535.999981
 31
0.0
  0
LINE
  5
37C
  8
YKK_A1
  6
CONTINUOUS
 10
6763.999615
 20
16488.801006
 30
0.0
 11
7526.000316
 21
16488.801006
 31
0.0
  0
LINE
  5
37D
  8
YKK_A1
  6
CONTINUOUS
 10
6763.999615
 20
16496.536841
 30
0.0
 11
7526.000316
 21
16496.536841
 31
0.0
  0
LINE
  5
37E
  8
YKK_A1
  6
CONTINUOUS
 10
6763.999615
 20
17668.001002
 30
0.0
 11
7530.000375
 21
17285.000619
 31
0.0
  0
LINE
  5
37F
  8
YKK_A1
  6
CONTINUOUS
 10
6790.999981
 20
17603.070137
 30
0.0
 11
7498.999981
 21
17249.070135
 31
0.0
  0
LINE
  5
380
  8
YKK_A1
  6
CONTINUOUS
 10
6763.999615
 20
17659.615747
 30
0.0
 11
7526.000316
 21
17278.615394
 31
0.0
  0
LINE
  5
381
  8
YKK_A1
  6
CONTINUOUS
 10
6709.000023
 20
16535.999981
 30
0.0
 11
6001.000023
 21
16535.999981
 31
0.0
  0
LINE
  5
382
  8
YKK_A1
  6
CONTINUOUS
 10
6736.000389
 20
16488.801006
 30
0.0
 11
5973.999687
 21
16488.801006
 31
0.0
  0
LINE
  5
383
  8
YKK_A1
  6
CONTINUOUS
 10
6736.000389
 20
16496.536841
 30
0.0
 11
5973.999687
 21
16496.536841
 31
0.0
  0
LINE
  5
384
  8
YKK_A1
  6
CONTINUOUS
 10
6736.000389
 20
17668.001002
 30
0.0
 11
5969.999628
 21
17285.000619
 31
0.0
  0
LINE
  5
385
  8
YKK_A1
  6
CONTINUOUS
 10
6709.000023
 20
17603.070137
 30
0.0
 11
6001.000023
 21
17249.070135
 31
0.0
  0
LINE
  5
386
  8
YKK_A1
  6
CONTINUOUS
 10
6736.000389
 20
17659.615747
 30
0.0
 11
5973.999687
 21
17278.615394
 31
0.0
  0
LINE
  5
387
  8
YKK_A1
  6
CONTINUOUS
 10
6001.000023
 20
17249.070135
 30
0.0
 11
6001.000023
 21
16535.999981
 31
0.0
  0
LINE
  5
388
  8
YKK_A1
  6
CONTINUOUS
 10
5973.999687
 20
17287.000649
 30
0.0
 11
5973.999687
 21
16482.999981
 31
0.0
  0
LINE
  5
389
  8
YKK_A1
  6
CONTINUOUS
 10
5969.999626
 20
17285.000618
 30
0.0
 11
5969.999626
 21
16482.999981
 31
0.0
  0
LINE
  5
38A
  8
YKK_N1
  6
CONTINUOUS
 10
5964.999992
 20
16407.999981
 30
0.0
 11
5964.999992
 21
16282.999996
 31
0.0
  0
LINE
  5
38B
  8
YKK_N1
  6
CONTINUOUS
 10
5964.999992
 20
16282.999996
 30
0.0
 11
6051.602519
 21
16332.999989
 31
0.0
  0
LINE
  5
38C
  8
YKK_A1
  6
CONTINUOUS
 10
6790.999981
 20
17603.070137
 30
0.0
 11
6790.999981
 21
16535.999981
 31
0.0
  0
LINE
  5
38D
  8
YKK_A1
  6
CONTINUOUS
 10
6763.999615
 20
17668.001002
 30
0.0
 11
6763.999615
 21
16482.999981
 31
0.0
  0
LINE
  5
38E
  8
YKK_A1
  6
CONTINUOUS
 10
6709.000023
 20
17603.070137
 30
0.0
 11
6709.000023
 21
16535.999981
 31
0.0
  0
LINE
  5
38F
  8
YKK_A1
  6
CONTINUOUS
 10
6736.000389
 20
17668.001002
 30
0.0
 11
6736.000389
 21
16482.999981
 31
0.0
  0
LINE
  5
390
  8
YKK_IN
  6
CONTINUOUS
 10
6714.644634
 20
16464.644637
 30
0.0
 11
6785.355333
 21
16535.355337
 31
0.0
  0
LINE
  5
391
  8
YKK_IN
  6
CONTINUOUS
 10
6714.644653
 20
16535.35534
 30
0.0
 11
6785.355332
 21
16464.64466
 31
0.0
  0
CIRCLE
  5
392
  8
YKK_IN
  6
CONTINUOUS
 10
6749.999983
 20
16499.999981
 30
0.0
 40
25.0
  0
TEXT
  5
393
  8
YKK_N1
 10
6604.999977
 20
16294.999996
 30
0.0
 40
60.0
  1
W=1570
  0
TEXT
  5
394
  8
YKK_A1
 10
6632.33331
 20
16590.999981
 30
0.0
 40
50.0
  1
F
  0
LINE
  5
395
  8
YKK_A1
  6
CONTINUOUS
 10
7498.999981
 20
17249.070135
 30
0.0
 11
7498.999981
 21
16535.999981
 31
0.0
  0
LINE
  5
396
  8
YKK_A1
  6
CONTINUOUS
 10
7526.000316
 20
17287.000649
 30
0.0
 11
7526.000316
 21
16482.999981
 31
0.0
  0
LINE
  5
397
  8
YKK_A1
  6
CONTINUOUS
 10
7530.000377
 20
17285.000618
 30
0.0
 11
7530.000377
 21
16482.999981
 31
0.0
  0
LINE
  5
398
  8
YKK_N1
  6
CONTINUOUS
 10
7730.000377
 20
17669.999981
 30
0.0
 11
7730.000377
 21
16499.999981
 31
0.0
  0
TEXT
  5
399
  8
YKK_N1
 10
7718.000377
 20
16936.499981
 30
0.0
 40
60.0
  1
H=1170
 50
90.0
  0
TEXT
  5
39A
  8
YKK_A1
 10
7422.333268
 20
16590.999981
 30
0.0
 40
50.0
  1
F
  0
LINE
  5
39B
  8
YKK_N1
  6
CONTINUOUS
 10
7535.000008
 20
16282.999996
 30
0.0
 11
7448.397468
 21
16332.999997
 31
0.0
  0
LINE
  5
39C
  8
YKK_N1
  6
CONTINUOUS
 10
7535.000008
 20
16407.999981
 30
0.0
 11
7535.000008
 21
16282.999996
 31
0.0
  0
LINE
  5
39D
  8
YKK_N1
  6
CONTINUOUS
 10
7730.000377
 20
16499.999981
 30
0.0
 11
7780.000378
 21
16586.602521
 31
0.0
  0
LINE
  5
39E
  8
YKK_N1
  6
CONTINUOUS
 10
7780.000377
 20
16586.602521
 30
0.0
 11
7680.000377
 21
16586.602521
 31
0.0
  0
LINE
  5
39F
  8
YKK_N1
  6
CONTINUOUS
 10
7730.000377
 20
16499.999981
 30
0.0
 11
7680.000377
 21
16586.602521
 31
0.0
  0
LINE
  5
3A0
  8
YKK_N1
  6
CONTINUOUS
 10
7730.000377
 20
16499.999981
 30
0.0
 11
7605.000377
 21
16499.999981
 31
0.0
  0
LINE
  5
3A1
  8
YKK_N1
  6
CONTINUOUS
 10
7680.000377
 20
17583.397441
 30
0.0
 11
7780.000377
 21
17583.397441
 31
0.0
  0
LINE
  5
3A2
  8
YKK_N1
  6
CONTINUOUS
 10
7730.000377
 20
17669.999981
 30
0.0
 11
7780.000378
 21
17583.397441
 31
0.0
  0
LINE
  5
3A3
  8
YKK_N1
  6
CONTINUOUS
 10
7730.000377
 20
17669.999981
 30
0.0
 11
7680.000377
 21
17583.397441
 31
0.0
  0
LINE
  5
3A4
  8
YKK_N1
  6
CONTINUOUS
 10
7730.000377
 20
17669.999981
 30
0.0
 11
7605.000377
 21
17669.999981
 31
0.0
  0
LINE
  5
3A5
  8
YKK_A1
  6
CONTINUOUS
 10
11999.000023
 20
17603.070156
 30
0.0
 11
11291.000023
 21
17249.070154
 31
0.0
  0
LINE
  5
3A6
  8
YKK_A1
  6
CONTINUOUS
 10
12026.000389
 20
17659.615766
 30
0.0
 11
11263.999687
 21
17278.615413
 31
0.0
  0
LINE
  5
3A7
  8
YKK_A1
  6
CONTINUOUS
 10
11999.000023
 20
16536.0
 30
0.0
 11
11291.000023
 21
16536.0
 31
0.0
  0
LINE
  5
3A8
  8
YKK_A1
  6
CONTINUOUS
 10
12026.000389
 20
16488.801024
 30
0.0
 11
11263.999687
 21
16488.801024
 31
0.0
  0
LINE
  5
3A9
  8
YKK_A1
  6
CONTINUOUS
 10
12026.000389
 20
16496.53686
 30
0.0
 11
11263.999687
 21
16496.53686
 31
0.0
  0
LINE
  5
3AA
  8
YKK_N1
  6
CONTINUOUS
 10
10464.999992
 20
16283.000015
 30
0.0
 11
12035.000008
 21
16283.000015
 31
0.0
  0
LINE
  5
3AB
  8
YKK_A1
  6
CONTINUOUS
 10
12030.000404
 20
16483.0
 30
0.0
 11
10469.999596
 21
16483.0
 31
0.0
  0
LINE
  5
3AC
  8
YKK_A1
  6
CONTINUOUS
 10
12030.000404
 20
17670.001028
 30
0.0
 11
10469.999596
 21
16890.00062
 31
0.0
  0
LINE
  5
3AD
  8
YKK_N1
  6
CONTINUOUS
 10
10464.999992
 20
16283.000015
 30
0.0
 11
10551.602519
 21
16333.000008
 31
0.0
  0
LINE
  5
3AE
  8
YKK_A1
  6
CONTINUOUS
 10
11208.999977
 20
17208.070131
 30
0.0
 11
10500.999977
 21
16854.070129
 31
0.0
  0
LINE
  5
3AF
  8
YKK_A1
  6
CONTINUOUS
 10
11235.999623
 20
16488.801024
 30
0.0
 11
10473.999611
 21
16488.801024
 31
0.0
  0
LINE
  5
3B0
  8
YKK_A1
  6
CONTINUOUS
 10
11235.999623
 20
16496.53686
 30
0.0
 11
10473.999611
 21
16496.53686
 31
0.0
  0
LINE
  5
3B1
  8
YKK_A1
  6
CONTINUOUS
 10
11208.999977
 20
16536.0
 30
0.0
 11
10500.999977
 21
16536.0
 31
0.0
  0
LINE
  5
3B2
  8
YKK_A1
  6
CONTINUOUS
 10
11235.999623
 20
17264.61538
 30
0.0
 11
10473.999611
 21
16883.615372
 31
0.0
  0
LINE
  5
3B3
  8
YKK_A1
  6
CONTINUOUS
 10
10469.999596
 20
16890.00062
 30
0.0
 11
10469.999596
 21
16483.0
 31
0.0
  0
LINE
  5
3B4
  8
YKK_A1
  6
CONTINUOUS
 10
10473.999611
 20
16892.000627
 30
0.0
 11
10473.999611
 21
16483.0
 31
0.0
  0
LINE
  5
3B5
  8
YKK_A1
  6
CONTINUOUS
 10
10500.999977
 20
16854.070129
 30
0.0
 11
10500.999977
 21
16536.0
 31
0.0
  0
LINE
  5
3B6
  8
YKK_N1
  6
CONTINUOUS
 10
10464.999992
 20
16408.0
 30
0.0
 11
10464.999992
 21
16283.000015
 31
0.0
  0
LINE
  5
3B7
  8
YKK_A1
 10
11235.999623
 20
16483.0
 30
0.0
 11
11235.999623
 21
17273.000635
 31
0.0
  0
LINE
  5
3B8
  8
YKK_A1
  6
CONTINUOUS
 10
11208.999977
 20
17208.070131
 30
0.0
 11
11208.999977
 21
16536.0
 31
0.0
  0
LINE
  5
3B9
  8
YKK_A1
  6
CONTINUOUS
 10
11291.000023
 20
17249.070154
 30
0.0
 11
11291.000023
 21
16536.0
 31
0.0
  0
LINE
  5
3BA
  8
YKK_A1
  6
CONTINUOUS
 10
11263.999687
 20
17287.000668
 30
0.0
 11
11263.999687
 21
16483.0
 31
0.0
  0
TEXT
  5
3BB
  8
YKK_A1
 10
11132.333265
 20
16591.0
 30
0.0
 40
50.0
  1
F
  0
TEXT
  5
3BC
  8
YKK_N1
 10
11104.999977
 20
16295.000015
 30
0.0
 40
60.0
  1
W=1570
  0
LINE
  5
3BD
  8
YKK_IN
  6
CONTINUOUS
 10
11214.644639
 20
16464.644656
 30
0.0
 11
11285.355339
 21
16535.355356
 31
0.0
  0
LINE
  5
3BE
  8
YKK_IN
  6
CONTINUOUS
 10
11214.644658
 20
16535.355358
 30
0.0
 11
11285.355338
 21
16464.644679
 31
0.0
  0
CIRCLE
  5
3BF
  8
YKK_IN
  6
CONTINUOUS
 10
11249.999988
 20
16500.0
 30
0.0
 40
25.0
  0
LINE
  5
3C0
  8
YKK_N1
  6
CONTINUOUS
 10
12230.000374
 20
17670.0
 30
0.0
 11
12230.000374
 21
16500.0
 31
0.0
  0
LINE
  5
3C1
  8
YKK_A1
  6
CONTINUOUS
 10
11999.000023
 20
17603.070156
 30
0.0
 11
11999.000023
 21
16536.0
 31
0.0
  0
LINE
  5
3C2
  8
YKK_A1
  6
CONTINUOUS
 10
12030.000404
 20
17670.001028
 30
0.0
 11
12030.000404
 21
16483.0
 31
0.0
  0
LINE
  5
3C3
  8
YKK_A1
  6
CONTINUOUS
 10
12026.000389
 20
17668.001021
 30
0.0
 11
12026.000389
 21
16483.0
 31
0.0
  0
TEXT
  5
3C4
  8
YKK_N1
 10
12218.000374
 20
16936.5
 30
0.0
 40
60.0
  1
H=1170
 50
90.0
  0
LINE
  5
3C5
  8
YKK_N1
  6
CONTINUOUS
 10
12230.000374
 20
16500.0
 30
0.0
 11
12105.000374
 21
16500.0
 31
0.0
  0
TEXT
  5
3C6
  8
YKK_A1
 10
11922.33331
 20
16591.0
 30
0.0
 40
50.0
  1
F
  0
LINE
  5
3C7
  8
YKK_N1
  6
CONTINUOUS
 10
12035.000008
 20
16408.0
 30
0.0
 11
12035.000008
 21
16283.000015
 31
0.0
  0
LINE
  5
3C8
  8
YKK_N1
  6
CONTINUOUS
 10
12035.000008
 20
16283.000015
 30
0.0
 11
11948.397468
 21
16333.000016
 31
0.0
  0
LINE
  5
3C9
  8
YKK_N1
  6
CONTINUOUS
 10
12230.000374
 20
16500.0
 30
0.0
 11
12280.000375
 21
16586.60254
 31
0.0
  0
LINE
  5
3CA
  8
YKK_N1
  6
CONTINUOUS
 10
12230.000374
 20
16500.0
 30
0.0
 11
12180.000373
 21
16586.60254
 31
0.0
  0
LINE
  5
3CB
  8
YKK_N1
  6
CONTINUOUS
 10
12280.000373
 20
16586.60254
 30
0.0
 11
12180.000373
 21
16586.60254
 31
0.0
  0
LINE
  5
3CC
  8
YKK_N1
  6
CONTINUOUS
 10
12230.000374
 20
17670.0
 30
0.0
 11
12105.000374
 21
17670.0
 31
0.0
  0
LINE
  5
3CD
  8
YKK_N1
  6
CONTINUOUS
 10
12230.000374
 20
17670.0
 30
0.0
 11
12280.000375
 21
17583.39746
 31
0.0
  0
LINE
  5
3CE
  8
YKK_N1
  6
CONTINUOUS
 10
12230.000374
 20
17670.0
 30
0.0
 11
12180.000373
 21
17583.39746
 31
0.0
  0
LINE
  5
3CF
  8
YKK_N1
  6
CONTINUOUS
 10
12180.000373
 20
17583.39746
 30
0.0
 11
12280.000373
 21
17583.39746
 31
0.0
  0
LINE
  5
3D0
  8
YKK_F1
 62
     7
 10
27000.0
 20
0.0
 30
0.0
 11
27000.0
 21
19500.0
 31
0.0
  0
LINE
  5
3D1
  8
YKK_F1
 62
     7
 10
22500.0
 20
0.0
 30
0.0
 11
22500.0
 21
19500.0
 31
0.0
  0
LINE
  5
3D2
  8
YKK_F1
 62
     7
 10
18000.0
 20
0.0
 30
0.0
 11
18000.0
 21
19500.0
 31
0.0
  0
LINE
  5
3D3
  8
YKK_F1
 62
     7
 10
27500.0
 20
0.0
 30
0.0
 11
27500.0
 21
20000.0
 31
0.0
  0
LINE
  5
3D4
  8
YKK_F1
 62
     7
 10
18000.0
 20
14700.0
 30
0.0
 11
27000.0
 21
14700.0
 31
0.0
  0
LINE
  5
3D5
  8
YKK_F1
 62
     7
 10
18000.0
 20
15150.0
 30
0.0
 11
27000.0
 21
15150.0
 31
0.0
  0
LINE
  5
3D6
  8
YKK_F1
 62
     7
 10
18000.0
 20
15600.0
 30
0.0
 11
27000.0
 21
15600.0
 31
0.0
  0
TEXT
  5
3D7
  8
YKK_N1
  6
CONTINUOUS
 10
16018.99562
 20
16215.000031
 30
0.0
 40
60.0
  1
25
 50
90.0
  0
LINE
  5
3D8
  8
YKK_Z1
  6
CONTINUOUS
 10
15500.000103
 20
16220.000557
 30
0.0
 11
15500.000103
 21
16367.72826
 31
0.0
  0
LINE
  5
3D9
  8
YKK_Z1
  6
CONTINUOUS
 10
15500.000103
 20
16367.72826
 30
0.0
 11
15500.000103
 21
16220.000557
 31
0.0
  0
LINE
  5
3DA
  8
YKK_Z1
  6
CONTINUOUS
 10
15482.000015
 20
16367.724099
 30
0.0
 11
15482.000015
 21
16179.233686
 31
0.0
  0
LINE
  5
3DB
  8
YKK_Z1
  6
CONTINUOUS
 10
15470.000015
 20
16367.724099
 30
0.0
 11
15470.000015
 21
16179.233686
 31
0.0
  0
LINE
  5
3DC
  8
YKK_Z1
  6
CONTINUOUS
 10
15617.500015
 20
16367.727797
 30
0.0
 11
15617.500015
 21
16160.000174
 31
0.0
  0
LINE
  5
3DD
  8
YKK_Z1
  6
CONTINUOUS
 10
15605.000015
 20
16367.727797
 30
0.0
 11
15605.000015
 21
16160.000174
 31
0.0
  0
LINE
  5
3DE
  8
YKK_N1
  6
CONTINUOUS
 10
15705.995651
 20
16195.000031
 30
0.0
 11
16030.99562
 21
16195.000031
 31
0.0
  0
LINE
  5
3DF
  8
YKK_N1
  6
CONTINUOUS
 10
15705.995651
 20
16170.000031
 30
0.0
 11
16030.99562
 21
16170.000031
 31
0.0
  0
LINE
  5
3E0
  8
YKK_N1
  6
CONTINUOUS
 10
15705.995651
 20
15000.0
 30
0.0
 11
16030.99562
 21
15000.0
 31
0.0
  0
LINE
  5
3E1
  8
YKK_N1
  6
CONTINUOUS
 10
15705.995651
 20
14968.0
 30
0.0
 11
16030.99562
 21
14968.0
 31
0.0
  0
LINE
  5
3E2
  8
YKK_N1
  6
CONTINUOUS
 10
15455.999952
 20
14739.062826
 30
0.0
 11
15455.999952
 21
14614.062811
 31
0.0
  0
LINE
  5
3E3
  8
YKK_N1
  6
CONTINUOUS
 10
15542.999937
 20
14739.062826
 30
0.0
 11
15542.999937
 21
14614.062811
 31
0.0
  0
LINE
  5
3E4
  8
YKK_N1
  6
CONTINUOUS
 10
15499.999937
 20
14739.062826
 30
0.0
 11
15499.999937
 21
14614.062811
 31
0.0
  0
LINE
  5
3E5
  8
YKK_N1
  6
CONTINUOUS
 10
15527.999937
 20
14739.062826
 30
0.0
 11
15527.999937
 21
14614.062811
 31
0.0
  0
TEXT
  5
3E6
  8
YKK_N1
  6
CONTINUOUS
 10
15337.999952
 20
14626.062826
 30
0.0
 40
60.0
  1
44
  0
TEXT
  5
3E7
  8
YKK_N1
  6
CONTINUOUS
 10
15568.999937
 20
14626.062826
 30
0.0
 40
60.0
  1
15
  0
LINE
  5
3E8
  8
YKK_N1
  6
CONTINUOUS
 10
15455.999952
 20
14614.062811
 30
0.0
 11
15499.999937
 21
14614.062811
 31
0.0
  0
TEXT
  5
3E9
  8
YKK_N1
  6
CONTINUOUS
 10
15463.499937
 20
14534.062811
 30
0.0
 40
60.0
  1
28
  0
CIRCLE
  5
3EA
  8
YKK_N1
  6
CONTINUOUS
 10
15455.999952
 20
14614.062811
 30
0.0
 40
5.0
  0
LINE
  5
3EB
  8
YKK_N1
  6
CONTINUOUS
 10
15499.999937
 20
14614.062811
 30
0.0
 11
15527.999937
 21
14614.062811
 31
0.0
  0
CIRCLE
  5
3EC
  8
YKK_N1
  6
CONTINUOUS
 10
15499.999937
 20
14614.062811
 30
0.0
 40
5.0
  0
CIRCLE
  5
3ED
  8
YKK_N1
  6
CONTINUOUS
 10
15542.999937
 20
14614.062811
 30
0.0
 40
5.0
  0
CIRCLE
  5
3EE
  8
YKK_N1
  6
CONTINUOUS
 10
15527.999937
 20
14614.062811
 30
0.0
 40
5.0
  0
LINE
  5
3EF
  8
YKK_N1
  6
CONTINUOUS
 10
15527.999937
 20
14614.062811
 30
0.0
 11
15542.999937
 21
14614.062811
 31
0.0
  0
LINE
  5
3F0
  8
YKK_N1
  6
CONTINUOUS
 10
15527.999951
 20
15453.501581
 30
0.0
 11
15527.999951
 21
15578.501581
 31
0.0
  0
LINE
  5
3F1
  8
YKK_C1
 10
15455.999951
 20
16152.003163
 30
0.0
 11
15455.999951
 21
15004.999998
 31
0.0
  0
LINE
  5
3F2
  8
YKK_C1
 10
15500.000884
 20
15024.000043
 30
0.0
 11
15500.000884
 21
16136.000056
 31
0.0
  0
LINE
  5
3F3
  8
YKK_C1
 10
15478.004664
 20
15023.997672
 30
0.0
 11
15478.004664
 21
16135.997685
 31
0.0
  0
LINE
  5
3F4
  8
YKK_C1
 10
15524.199953
 20
15049.999754
 30
0.0
 11
15524.199953
 21
16130.000109
 31
0.0
  0
LINE
  5
3F5
  8
YKK_C1
 10
15542.999953
 20
15049.999754
 30
0.0
 11
15542.999953
 21
16130.000109
 31
0.0
  0
LINE
  5
3F6
  8
YKK_C2
  6
CONTINUOUS
 10
15630.995651
 20
15020.000778
 30
0.0
 11
15630.995651
 21
16160.000174
 31
0.0
  0
TEXT
  5
3F7
  8
YKK_N1
  6
CONTINUOUS
 10
15818.995651
 20
15052.860883
 30
0.0
 40
60.0
  1
40
 50
90.0
  0
LINE
  5
3F8
  8
YKK_C2
 10
15627.999959
 20
15020.000778
 30
0.0
 11
15630.995651
 21
15020.000778
 31
0.0
  0
LINE
  5
3F9
  8
YKK_C1
 10
15516.697175
 20
15013.000778
 30
0.0
 11
15470.999951
 21
15013.000778
 31
0.0
  0
CIRCLE
  5
3FA
  8
YKK_IN
  6
CONTINUOUS
 10
15499.999005
 20
14999.999754
 30
0.0
 40
25.0
  0
LINE
  5
3FB
  8
YKK_C1
 10
15476.999951
 20
14997.600778
 30
0.0
 11
15495.699951
 21
14998.580804
 31
0.0
  0
LINE
  5
3FC
  8
YKK_C1
 10
15495.699951
 20
14989.300778
 30
0.0
 11
15473.499951
 21
14989.300778
 31
0.0
  0
LINE
  5
3FD
  8
YKK_Z1
  6
CONTINUOUS
 10
15482.000015
 20
14978.500778
 30
0.0
 11
15497.00003
 21
14978.500778
 31
0.0
  0
LINE
  5
3FE
  8
YKK_Z1
  6
CONTINUOUS
 10
15497.000015
 20
14978.500778
 30
0.0
 11
15483.000015
 21
14978.500778
 31
0.0
  0
LINE
  5
3FF
  8
YKK_Z1
  6
CONTINUOUS
 10
15482.000015
 20
14933.500778
 30
0.0
 11
15499.001042
 21
14933.500778
 31
0.0
  0
LINE
  5
400
  8
YKK_IN
  6
CONTINUOUS
 10
15535.354344
 20
14964.644415
 30
0.0
 11
15464.643666
 21
15035.355093
 31
0.0
  0
LINE
  5
401
  8
YKK_IN
  6
CONTINUOUS
 10
15535.354344
 20
15035.355093
 30
0.0
 11
15464.643666
 21
14964.644415
 31
0.0
  0
LINE
  5
402
  8
YKK_Z1
  6
CONTINUOUS
 10
15496.985992
 20
14970.965721
 30
0.0
 11
15482.000015
 21
14933.500778
 31
0.0
  0
LINE
  5
403
  8
YKK_C1
 10
15470.999951
 20
14996.35488
 30
0.0
 11
15470.999951
 21
15036.000778
 31
0.0
  0
LINE
  5
404
  8
YKK_C1
 10
15470.999951
 20
14997.600778
 30
0.0
 11
15476.999951
 21
14997.600778
 31
0.0
  0
LINE
  5
405
  8
YKK_C1
 10
15473.499951
 20
14989.300778
 30
0.0
 11
15473.499951
 21
14993.000778
 31
0.0
  0
ARC
  5
406
  8
YKK_C1
  6
BYBLOCK
 10
15469.999951
 20
14993.000778
 30
0.0
 40
3.500001
 50
0.000009
 51
73.398444
  0
LINE
  5
407
  8
YKK_C1
  6
BYBLOCK
 10
15466.499951
 20
14993.453884
 30
0.0
 11
15466.499951
 21
14989.167446
 31
0.0
  0
ARC
  5
408
  8
YKK_C1
  6
BYBLOCK
 10
15469.499952
 20
14993.453884
 30
0.0
 40
3.000001
 50
93.000018
 51
179.999992
  0
LINE
  5
409
  8
YKK_C1
  6
BYBLOCK
 10
15470.999951
 20
14996.536614
 30
0.0
 11
15469.342943
 21
14996.449773
 31
0.0
  0
LINE
  5
40A
  8
YKK_C2
 10
15479.630154
 20
14978.500778
 30
0.0
 11
15480.000015
 21
14978.870639
 31
0.0
1001
ACAD
1010
0.0
1020
0.0
1030
0.0
  0
LINE
  5
40B
  8
YKK_C2
  6
CONTINUOUS
 10
15480.000015
 20
14978.500778
 30
0.0
 11
15480.000015
 21
14988.500778
 31
0.0
  0
LINE
  5
40C
  8
YKK_C2
 10
15469.48146
 20
14985.322647
 30
0.0
 11
15472.844234
 21
14988.685421
 31
0.0
1001
ACAD
1010
0.0
1020
0.0
1030
0.0
  0
ARC
  5
40D
  8
YKK_C2
 10
15464.532861
 20
14982.993787
 30
0.0
 40
5.469207
 50
358.429831
 51
66.275075
  0
LINE
  5
40E
  8
YKK_C2
 10
15467.608923
 20
14989.106964
 30
0.0
 11
15469.347853
 21
14990.845894
 31
0.0
1001
ACAD
1010
0.0
1020
0.0
1030
0.0
  0
LINE
  5
40F
  8
YKK_C2
 10
15470.000015
 20
14978.500778
 30
0.0
 11
15470.000015
 21
14983.250778
 31
0.0
  0
LINE
  5
410
  8
YKK_C2
  6
CONTINUOUS
 10
15482.000015
 20
14978.500778
 30
0.0
 11
15470.000015
 21
14978.500778
 31
0.0
  0
LINE
  5
411
  8
YKK_C2
 10
15470.000015
 20
14980.184348
 30
0.0
 11
15478.316445
 21
14988.500778
 31
0.0
1001
ACAD
1010
0.0
1020
0.0
1030
0.0
  0
LINE
  5
412
  8
YKK_C2
 10
15473.9733
 20
14978.500778
 30
0.0
 11
15480.024059
 21
14984.551538
 31
0.0
1001
ACAD
1010
0.0
1020
0.0
1030
0.0
  0
LINE
  5
413
  8
YKK_C2
  6
CONTINUOUS
 10
15483.000015
 20
14978.500778
 30
0.0
 11
15470.000015
 21
14978.500778
 31
0.0
  0
LINE
  5
414
  8
YKK_C1
 10
15474.999951
 20
15026.500778
 30
0.0
 11
15470.999951
 21
15026.500778
 31
0.0
  0
LINE
  5
415
  8
YKK_C1
 10
15474.999951
 20
15029.000778
 30
0.0
 11
15474.999951
 21
15026.500778
 31
0.0
  0
LINE
  5
416
  8
YKK_C1
 10
15474.999951
 20
15036.000778
 30
0.0
 11
15474.999951
 21
15033.000778
 31
0.0
  0
LINE
  5
417
  8
YKK_C1
 10
15470.999951
 20
15036.000778
 30
0.0
 11
15474.999951
 21
15036.000778
 31
0.0
  0
LINE
  5
418
  8
YKK_C1
  6
BYBLOCK
 10
15455.999951
 20
14988.800779
 30
0.0
 11
15455.999951
 21
14983.000778
 31
0.0
  0
LINE
  5
419
  8
YKK_C1
  6
BYBLOCK
 10
15455.999951
 20
14983.000778
 30
0.0
 11
15458.999951
 21
14983.000778
 31
0.0
  0
LINE
  5
41A
  8
YKK_C1
  6
BYBLOCK
 10
15466.499951
 20
14989.167446
 30
0.0
 11
15455.999951
 21
14988.800779
 31
0.0
  0
LINE
  5
41B
  8
YKK_Z1
  6
CONTINUOUS
 10
15482.000015
 20
14814.062826
 30
0.0
 11
15482.000015
 21
14978.500778
 31
0.0
  0
LINE
  5
41C
  8
YKK_Z1
  6
CONTINUOUS
 10
15470.000015
 20
14814.062826
 30
0.0
 11
15470.000015
 21
14978.500778
 31
0.0
  0
LINE
  5
41D
  8
YKK_Z1
  6
CONTINUOUS
 10
15482.000015
 20
14933.500778
 30
0.0
 11
15482.000015
 21
14978.500778
 31
0.0
  0
LINE
  5
41E
  8
YKK_C2
  6
BYBLOCK
 10
15627.999959
 20
15020.000778
 30
0.0
 11
15627.999959
 21
15038.000778
 31
0.0
  0
ARC
  5
41F
  8
YKK_C2
  6
BYBLOCK
 10
15625.999959
 20
15038.000778
 30
0.0
 40
2.0
 50
0.000009
 51
89.999991
  0
LINE
  5
420
  8
YKK_Z1
  6
CONTINUOUS
 10
15617.500015
 20
15020.000778
 30
0.0
 11
15605.000015
 21
15020.000778
 31
0.0
  0
LINE
  5
421
  8
YKK_C1
 10
15499.999951
 20
14984.650778
 30
0.0
 11
15497.999951
 21
14984.650778
 31
0.0
  0
LINE
  5
422
  8
YKK_C1
 10
15495.699951
 20
14988.000778
 30
0.0
 11
15495.699951
 21
15013.000778
 31
0.0
  0
LINE
  5
423
  8
YKK_C1
 10
15497.999951
 20
14988.000778
 30
0.0
 11
15495.699951
 21
14988.000778
 31
0.0
  0
LINE
  5
424
  8
YKK_C1
 10
15497.999951
 20
14968.000778
 30
0.0
 11
15497.999951
 21
14988.000778
 31
0.0
  0
LINE
  5
425
  8
YKK_C1
 10
15499.999951
 20
14968.000778
 30
0.0
 11
15497.999951
 21
14968.000778
 31
0.0
  0
LINE
  5
426
  8
YKK_C1
 10
15527.999951
 20
15023.300778
 30
0.0
 11
15527.999951
 21
15000.000778
 31
0.0
  0
LINE
  5
427
  8
YKK_Z1
  6
CONTINUOUS
 10
15528.000015
 20
15020.000791
 30
0.0
 11
15528.000015
 21
15000.000772
 31
0.0
  0
LINE
  5
428
  8
YKK_C1
 10
15518.499952
 20
15013.500778
 30
0.0
 11
15527.999951
 21
15013.500778
 31
0.0
  0
ARC
  5
429
  8
YKK_C1
  6
BYBLOCK
 10
15518.499952
 20
15010.000776
 30
0.0
 40
3.500002
 50
90.000003
 51
121.002709
  0
LINE
  5
42A
  8
YKK_C1
 10
15526.699951
 20
15027.200778
 30
0.0
 11
15524.699951
 21
15027.200778
 31
0.0
  0
LINE
  5
42B
  8
YKK_C1
 10
15515.899951
 20
15036.000778
 30
0.0
 11
15526.699951
 21
15036.000778
 31
0.0
  0
LINE
  5
42C
  8
YKK_C1
 10
15515.899951
 20
15033.000778
 30
0.0
 11
15515.899951
 21
15036.000778
 31
0.0
  0
LINE
  5
42D
  8
YKK_C1
 10
15508.999952
 20
15033.000778
 30
0.0
 11
15515.899951
 21
15033.000778
 31
0.0
  0
LINE
  5
42E
  8
YKK_C1
 10
15507.399951
 20
15036.000778
 30
0.0
 11
15508.999952
 21
15033.000778
 31
0.0
  0
LINE
  5
42F
  8
YKK_C1
 10
15504.999951
 20
15036.000778
 30
0.0
 11
15507.399951
 21
15036.000778
 31
0.0
  0
LINE
  5
430
  8
YKK_C1
 10
15504.999951
 20
15032.000778
 30
0.0
 11
15504.999951
 21
15036.000778
 31
0.0
  0
LINE
  5
431
  8
YKK_C1
 10
15524.699951
 20
15019.900778
 30
0.0
 11
15524.699951
 21
15036.000778
 31
0.0
  0
LINE
  5
432
  8
YKK_C1
 10
15527.999951
 20
15019.900778
 30
0.0
 11
15524.699951
 21
15019.900778
 31
0.0
  0
LINE
  5
433
  8
YKK_C1
 10
15525.599951
 20
15026.300778
 30
0.0
 11
15525.599951
 21
15021.300778
 31
0.0
  0
LINE
  5
434
  8
YKK_C1
 10
15542.999951
 20
15037.500778
 30
0.0
 11
15542.999951
 21
15040.000778
 31
0.0
  0
LINE
  5
435
  8
YKK_C1
 10
15542.999951
 20
15040.000778
 30
0.0
 11
15524.199951
 21
15040.000778
 31
0.0
  0
LINE
  5
436
  8
YKK_C1
 10
15524.199951
 20
15040.000778
 30
0.0
 11
15524.199951
 21
15037.000778
 31
0.0
  0
LINE
  5
437
  8
YKK_C1
 10
15526.699951
 20
15040.000778
 30
0.0
 11
15526.699951
 21
15026.300778
 31
0.0
  0
LINE
  5
438
  8
YKK_C1
 10
15526.699951
 20
15026.300778
 30
0.0
 11
15525.599951
 21
15026.300778
 31
0.0
  0
LINE
  5
439
  8
YKK_C2
  6
CONTINUOUS
 10
15570.256949
 20
15040.001242
 30
0.0
 11
15590.256949
 21
15020.001242
 31
0.0
  0
LINE
  5
43A
  8
YKK_C2
  6
BYBLOCK
 10
15542.999951
 20
15040.000778
 30
0.0
 11
15542.999951
 21
15037.000778
 31
0.0
  0
POINT
  5
43B
  8
YKK_C2
 10
15542.999951
 20
15037.800778
 30
0.0
  0
LINE
  5
43C
  8
YKK_C2
  6
BYBLOCK
 10
15528.999951
 20
15035.000778
 30
0.0
 11
15528.999951
 21
15020.000778
 31
0.0
  0
LINE
  5
43D
  8
YKK_C2
  6
BYBLOCK
 10
15530.999951
 20
15037.000778
 30
0.0
 11
15528.999951
 21
15035.000778
 31
0.0
  0
LINE
  5
43E
  8
YKK_C2
  6
CONTINUOUS
 10
15528.997064
 20
15024.692584
 30
0.0
 11
15533.688407
 21
15020.001242
 31
0.0
  0
LINE
  5
43F
  8
YKK_C2
  6
BYBLOCK
 10
15542.999951
 20
15037.000778
 30
0.0
 11
15530.999951
 21
15037.000778
 31
0.0
  0
LINE
  5
440
  8
YKK_C2
  6
CONTINUOUS
 10
15542.997064
 20
15038.976855
 30
0.0
 11
15561.972678
 21
15020.001242
 31
0.0
  0
LINE
  5
441
  8
YKK_Z1
  6
CONTINUOUS
 10
15605.000015
 20
15000.000778
 30
0.0
 11
15500.000015
 21
15000.000778
 31
0.0
  0
LINE
  5
442
  8
YKK_Z1
  6
CONTINUOUS
 10
15528.000015
 20
15000.000778
 30
0.0
 11
15605.000015
 21
15020.000791
 31
0.0
  0
LINE
  5
443
  8
YKK_Z1
  6
CONTINUOUS
 10
15528.000054
 20
15000.000778
 30
0.0
 11
15605.000015
 21
15000.000778
 31
0.0
  0
LINE
  5
444
  8
YKK_C2
  6
CONTINUOUS
 10
15598.54122
 20
15040.001242
 30
0.0
 11
15618.54122
 21
15020.001242
 31
0.0
  0
LINE
  5
445
  8
YKK_C2
  6
BYBLOCK
 10
15528.999951
 20
15020.000778
 30
0.0
 11
15627.999959
 21
15020.000778
 31
0.0
  0
LINE
  5
446
  8
YKK_Z1
  6
CONTINUOUS
 10
15605.000015
 20
15020.000791
 30
0.0
 11
15528.000054
 21
15020.000791
 31
0.0
  0
LINE
  5
447
  8
YKK_C2
  6
BYBLOCK
 10
15625.999959
 20
15040.000778
 30
0.0
 11
15542.999951
 21
15040.000778
 31
0.0
  0
LINE
  5
448
  8
YKK_Z1
  6
CONTINUOUS
 10
15500.000015
 20
14955.000778
 30
0.0
 11
15605.000015
 21
14955.000778
 31
0.0
  0
LINE
  5
449
  8
YKK_Z1
  6
CONTINUOUS
 10
15500.000015
 20
14955.000778
 30
0.0
 11
15500.000015
 21
14814.062826
 31
0.0
  0
LINE
  5
44A
  8
YKK_Z1
  6
CONTINUOUS
 10
15500.000015
 20
14814.062826
 30
0.0
 11
15500.000015
 21
14955.000778
 31
0.0
  0
LINE
  5
44B
  8
YKK_Z1
  6
CONTINUOUS
 10
15500.000015
 20
14955.000778
 30
0.0
 11
15605.000015
 21
15000.000778
 31
0.0
  0
LINE
  5
44C
  8
YKK_Z1
  6
CONTINUOUS
 10
15500.000015
 20
15000.000778
 30
0.0
 11
15500.000015
 21
14955.000778
 31
0.0
  0
LINE
  5
44D
  8
YKK_Z1
  6
CONTINUOUS
 10
15617.500015
 20
14814.062813
 30
0.0
 11
15617.500015
 21
15020.000778
 31
0.0
  0
LINE
  5
44E
  8
YKK_Z1
  6
CONTINUOUS
 10
15605.000015
 20
14814.062813
 30
0.0
 11
15605.000015
 21
15020.000778
 31
0.0
  0
LINE
  5
44F
  8
YKK_N1
  6
CONTINUOUS
 10
15705.995651
 20
15040.0
 30
0.0
 11
15830.99562
 21
15040.0
 31
0.0
  0
LINE
  5
450
  8
YKK_N1
  6
CONTINUOUS
 10
15830.99562
 20
15040.0
 30
0.0
 11
15830.99562
 21
15000.0
 31
0.0
  0
CIRCLE
  5
451
  8
YKK_N1
  6
CONTINUOUS
 10
15830.99562
 20
15000.0
 30
0.0
 40
5.0
  0
CIRCLE
  5
452
  8
YKK_N1
  6
CONTINUOUS
 10
15830.99562
 20
15040.0
 30
0.0
 40
5.0
  0
TEXT
  5
453
  8
YKK_N1
  6
CONTINUOUS
 10
15338.999951
 20
15590.501611
 30
0.0
 40
60.0
  1
72
  0
LINE
  5
454
  8
YKK_N1
  6
CONTINUOUS
 10
15455.999951
 20
15578.501581
 30
0.0
 11
15527.999951
 21
15578.501581
 31
0.0
  0
CIRCLE
  5
455
  8
YKK_N1
  6
CONTINUOUS
 10
15455.999951
 20
15578.501581
 30
0.0
 40
5.0
  0
CIRCLE
  5
456
  8
YKK_N1
  6
CONTINUOUS
 10
15527.999951
 20
15578.501581
 30
0.0
 40
5.0
  0
LINE
  5
457
  8
YKK_C2
  6
CONTINUOUS
 10
15626.353952
 20
16160.000174
 30
0.0
 11
15630.995566
 21
16160.000174
 31
0.0
  0
LINE
  5
458
  8
YKK_Z1
  6
CONTINUOUS
 10
15482.000015
 20
16224.233686
 30
0.0
 11
15498.000015
 21
16224.233686
 31
0.0
  0
LINE
  5
459
  8
YKK_C1
 10
15501.999953
 20
16170.000782
 30
0.0
 11
15484.621656
 21
16170.000782
 31
0.0
  0
LINE
  5
45A
  8
YKK_Z1
  6
CONTINUOUS
 10
15496.999999
 20
16179.233686
 30
0.0
 11
15482.999999
 21
16179.233686
 31
0.0
  0
LINE
  5
45B
  8
YKK_Z1
  6
CONTINUOUS
 10
15482.000015
 20
16179.233686
 30
0.0
 11
15497.00003
 21
16179.233686
 31
0.0
  0
LINE
  5
45C
  8
YKK_C1
 10
15468.499953
 20
16143.400782
 30
0.0
 11
15516.799953
 21
16143.400782
 31
0.0
  0
LINE
  5
45D
  8
YKK_Z1
  6
CONTINUOUS
 10
15498.000015
 20
16219.233686
 30
0.0
 11
15482.000015
 21
16179.233686
 31
0.0
  0
LINE
  5
45E
  8
YKK_C1
  6
BYBLOCK
 10
15466.499953
 20
16169.051065
 30
0.0
 11
15466.499953
 21
16163.834593
 31
0.0
  0
ARC
  5
45F
  8
YKK_C1
  6
BYBLOCK
 10
15469.799953
 20
16165.000782
 30
0.0
 40
3.499999
 50
199.462931
 51
248.196253
  0
LINE
  5
460
  8
YKK_C1
 10
15468.499953
 20
16124.000782
 30
0.0
 11
15468.499953
 21
16161.751167
 31
0.0
  0
LINE
  5
461
  8
YKK_C1
 10
15474.999953
 20
16124.000782
 30
0.0
 11
15468.499953
 21
16124.000782
 31
0.0
  0
LINE
  5
462
  8
YKK_C1
 10
15474.999953
 20
16127.000782
 30
0.0
 11
15474.999953
 21
16124.000782
 31
0.0
  0
LINE
  5
463
  8
YKK_C1
 10
15474.999953
 20
16133.500782
 30
0.0
 11
15468.499953
 21
16133.500782
 31
0.0
  0
LINE
  5
464
  8
YKK_C1
 10
15474.999953
 20
16131.000782
 30
0.0
 11
15474.999953
 21
16133.500782
 31
0.0
  0
LINE
  5
465
  8
YKK_C2
  6
CONTINUOUS
 10
15479.999999
 20
16179.233686
 30
0.0
 11
15479.999999
 21
16169.757764
 31
0.0
  0
LINE
  5
466
  8
YKK_C2
  6
CONTINUOUS
 10
15470.000015
 20
16176.032676
 30
0.0
 11
15473.201025
 21
16179.233686
 31
0.0
  0
LINE
  5
467
  8
YKK_C2
  6
CONTINUOUS
 10
15470.000015
 20
16179.233686
 30
0.0
 11
15470.000015
 21
16169.233686
 31
0.0
  0
LINE
  5
468
  8
YKK_C2
  6
CONTINUOUS
 10
15482.000015
 20
16179.233686
 30
0.0
 11
15470.000015
 21
16179.233686
 31
0.0
  0
LINE
  5
469
  8
YKK_C2
  6
CONTINUOUS
 10
15470.000015
 20
16170.375822
 30
0.0
 11
15478.857879
 21
16179.233686
 31
0.0
  0
LINE
  5
46A
  8
YKK_C2
  6
CONTINUOUS
 10
15474.764426
 20
16169.483378
 30
0.0
 11
15480.000015
 21
16174.718967
 31
0.0
  0
LINE
  5
46B
  8
YKK_C2
  6
CONTINUOUS
 10
15483.000015
 20
16179.233686
 30
0.0
 11
15470.000015
 21
16179.233686
 31
0.0
  0
LINE
  5
46C
  8
YKK_C1
 10
15455.999953
 20
16168.500783
 30
0.0
 11
15455.999953
 21
16162.500782
 31
0.0
  0
LINE
  5
46D
  8
YKK_C1
 10
15484.621656
 20
16170.000782
 30
0.0
 11
15455.999953
 21
16168.500783
 31
0.0
  0
LINE
  5
46E
  8
YKK_Z1
  6
CONTINUOUS
 10
15482.000015
 20
16224.233686
 30
0.0
 11
15482.000015
 21
16179.233686
 31
0.0
  0
LINE
  5
46F
  8
YKK_Z1
  6
CONTINUOUS
 10
15605.000015
 20
16220.000174
 30
0.0
 11
15500.000015
 21
16220.000174
 31
0.0
  0
LINE
  5
470
  8
YKK_C2
  6
BYBLOCK
 10
15628.000023
 20
16160.000174
 30
0.0
 11
15628.000023
 21
16142.000174
 31
0.0
  0
ARC
  5
471
  8
YKK_C2
  6
BYBLOCK
 10
15626.000023
 20
16142.000175
 30
0.0
 40
2.0
 50
270.000009
 51
359.999991
  0
LINE
  5
472
  8
YKK_Z1
  6
CONTINUOUS
 10
15605.000015
 20
16160.000174
 30
0.0
 11
15617.500015
 21
16160.000174
 31
0.0
  0
LINE
  5
473
  8
YKK_Z1
  6
CONTINUOUS
 10
15528.003759
 20
16175.000174
 30
0.0
 11
15500.000015
 21
16170.000174
 31
0.0
  0
LINE
  5
474
  8
YKK_Z1
  6
CONTINUOUS
 10
15528.003759
 20
16175.000174
 30
0.0
 11
15500.000015
 21
16175.000174
 31
0.0
  0
LINE
  5
475
  8
YKK_Z1
  6
CONTINUOUS
 10
15528.003759
 20
16170.000174
 30
0.0
 11
15500.000015
 21
16170.000174
 31
0.0
  0
LINE
  5
476
  8
YKK_C1
 10
15499.999953
 20
16182.350782
 30
0.0
 11
15497.999953
 21
16182.350782
 31
0.0
  0
LINE
  5
477
  8
YKK_C1
 10
15497.999953
 20
16195.000782
 30
0.0
 11
15499.999953
 21
16195.000782
 31
0.0
  0
LINE
  5
478
  8
YKK_C1
 10
15497.999953
 20
16170.000782
 30
0.0
 11
15497.999953
 21
16195.000782
 31
0.0
  0
LINE
  5
479
  8
YKK_Z1
  6
CONTINUOUS
 10
15499.999999
 20
16176.233686
 30
0.0
 11
15499.999999
 21
16170.496197
 31
0.0
  0
LINE
  5
47A
  8
YKK_Z1
  6
CONTINUOUS
 10
15500.000015
 20
16170.000174
 30
0.0
 11
15500.000015
 21
16175.000174
 31
0.0
  0
LINE
  5
47B
  8
YKK_C1
 10
15504.999953
 20
16124.000782
 30
0.0
 11
15504.999953
 21
16128.000782
 31
0.0
  0
LINE
  5
47C
  8
YKK_C1
 10
15516.599953
 20
16124.000782
 30
0.0
 11
15504.999953
 21
16124.000782
 31
0.0
  0
LINE
  5
47D
  8
YKK_C1
 10
15516.599953
 20
16140.000782
 30
0.0
 11
15516.599953
 21
16124.000782
 31
0.0
  0
LINE
  5
47E
  8
YKK_C1
 10
15542.999953
 20
16140.000782
 30
0.0
 11
15524.199953
 21
16140.000782
 31
0.0
  0
LINE
  5
47F
  8
YKK_C1
 10
15524.199953
 20
16140.000782
 30
0.0
 11
15524.199953
 21
16143.000782
 31
0.0
  0
LINE
  5
480
  8
YKK_C1
 10
15528.000451
 20
16170.004812
 30
0.0
 11
15528.000451
 21
16156.704812
 31
0.0
  0
LINE
  5
481
  8
YKK_C1
 10
15528.000451
 20
16159.204812
 30
0.0
 11
15525.600451
 21
16159.204812
 31
0.0
  0
LINE
  5
482
  8
YKK_C1
 10
15525.600451
 20
16159.204812
 30
0.0
 11
15525.600451
 21
16145.004812
 31
0.0
  0
LINE
  5
483
  8
YKK_C1
 10
15525.600451
 20
16153.700782
 30
0.0
 11
15526.699953
 21
16153.700782
 31
0.0
  0
LINE
  5
484
  8
YKK_C1
 10
15526.699953
 20
16153.700782
 30
0.0
 11
15526.699953
 21
16140.000782
 31
0.0
  0
LINE
  5
485
  8
YKK_C1
 10
15525.600451
 20
16145.004812
 30
0.0
 11
15526.699953
 21
16145.004812
 31
0.0
  0
LINE
  5
486
  8
YKK_C2
  6
CONTINUOUS
 10
15570.256217
 20
16140.000637
 30
0.0
 11
15590.256217
 21
16160.000637
 31
0.0
  0
LINE
  5
487
  8
YKK_Z1
  6
CONTINUOUS
 10
15528.003759
 20
16170.000174
 30
0.0
 11
15528.003759
 21
16175.000174
 31
0.0
  0
LINE
  5
488
  8
YKK_C2
  6
BYBLOCK
 10
15543.000015
 20
16140.000174
 30
0.0
 11
15543.000015
 21
16143.000174
 31
0.0
  0
LINE
  5
489
  8
YKK_C2
  6
BYBLOCK
 10
15531.000015
 20
16143.000174
 30
0.0
 11
15529.000015
 21
16145.000174
 31
0.0
  0
LINE
  5
48A
  8
YKK_C2
  6
BYBLOCK
 10
15529.000015
 20
16145.000174
 30
0.0
 11
15529.000015
 21
16160.000174
 31
0.0
  0
LINE
  5
48B
  8
YKK_C2
  6
CONTINUOUS
 10
15528.996332
 20
16155.309295
 30
0.0
 11
15533.687674
 21
16160.000637
 31
0.0
  0
LINE
  5
48C
  8
YKK_C2
  6
BYBLOCK
 10
15543.000015
 20
16143.000174
 30
0.0
 11
15531.000015
 21
16143.000174
 31
0.0
  0
LINE
  5
48D
  8
YKK_Z1
  6
CONTINUOUS
 10
15528.000015
 20
16160.000174
 30
0.0
 11
15528.000015
 21
16175.000174
 31
0.0
  0
LINE
  5
48E
  8
YKK_C2
  6
CONTINUOUS
 10
15542.996332
 20
16141.025024
 30
0.0
 11
15561.971946
 21
16160.000637
 31
0.0
  0
LINE
  5
48F
  8
YKK_C1
 10
15501.3464
 20
16141.754335
 30
0.0
 11
15501.992846
 21
16142.400782
 31
0.0
  0
LINE
  5
490
  8
YKK_C1
 10
15501.992846
 20
16142.400782
 30
0.0
 11
15505.499953
 21
16142.400782
 31
0.0
  0
LINE
  5
491
  8
YKK_C1
 10
15505.499953
 20
16142.400782
 30
0.0
 11
15506.899953
 21
16141.000782
 31
0.0
  0
LINE
  5
492
  8
YKK_C1
 10
15506.899953
 20
16141.000782
 30
0.0
 11
15514.599953
 21
16141.000782
 31
0.0
  0
LINE
  5
493
  8
YKK_C1
 10
15514.599953
 20
16141.000782
 30
0.0
 11
15514.599953
 21
16139.500782
 31
0.0
  0
LINE
  5
494
  8
YKK_C1
 10
15514.599953
 20
16139.500782
 30
0.0
 11
15516.599953
 21
16139.500782
 31
0.0
  0
LINE
  5
495
  8
YKK_C1
 10
15514.992774
 20
16140.000782
 30
0.0
 11
15516.799953
 21
16140.000782
 31
0.0
  0
LINE
  5
496
  8
YKK_C1
 10
15516.799953
 20
16140.000782
 30
0.0
 11
15516.799953
 21
16150.500782
 31
0.0
  0
LINE
  5
497
  8
YKK_C1
 10
15498.899953
 20
16170.000782
 30
0.0
 11
15498.899953
 21
16140.000782
 31
0.0
  0
LINE
  5
498
  8
YKK_C1
 10
15498.899953
 20
16140.000782
 30
0.0
 11
15502.751425
 21
16140.000782
 31
0.0
  0
LINE
  5
499
  8
YKK_Z1
  6
CONTINUOUS
 10
15500.000015
 20
16175.000174
 30
0.0
 11
15605.000015
 21
16175.000174
 31
0.0
  0
LINE
  5
49A
  8
YKK_C2
  6
CONTINUOUS
 10
15598.540488
 20
16140.000637
 30
0.0
 11
15618.540488
 21
16160.000637
 31
0.0
  0
LINE
  5
49B
  8
YKK_C2
  6
BYBLOCK
 10
15529.000015
 20
16160.000174
 30
0.0
 11
15628.000023
 21
16160.000174
 31
0.0
  0
LINE
  5
49C
  8
YKK_Z1
  6
CONTINUOUS
 10
15605.000015
 20
16175.000174
 30
0.0
 11
15528.000015
 21
16160.000174
 31
0.0
  0
LINE
  5
49D
  8
YKK_Z1
  6
CONTINUOUS
 10
15605.000015
 20
16175.000174
 30
0.0
 11
15528.000015
 21
16175.000174
 31
0.0
  0
LINE
  5
49E
  8
YKK_Z1
  6
CONTINUOUS
 10
15605.000015
 20
16160.000174
 30
0.0
 11
15528.000015
 21
16160.000174
 31
0.0
  0
LINE
  5
49F
  8
YKK_C2
  6
BYBLOCK
 10
15626.000023
 20
16140.000174
 30
0.0
 11
15543.000015
 21
16140.000174
 31
0.0
  0
LINE
  5
4A0
  8
YKK_Z1
  6
CONTINUOUS
 10
15500.000015
 20
16175.000174
 30
0.0
 11
15605.000015
 21
16220.000174
 31
0.0
  0
LINE
  5
4A1
  8
YKK_Z1
  6
CONTINUOUS
 10
15500.000015
 20
16220.000174
 30
0.0
 11
15500.000015
 21
16175.000174
 31
0.0
  0
LINE
  5
4A2
  8
YKK_Z1
  6
CONTINUOUS
 10
15500.000015
 20
16179.233686
 30
0.0
 11
15500.000015
 21
16224.233686
 31
0.0
  0
LINE
  5
4A3
  8
YKK_Z1
  6
CONTINUOUS
 10
15605.000015
 20
16175.000174
 30
0.0
 11
15605.000015
 21
16220.000174
 31
0.0
  0
LINE
  5
4A4
  8
YKK_N1
  6
CONTINUOUS
 10
15705.995651
 20
16140.000031
 30
0.0
 11
15830.99562
 21
16140.000031
 31
0.0
  0
CIRCLE
  5
4A5
  8
YKK_N1
  6
CONTINUOUS
 10
15830.99562
 20
16170.000031
 30
0.0
 40
5.0
  0
CIRCLE
  5
4A6
  8
YKK_N1
  6
CONTINUOUS
 10
15830.99562
 20
16140.000031
 30
0.0
 40
5.0
  0
LINE
  5
4A7
  8
YKK_N1
  6
CONTINUOUS
 10
15830.99562
 20
16170.000031
 30
0.0
 11
15830.99562
 21
16140.000031
 31
0.0
  0
TEXT
  5
4A8
  8
YKK_N1
  6
CONTINUOUS
 10
15818.995651
 20
16029.473832
 30
0.0
 40
60.0
  1
30
 50
90.0
  0
TEXT
  5
4A9
  8
YKK_N1
  6
CONTINUOUS
 10
16018.99562
 20
15436.895431
 30
0.0
 40
60.0
  1
H=1170
 50
90.0
  0
LINE
  5
4AA
  8
YKK_N1
  6
CONTINUOUS
 10
16030.99562
 20
16170.000031
 30
0.0
 11
16030.99562
 21
15000.0
 31
0.0
  0
LINE
  5
4AB
  8
YKK_N1
  6
CONTINUOUS
 10
15980.995618
 20
15086.602543
 30
0.0
 11
16030.99562
 21
15000.0
 31
0.0
  0
LINE
  5
4AC
  8
YKK_N1
  6
CONTINUOUS
 10
16080.995621
 20
15086.60254
 30
0.0
 11
16030.99562
 21
15000.0
 31
0.0
  0
CIRCLE
  5
4AD
  8
YKK_N1
  6
CONTINUOUS
 10
16030.99562
 20
14968.0
 30
0.0
 40
5.0
  0
LINE
  5
4AE
  8
YKK_N1
  6
CONTINUOUS
 10
16030.99562
 20
15000.0
 30
0.0
 11
16030.99562
 21
14968.0
 31
0.0
  0
TEXT
  5
4AF
  8
YKK_N1
  6
CONTINUOUS
 10
16018.99562
 20
14850.000015
 30
0.0
 40
60.0
  1
32
 50
90.0
  0
LINE
  5
4B0
  8
YKK_N1
  6
CONTINUOUS
 10
16080.995618
 20
15086.602543
 30
0.0
 11
15980.995618
 21
15086.602543
 31
0.0
  0
CIRCLE
  5
4B1
  8
YKK_N1
  6
CONTINUOUS
 10
16030.99562
 20
16195.000031
 30
0.0
 40
5.0
  0
LINE
  5
4B2
  8
YKK_N1
  6
CONTINUOUS
 10
15980.99562
 20
16083.397491
 30
0.0
 11
16030.99562
 21
16170.000031
 31
0.0
  0
LINE
  5
4B3
  8
YKK_N1
  6
CONTINUOUS
 10
15980.99562
 20
16083.397491
 30
0.0
 11
16080.99562
 21
16083.397491
 31
0.0
  0
LINE
  5
4B4
  8
YKK_N1
  6
CONTINUOUS
 10
16030.99562
 20
16195.000031
 30
0.0
 11
16030.99562
 21
16170.000031
 31
0.0
  0
LINE
  5
4B5
  8
YKK_N1
  6
CONTINUOUS
 10
16080.995629
 20
16083.397477
 30
0.0
 11
16030.99562
 21
16170.000031
 31
0.0
  0
LINE
  5
4C8
  8
YKK_A1
 10
6736.000389
 20
17668.001002
 30
0.0
 11
6763.999615
 21
17668.001002
 31
0.0
  0
LINE
  5
4C9
  8
YKK_A1
 10
6736.000389
 20
13767.597558
 30
0.0
 11
6763.999615
 21
13767.597558
 31
0.0
  0
ENDSEC
  0
EOF
