  0
SECTION
  2
HEADER
  9
$ACADVER
  1
AC1018
  9
$ACADMAINTVER
 70
   104
  9
$DWGCODEPAGE
  3
ANSI_932
  9
$LASTSAVEDBY
  1
0803015
  9
$INSBASE
 10
0.0
 20
0.0
 30
0.0
  9
$EXTMIN
 10
-1.81516602
 20
-1.22064724
 30
0.0
  9
$EXTMAX
 10
27501.56520893
 20
20001.22083351
 30
0.0
  9
$LIMMIN
 10
0.0
 20
0.0
  9
$LIMMAX
 10
420.0
 20
330.0
  9
$ORTHOMODE
 70
     1
  9
$REGENMODE
 70
     1
  9
$FILLMODE
 70
     1
  9
$QTEXTMODE
 70
     0
  9
$MIRRTEXT
 70
     0
  9
$LTSCALE
 40
1.0
  9
$ATTMODE
 70
     1
  9
$TEXTSIZE
 40
0.2
  9
$TRACEWID
 40
0.05
  9
$TEXTSTYLE
  7
STANDARD
  9
$CLAYER
  8
0
  9
$CELTYPE
  6
ByLayer
  9
$CECOLOR
 62
   256
  9
$CELTSCALE
 40
1.0
  9
$DISPSILH
 70
     1
  9
$DIMSCALE
 40
1.0
  9
$DIMASZ
 40
0.18
  9
$DIMEXO
 40
0.0625
  9
$DIMDLI
 40
0.38
  9
$DIMRND
 40
0.0
  9
$DIMDLE
 40
0.0
  9
$DIMEXE
 40
0.18
  9
$DIMTP
 40
0.0
  9
$DIMTM
 40
0.0
  9
$DIMTXT
 40
0.18
  9
$DIMCEN
 40
0.09
  9
$DIMTSZ
 40
0.0
  9
$DIMTOL
 70
     0
  9
$DIMLIM
 70
     0
  9
$DIMTIH
 70
     1
  9
$DIMTOH
 70
     1
  9
$DIMSE1
 70
     0
  9
$DIMSE2
 70
     0
  9
$DIMTAD
 70
     0
  9
$DIMZIN
 70
     0
  9
$DIMBLK
  1

  9
$DIMASO
 70
     1
  9
$DIMSHO
 70
     0
  9
$DIMPOST
  1

  9
$DIMAPOST
  1

  9
$DIMALT
 70
     0
  9
$DIMALTD
 70
     2
  9
$DIMALTF
 40
25.4
  9
$DIMLFAC
 40
1.0
  9
$DIMTOFL
 70
     0
  9
$DIMTVP
 40
0.0
  9
$DIMTIX
 70
     0
  9
$DIMSOXD
 70
     0
  9
$DIMSAH
 70
     0
  9
$DIMBLK1
  1

  9
$DIMBLK2
  1

  9
$DIMSTYLE
  2
STANDARD
  9
$DIMCLRD
 70
     0
  9
$DIMCLRE
 70
     0
  9
$DIMCLRT
 70
     0
  9
$DIMTFAC
 40
1.0
  9
$DIMGAP
 40
0.09
  9
$DIMJUST
 70
     0
  9
$DIMSD1
 70
     0
  9
$DIMSD2
 70
     0
  9
$DIMTOLJ
 70
     1
  9
$DIMTZIN
 70
     0
  9
$DIMALTZ
 70
     0
  9
$DIMALTTZ
 70
     0
  9
$DIMUPT
 70
     0
  9
$DIMDEC
 70
     4
  9
$DIMTDEC
 70
     4
  9
$DIMALTU
 70
     2
  9
$DIMALTTD
 70
     2
  9
$DIMTXSTY
  7
STANDARD
  9
$DIMAUNIT
 70
     0
  9
$DIMADEC
 70
     0
  9
$DIMALTRND
 40
0.0
  9
$DIMAZIN
 70
     0
  9
$DIMDSEP
 70
    46
  9
$DIMATFIT
 70
     3
  9
$DIMFRAC
 70
     0
  9
$DIMLDRBLK
  1

  9
$DIMLUNIT
 70
     2
  9
$DIMLWD
 70
    -2
  9
$DIMLWE
 70
    -2
  9
$DIMTMOVE
 70
     2
  9
$LUNITS
 70
     2
  9
$LUPREC
 70
     4
  9
$SKETCHINC
 40
0.1
  9
$FILLETRAD
 40
0.0
  9
$AUNITS
 70
     0
  9
$AUPREC
 70
     0
  9
$MENU
  1
acad
  9
$ELEVATION
 40
0.0
  9
$PELEVATION
 40
0.0
  9
$THICKNESS
 40
0.0
  9
$LIMCHECK
 70
     0
  9
$CHAMFERA
 40
0.0
  9
$CHAMFERB
 40
0.0
  9
$CHAMFERC
 40
0.0
  9
$CHAMFERD
 40
0.0
  9
$SKPOLY
 70
     0
  9
$TDCREATE
 40
2456426.598633473
  9
$TDUCREATE
 40
2456426.223633473
  9
$TDUPDATE
 40
2458246.598040718
  9
$TDUUPDATE
 40
2458246.223040718
  9
$TDINDWG
 40
0.1446585648
  9
$TDUSRTIMER
 40
0.1446585648
  9
$USRTIMER
 70
     1
  9
$ANGBASE
 50
0.0
  9
$ANGDIR
 70
     0
  9
$PDMODE
 70
     0
  9
$PDSIZE
 40
0.0
  9
$PLINEWID
 40
0.0
  9
$SPLFRAME
 70
     0
  9
$SPLINETYPE
 70
     6
  9
$SPLINESEGS
 70
     8
  9
$HANDSEED
  5
3AF8
  9
$SURFTAB1
 70
     6
  9
$SURFTAB2
 70
     6
  9
$SURFTYPE
 70
     6
  9
$SURFU
 70
     6
  9
$SURFV
 70
     6
  9
$UCSBASE
  2

  9
$UCSNAME
  2

  9
$UCSORG
 10
0.0
 20
0.0
 30
0.0
  9
$UCSXDIR
 10
1.0
 20
0.0
 30
0.0
  9
$UCSYDIR
 10
0.0
 20
1.0
 30
0.0
  9
$UCSORTHOREF
  2

  9
$UCSORTHOVIEW
 70
     0
  9
$UCSORGTOP
 10
0.0
 20
0.0
 30
0.0
  9
$UCSORGBOTTOM
 10
0.0
 20
0.0
 30
0.0
  9
$UCSORGLEFT
 10
0.0
 20
0.0
 30
0.0
  9
$UCSORGRIGHT
 10
0.0
 20
0.0
 30
0.0
  9
$UCSORGFRONT
 10
0.0
 20
0.0
 30
0.0
  9
$UCSORGBACK
 10
0.0
 20
0.0
 30
0.0
  9
$PUCSBASE
  2

  9
$PUCSNAME
  2

  9
$PUCSORG
 10
0.0
 20
0.0
 30
0.0
  9
$PUCSXDIR
 10
1.0
 20
0.0
 30
0.0
  9
$PUCSYDIR
 10
0.0
 20
1.0
 30
0.0
  9
$PUCSORTHOREF
  2

  9
$PUCSORTHOVIEW
 70
     0
  9
$PUCSORGTOP
 10
0.0
 20
0.0
 30
0.0
  9
$PUCSORGBOTTOM
 10
0.0
 20
0.0
 30
0.0
  9
$PUCSORGLEFT
 10
0.0
 20
0.0
 30
0.0
  9
$PUCSORGRIGHT
 10
0.0
 20
0.0
 30
0.0
  9
$PUCSORGFRONT
 10
0.0
 20
0.0
 30
0.0
  9
$PUCSORGBACK
 10
0.0
 20
0.0
 30
0.0
  9
$USERI1
 70
     0
  9
$USERI2
 70
     0
  9
$USERI3
 70
     0
  9
$USERI4
 70
     0
  9
$USERI5
 70
     0
  9
$USERR1
 40
0.0
  9
$USERR2
 40
0.0
  9
$USERR3
 40
0.0
  9
$USERR4
 40
0.0
  9
$USERR5
 40
0.0
  9
$WORLDVIEW
 70
     1
  9
$SHADEDGE
 70
     3
  9
$SHADEDIF
 70
    70
  9
$TILEMODE
 70
     1
  9
$MAXACTVP
 70
    16
  9
$PINSBASE
 10
0.0
 20
0.0
 30
0.0
  9
$PLIMCHECK
 70
     0
  9
$PEXTMIN
 10
1.00000000E+20
 20
1.00000000E+20
 30
1.00000000E+20
  9
$PEXTMAX
 10
-1.00000000E+20
 20
-1.00000000E+20
 30
-1.00000000E+20
  9
$PLIMMIN
 10
0.0
 20
0.0
  9
$PLIMMAX
 10
12.0
 20
9.0
  9
$UNITMODE
 70
     0
  9
$VISRETAIN
 70
     0
  9
$PLINEGEN
 70
     0
  9
$PSLTSCALE
 70
     0
  9
$TREEDEPTH
 70
  3020
  9
$CMLSTYLE
  2
Standard
  9
$CMLJUST
 70
     0
  9
$CMLSCALE
 40
1.0
  9
$PROXYGRAPHICS
 70
     1
  9
$MEASUREMENT
 70
     1
  9
$CELWEIGHT
370
    -1
  9
$ENDCAPS
280
     0
  9
$JOINSTYLE
280
     0
  9
$LWDISPLAY
290
     0
  9
$INSUNITS
 70
     0
  9
$HYPERLINKBASE
  1

  9
$STYLESHEET
  1

  9
$XEDIT
290
     1
  9
$CEPSNTYPE
380
     0
  9
$PSTYLEMODE
290
     1
  9
$FINGERPRINTGUID
  2
{67823085-F10F-4509-9776-B39607DEEEFC}
  9
$VERSIONGUID
  2
{A9D59609-BD31-42DC-8C30-3AAA5B3CB1F9}
  9
$EXTNAMES
290
     1
  9
$PSVPSCALE
 40
0.0
  9
$OLESTARTUP
290
     0
  9
$SORTENTS
280
   127
  9
$INDEXCTL
280
     0
  9
$HIDETEXT
280
     1
  9
$XCLIPFRAME
290
     0
  9
$HALOGAP
280
     0
  9
$OBSCOLOR
 70
   257
  9
$OBSLTYPE
280
     0
  9
$INTERSECTIONDISPLAY
280
     0
  9
$INTERSECTIONCOLOR
 70
   257
  9
$DIMASSOC
280
     2
  9
$PROJECTNAME
  1

  0
ENDSEC
  0
SECTION
  2
CLASSES
  0
CLASS
  1
ACDBDICTIONARYWDFLT
  2
AcDbDictionaryWithDefault
  3
ObjectDBX Classes
 90
        0
 91
        1
280
     0
281
     0
  0
CLASS
  1
MATERIAL
  2
AcDbMaterial
  3
ObjectDBX Classes
 90
     1153
 91
        3
280
     0
281
     0
  0
CLASS
  1
VISUALSTYLE
  2
AcDbVisualStyle
  3
ObjectDBX Classes
 90
     4095
 91
       24
280
     0
281
     0
  0
CLASS
  1
SCALE
  2
AcDbScale
  3
ObjectDBX Classes
 90
     1153
 91
       17
280
     0
281
     0
  0
CLASS
  1
TABLESTYLE
  2
AcDbTableStyle
  3
ObjectDBX Classes
 90
     4095
 91
        1
280
     0
281
     0
  0
CLASS
  1
MLEADERSTYLE
  2
AcDbMLeaderStyle
  3
ACDB_MLEADERSTYLE_CLASS
 90
     4095
 91
        1
280
     0
281
     0
  0
CLASS
  1
ACDBSECTIONVIEWSTYLE
  2
AcDbSectionViewStyle
  3
ObjectDBX Classes
 90
     1025
 91
        2
280
     0
281
     0
  0
CLASS
  1
ACDBDETAILVIEWSTYLE
  2
AcDbDetailViewStyle
  3
ObjectDBX Classes
 90
     1025
 91
        2
280
     0
281
     0
  0
CLASS
  1
CELLSTYLEMAP
  2
AcDbCellStyleMap
  3
ObjectDBX Classes
 90
     1152
 91
        2
280
     0
281
     0
  0
CLASS
  1
DICTIONARYVAR
  2
AcDbDictionaryVar
  3
ObjectDBX Classes
 90
        0
 91
       11
280
     0
281
     0
  0
CLASS
  1
SORTENTSTABLE
  2
AcDbSortentsTable
  3
ObjectDBX Classes
 90
        0
 91
        0
280
     0
281
     0
  0
ENDSEC
  0
SECTION
  2
TABLES
  0
TABLE
  2
VPORT
  5
85E
102
{ACAD_XDICTIONARY
360
97E
102
}
330
0
100
AcDbSymbolTable
 70
     1
  0
VPORT
  5
8C9
330
85E
100
AcDbSymbolTableRecord
100
AcDbViewportTableRecord
  2
*ACTIVE
 70
     0
 10
0.0
 20
0.0
 11
1.0
 21
1.0
 12
13749.87502146
 22
10000.00009314
 13
0.0
 23
0.0
 14
1.0
 24
1.0
 15
10.0
 25
10.0
 16
0.0
 26
0.0
 36
1.0
 17
0.0
 27
0.0
 37
0.0
 40
20160.35549245
 41
1.93939394
 42
50.0
 43
0.0
 44
0.0
 50
0.0
 51
0.0
 71
     0
 72
   100
 73
     1
 74
     0
 75
     0
 76
     0
 77
     0
 78
     0
281
     0
 65
     1
110
0.0
120
0.0
130
0.0
111
1.0
121
0.0
131
0.0
112
0.0
122
1.0
132
0.0
 79
     0
146
0.0
1001
ACAD_NAV_VCDISPLAY
1070
     1
  0
ENDTAB
  0
TABLE
  2
LTYPE
  5
85B
330
0
100
AcDbSymbolTable
 70
     1
  0
LTYPE
  5
8B0
330
85B
100
AcDbSymbolTableRecord
100
AcDbLinetypeTableRecord
  2
ByBlock
 70
     0
  3

 72
    65
 73
     0
 40
0.0
  0
LTYPE
  5
8B1
330
85B
100
AcDbSymbolTableRecord
100
AcDbLinetypeTableRecord
  2
ByLayer
 70
     0
  3

 72
    65
 73
     0
 40
0.0
  0
LTYPE
  5
8B2
330
85B
100
AcDbSymbolTableRecord
100
AcDbLinetypeTableRecord
  2
CONTINUOUS
 70
     0
  3
Solid line
 72
    65
 73
     0
 40
0.0
  0
ENDTAB
  0
TABLE
  2
LAYER
  5
858
102
{ACAD_XDICTIONARY
360
96E
102
}
330
0
100
AcDbSymbolTable
 70
    11
  0
LAYER
  5
8AA
330
858
100
AcDbSymbolTableRecord
100
AcDbLayerTableRecord
  2
0
 70
     0
 62
     7
  6
CONTINUOUS
370
    -3
390
865
  0
LAYER
  5
8CE
330
858
100
AcDbSymbolTableRecord
100
AcDbLayerTableRecord
  2
YKK_IN
 70
     0
 62
     1
  6
CONTINUOUS
370
    -3
390
865
  0
LAYER
  5
8CF
330
858
100
AcDbSymbolTableRecord
100
AcDbLayerTableRecord
  2
YKK_F1
 70
     0
 62
     7
  6
CONTINUOUS
370
    -3
390
865
  0
LAYER
  5
8D0
330
858
100
AcDbSymbolTableRecord
100
AcDbLayerTableRecord
  2
YKK_N1
 70
     0
 62
     2
  6
CONTINUOUS
370
    -3
390
865
  0
LAYER
  5
8D1
330
858
100
AcDbSymbolTableRecord
100
AcDbLayerTableRecord
  2
YKK_Z1
 70
     0
 62
     7
  6
CONTINUOUS
370
    -3
390
865
  0
LAYER
  5
8D2
330
858
100
AcDbSymbolTableRecord
100
AcDbLayerTableRecord
  2
YKK_A1
 70
     0
 62
     4
  6
CONTINUOUS
370
    -3
390
865
  0
LAYER
  5
8D3
330
858
100
AcDbSymbolTableRecord
100
AcDbLayerTableRecord
  2
YKK_A2
 70
     0
 62
     3
  6
CONTINUOUS
370
    -3
390
865
  0
LAYER
  5
8D4
330
858
100
AcDbSymbolTableRecord
100
AcDbLayerTableRecord
  2
YKK_B1
 70
     0
 62
     4
  6
CONTINUOUS
370
    -3
390
865
  0
LAYER
  5
8D5
330
858
100
AcDbSymbolTableRecord
100
AcDbLayerTableRecord
  2
YKK_C1
 70
     0
 62
     4
  6
CONTINUOUS
370
    -3
390
865
  0
LAYER
  5
8D6
330
858
100
AcDbSymbolTableRecord
100
AcDbLayerTableRecord
  2
YKK_B2
 70
     0
 62
     5
  6
CONTINUOUS
370
    -3
390
865
  0
LAYER
  5
8D7
330
858
100
AcDbSymbolTableRecord
100
AcDbLayerTableRecord
  2
YKK_C2
 70
     0
 62
     5
  6
CONTINUOUS
370
    -3
390
865
  0
ENDTAB
  0
TABLE
  2
STYLE
  5
859
330
0
100
AcDbSymbolTable
 70
     1
  0
STYLE
  5
8AB
330
859
100
AcDbSymbolTableRecord
100
AcDbTextStyleTableRecord
  2
STANDARD
 70
     0
 40
0.0
 41
1.0
 50
0.0
 71
     0
 42
0.2
  3
txt.shx
  4
bigfont.shx
  0
ENDTAB
  0
TABLE
  2
VIEW
  5
85C
330
0
100
AcDbSymbolTable
 70
     0
  0
ENDTAB
  0
TABLE
  2
UCS
  5
85D
330
0
100
AcDbSymbolTable
 70
     0
  0
ENDTAB
  0
TABLE
  2
APPID
  5
85F
330
0
100
AcDbSymbolTable
 70
     9
  0
APPID
  5
8AC
330
85F
100
AcDbSymbolTableRecord
100
AcDbRegAppTableRecord
  2
ACAD
 70
     0
  0
APPID
  5
8CA
330
85F
100
AcDbSymbolTableRecord
100
AcDbRegAppTableRecord
  2
YKK_AP_LOCKLAYER
 70
     0
  0
APPID
  5
8CB
330
85F
100
AcDbSymbolTableRecord
100
AcDbRegAppTableRecord
  2
YTEXT_INFOMATION
 70
     0
  0
APPID
  5
8CC
330
85F
100
AcDbSymbolTableRecord
100
AcDbRegAppTableRecord
  2
ACAD_EXEMPT_FROM_CAD_STANDARDS
 70
     0
  0
APPID
  5
8CD
330
85F
100
AcDbSymbolTableRecord
100
AcDbRegAppTableRecord
  2
ACAD_MLEADERVER
 70
     0
  0
APPID
  5
8B3
330
85F
100
AcDbSymbolTableRecord
100
AcDbRegAppTableRecord
  2
AcadAnnotative
 70
     0
  0
APPID
  5
92C
330
85F
100
AcDbSymbolTableRecord
100
AcDbRegAppTableRecord
  2
ACAD_PSEXT
 70
     0
  0
APPID
  5
92D
330
85F
100
AcDbSymbolTableRecord
100
AcDbRegAppTableRecord
  2
ACAD_NAV_VCDISPLAY
 70
     0
  0
APPID
  5
A13
330
85F
100
AcDbSymbolTableRecord
100
AcDbRegAppTableRecord
  2
AcAecLayerStandard
 70
     0
  0
ENDTAB
  0
TABLE
  2
DIMSTYLE
  5
860
330
0
100
AcDbSymbolTable
 70
     1
100
AcDbDimStyleTable
 71
     1
340
8AD
  0
DIMSTYLE
105
8AD
330
860
100
AcDbSymbolTableRecord
100
AcDbDimStyleTableRecord
  2
STANDARD
 70
     0
279
     2
340
8AB
  0
ENDTAB
  0
TABLE
  2
BLOCK_RECORD
  5
857
330
0
100
AcDbSymbolTable
 70
     0
  0
BLOCK_RECORD
  5
8C5
330
857
100
AcDbSymbolTableRecord
100
AcDbBlockTableRecord
  2
*Model_Space
340
8C8
  0
BLOCK_RECORD
  5
8C1
330
857
100
AcDbSymbolTableRecord
100
AcDbBlockTableRecord
  2
*Paper_Space
340
8C4
  0
ENDTAB
  0
ENDSEC
  0
SECTION
  2
BLOCKS
  0
BLOCK
  5
8DA
330
8C5
100
AcDbEntity
  8
0
100
AcDbBlockBegin
  2
*Model_Space
 70
     0
 10
0.0
 20
0.0
 30
0.0
  3
*Model_Space
  1

  0
ENDBLK
  5
8DB
330
8C5
100
AcDbEntity
  8
0
100
AcDbBlockEnd
  0
BLOCK
  5
8D8
330
8C1
100
AcDbEntity
 67
     1
  8
0
100
AcDbBlockBegin
  2
*Paper_Space
 70
     0
 10
0.0
 20
0.0
 30
0.0
  3
*Paper_Space
  1

  0
ENDBLK
  5
8D9
330
8C1
100
AcDbEntity
 67
     1
  8
0
100
AcDbBlockEnd
  0
ENDSEC
  0
SECTION
  2
ENTITIES
  0
TEXT
  5
1D
330
8C5
100
AcDbEntity
  8
0
100
AcDbText
 10
13600.0
 20
11387.5
 30
0.0
 40
175.0
  1
PXF-***033-V(-A)-S
100
AcDbText
  0
TEXT
  5
1E
330
8C5
100
AcDbEntity
  8
0
100
AcDbText
 10
13600.0
 20
15287.5
 30
0.0
 40
175.0
  1
PXF-***023-V(-A)-S
100
AcDbText
  0
TEXT
  5
1F
330
8C5
100
AcDbEntity
  8
0
100
AcDbText
 10
13600.0
 20
19187.5
 30
0.0
 40
175.0
  1
PXF-***018-V(-A)-S
100
AcDbText
  0
TEXT
  5
20
330
8C5
100
AcDbEntity
  8
0
100
AcDbText
 10
13600.0
 20
10937.5
 30
0.0
 40
175.0
  1
H=400
100
AcDbText
  0
TEXT
  5
21
330
8C5
100
AcDbEntity
  8
0
100
AcDbText
 10
13600.0
 20
14837.5
 30
0.0
 40
175.0
  1
H=300
100
AcDbText
  0
TEXT
  5
22
330
8C5
100
AcDbEntity
  8
0
100
AcDbText
 10
13600.0
 20
18737.5
 30
0.0
 40
175.0
  1
H=250
100
AcDbText
  0
LINE
  5
23
330
8C5
100
AcDbEntity
  8
YKK_F1
 62
     7
100
AcDbLine
 10
0.0
 20
18600.0
 30
0.0
 11
27000.0
 21
18600.0
 31
0.0
  0
LINE
  5
25
330
8C5
100
AcDbEntity
  8
YKK_F1
 62
     7
100
AcDbLine
 10
0.0
 20
19050.0
 30
0.0
 11
27000.0
 21
19050.0
 31
0.0
  0
LINE
  5
26
330
8C5
100
AcDbEntity
  8
YKK_F1
 62
     7
100
AcDbLine
 10
0.0
 20
19500.0
 30
0.0
 11
27000.0
 21
19500.0
 31
0.0
  0
LINE
  5
27
330
8C5
100
AcDbEntity
  8
YKK_F1
 62
     7
100
AcDbLine
 10
0.0
 20
0.0
 30
0.0
 11
27500.0
 21
0.0
 31
0.0
  0
LINE
  5
28
330
8C5
100
AcDbEntity
  8
YKK_F1
 62
     7
100
AcDbLine
 10
0.0
 20
20000.0
 30
0.0
 11
27500.0
 21
20000.0
 31
0.0
  0
LINE
  5
29
330
8C5
100
AcDbEntity
  8
YKK_F1
 62
     7
100
AcDbLine
 10
0.0
 20
14700.0
 30
0.0
 11
27000.0
 21
14700.0
 31
0.0
  0
LINE
  5
2A
330
8C5
100
AcDbEntity
  8
YKK_F1
 62
     7
100
AcDbLine
 10
0.0
 20
15150.0
 30
0.0
 11
27000.0
 21
15150.0
 31
0.0
  0
LINE
  5
2B
330
8C5
100
AcDbEntity
  8
YKK_F1
 62
     7
100
AcDbLine
 10
0.0
 20
15600.0
 30
0.0
 11
27000.0
 21
15600.0
 31
0.0
  0
LINE
  5
2C
330
8C5
100
AcDbEntity
  8
YKK_F1
 62
     7
100
AcDbLine
 10
0.0
 20
11700.0
 30
0.0
 11
27000.0
 21
11700.0
 31
0.0
  0
LINE
  5
2D
330
8C5
100
AcDbEntity
  8
YKK_F1
 62
     7
100
AcDbLine
 10
0.0
 20
11250.0
 30
0.0
 11
27000.0
 21
11250.0
 31
0.0
  0
LINE
  5
2E
330
8C5
100
AcDbEntity
  8
YKK_F1
 62
     7
100
AcDbLine
 10
0.0
 20
10800.0
 30
0.0
 11
27000.0
 21
10800.0
 31
0.0
  0
LINE
  5
2F
330
8C5
100
AcDbEntity
  8
YKK_F1
 62
     7
100
AcDbLine
 10
0.0
 20
6900.0
 30
0.0
 11
27000.0
 21
6900.0
 31
0.0
  0
LINE
  5
30
330
8C5
100
AcDbEntity
  8
YKK_F1
 62
     7
100
AcDbLine
 10
0.0
 20
7350.0
 30
0.0
 11
27000.0
 21
7350.0
 31
0.0
  0
LINE
  5
31
330
8C5
100
AcDbEntity
  8
YKK_F1
 62
     7
100
AcDbLine
 10
0.0
 20
7800.0
 30
0.0
 11
27000.0
 21
7800.0
 31
0.0
  0
LINE
  5
32
330
8C5
100
AcDbEntity
  8
YKK_F1
 62
     7
100
AcDbLine
 10
0.0
 20
3900.0
 30
0.0
 11
27000.0
 21
3900.0
 31
0.0
  0
LINE
  5
33
330
8C5
100
AcDbEntity
  8
YKK_F1
 62
     7
100
AcDbLine
 10
0.0
 20
3450.0
 30
0.0
 11
27000.0
 21
3450.0
 31
0.0
  0
LINE
  5
34
330
8C5
100
AcDbEntity
  8
YKK_F1
 62
     7
100
AcDbLine
 10
0.0
 20
3000.0
 30
0.0
 11
27000.0
 21
3000.0
 31
0.0
  0
LINE
  5
35
330
8C5
100
AcDbEntity
  8
YKK_F1
 62
     7
100
AcDbLine
 10
0.0
 20
0.0
 30
0.0
 11
0.0
 21
20000.0
 31
0.0
  0
LINE
  5
36
330
8C5
100
AcDbEntity
  8
YKK_F1
 62
     7
100
AcDbLine
 10
4500.0
 20
0.0
 30
0.0
 11
4500.0
 21
19500.0
 31
0.0
  0
LINE
  5
37
330
8C5
100
AcDbEntity
  8
YKK_F1
 62
     7
100
AcDbLine
 10
9000.0
 20
0.0
 30
0.0
 11
9000.0
 21
19500.0
 31
0.0
  0
LINE
  5
38
330
8C5
100
AcDbEntity
  8
YKK_F1
 62
     7
100
AcDbLine
 10
13500.0
 20
0.0
 30
0.0
 11
13500.0
 21
19500.0
 31
0.0
  0
TEXT
  5
39
330
8C5
100
AcDbEntity
  8
0
100
AcDbText
 10
4600.0
 20
7487.5
 30
0.0
 40
175.0
  1
PXF-026***-V(-A)-S
100
AcDbText
  0
TEXT
  5
3A
330
8C5
100
AcDbEntity
  8
0
100
AcDbText
 10
4600.0
 20
7037.5
 30
0.0
 40
175.0
  1
W=300
100
AcDbText
  0
POINT
  5
3B
330
8C5
100
AcDbEntity
  8
YKK_IN
100
AcDbPoint
 10
0.0
 20
0.0
 30
0.0
  0
POINT
  5
3D
330
8C5
100
AcDbEntity
  8
YKK_F1
100
AcDbPoint
 10
0.0
 20
0.0
 30
0.0
  0
POINT
  5
3E
330
8C5
100
AcDbEntity
  8
YKK_N1
100
AcDbPoint
 10
0.0
 20
0.0
 30
0.0
  0
POINT
  5
40
330
8C5
100
AcDbEntity
  8
YKK_Z1
100
AcDbPoint
 10
0.0
 20
0.0
 30
0.0
  0
POINT
  5
42
330
8C5
100
AcDbEntity
  8
YKK_A1
100
AcDbPoint
 10
0.0
 20
0.0
 30
0.0
  0
POINT
  5
44
330
8C5
100
AcDbEntity
  8
YKK_A2
100
AcDbPoint
 10
0.0
 20
0.0
 30
0.0
  0
POINT
  5
46
330
8C5
100
AcDbEntity
  8
YKK_B1
100
AcDbPoint
 10
0.0
 20
0.0
 30
0.0
  0
POINT
  5
48
330
8C5
100
AcDbEntity
  8
YKK_C1
100
AcDbPoint
 10
0.0
 20
0.0
 30
0.0
  0
POINT
  5
4A
330
8C5
100
AcDbEntity
  8
YKK_B2
100
AcDbPoint
 10
0.0
 20
0.0
 30
0.0
  0
POINT
  5
4C
330
8C5
100
AcDbEntity
  8
YKK_C2
100
AcDbPoint
 10
0.0
 20
0.0
 30
0.0
  0
TEXT
  5
4E
330
8C5
100
AcDbEntity
  8
0
100
AcDbText
 10
100.0
 20
7487.5
 30
0.0
 40
175.0
  1
PXF-021***-V(-A)-S
100
AcDbText
  0
TEXT
  5
4F
330
8C5
100
AcDbEntity
  8
0
100
AcDbText
 10
100.0
 20
7037.5
 30
0.0
 40
175.0
  1
W=250
100
AcDbText
  0
TEXT
  5
117
330
8C5
100
AcDbEntity
  8
0
100
AcDbText
 10
9100.0
 20
7487.5
 30
0.0
 40
175.0
  1
PXF-036***-V(-A)-S
100
AcDbText
  0
TEXT
  5
118
330
8C5
100
AcDbEntity
  8
0
100
AcDbText
 10
9100.0
 20
7037.5
 30
0.0
 40
175.0
  1
W=400
100
AcDbText
  0
LINE
  5
2A7
330
8C5
100
AcDbEntity
  8
YKK_N1
  6
Continuous
100
AcDbLine
 10
11649.99976454
 20
9100.000015
 30
0.0
 11
11599.99976454
 21
9186.602555
 31
0.0
  0
TEXT
  5
2A8
330
8C5
100
AcDbEntity
  8
YKK_N1
  6
Continuous
100
AcDbText
 10
11638.72753218
 20
9169.16923839
 30
0.0
 40
60.0
  1
H=400
 50
90.000003
 72
     4
 11
11608.72752537
 21
9299.16923682
 31
0.0
100
AcDbText
  0
LINE
  5
2A9
330
8C5
100
AcDbEntity
  8
YKK_N1
  6
Continuous
100
AcDbLine
 10
11524.99976454
 20
9100.000015
 30
0.0
 11
11649.99976454
 21
9100.000015
 31
0.0
  0
LINE
  5
2AA
330
8C5
100
AcDbEntity
  8
YKK_N1
  6
Continuous
100
AcDbLine
 10
11599.99976454
 20
9413.397405
 30
0.0
 11
11699.99976454
 21
9413.397405
 31
0.0
  0
LINE
  5
2AB
330
8C5
100
AcDbEntity
  8
YKK_N1
  6
Continuous
100
AcDbLine
 10
11699.99976454
 20
9186.602555
 30
0.0
 11
11599.99976454
 21
9186.602555
 31
0.0
  0
LINE
  5
2AC
330
8C5
100
AcDbEntity
  8
YKK_N1
  6
Continuous
100
AcDbLine
 10
11599.99976454
 20
9413.397405
 30
0.0
 11
11649.99976454
 21
9500.000005
 31
0.0
  0
LINE
  5
2AD
330
8C5
100
AcDbEntity
  8
YKK_N1
  6
Continuous
100
AcDbLine
 10
11524.99976454
 20
9500.000005
 30
0.0
 11
11649.99976454
 21
9500.000005
 31
0.0
  0
LINE
  5
2AE
330
8C5
100
AcDbEntity
  8
YKK_A1
100
AcDbLine
 10
11072.99976042
 20
9122.99999958
 30
0.0
 11
11072.99976042
 21
9477.00000337
 31
0.0
  0
LINE
  5
2AF
330
8C5
100
AcDbEntity
  8
YKK_A1
100
AcDbLine
 10
11094.99976074
 20
9477.00000337
 30
0.0
 11
11094.99976074
 21
9122.99999958
 31
0.0
  0
LINE
  5
2B0
330
8C5
100
AcDbEntity
  8
YKK_A1
100
AcDbLine
 10
11049.99976007
 20
9500.00000371
 30
0.0
 11
11049.99976007
 21
9099.99999924
 31
0.0
  0
LINE
  5
2B1
330
8C5
100
AcDbEntity
  8
YKK_A1
100
AcDbLine
 10
11056.49976017
 20
9493.50000513
 30
0.0
 11
11056.49976017
 21
9106.49999934
 31
0.0
  0
LINE
  5
2B2
330
8C5
100
AcDbEntity
  8
YKK_A1
100
AcDbLine
 10
11449.99976454
 20
9099.99999924
 30
0.0
 11
11449.99976454
 21
9500.00000371
 31
0.0
  0
LINE
  5
2B3
330
8C5
100
AcDbEntity
  8
YKK_A1
100
AcDbLine
 10
11443.49976445
 20
9493.50000362
 30
0.0
 11
11443.49976445
 21
9106.49999934
 31
0.0
  0
LINE
  5
2B4
330
8C5
100
AcDbEntity
  8
YKK_A1
100
AcDbLine
 10
11426.9997642
 20
9477.00000337
 30
0.0
 11
11426.9997642
 21
9122.99999958
 31
0.0
  0
LINE
  5
2B5
330
8C5
100
AcDbEntity
  8
YKK_A1
100
AcDbLine
 10
11404.99976387
 20
9477.00000337
 30
0.0
 11
11404.99976387
 21
9122.99999958
 31
0.0
  0
LINE
  5
2B6
330
8C5
100
AcDbEntity
  8
YKK_N1
  6
Continuous
100
AcDbLine
 10
11050.000015
 20
8899.99999924
 30
0.0
 11
11450.000055
 21
8899.99999924
 31
0.0
  0
LINE
  5
2B7
330
8C5
100
AcDbEntity
  8
YKK_A1
100
AcDbLine
 10
11049.99976007
 20
9099.99999924
 30
0.0
 11
11449.99976454
 21
9099.99999924
 31
0.0
  0
LINE
  5
2B8
330
8C5
100
AcDbEntity
  8
YKK_A1
100
AcDbLine
 10
11443.49976445
 20
9106.49999934
 30
0.0
 11
11056.49976017
 21
9106.49999934
 31
0.0
  0
LINE
  5
2B9
330
8C5
100
AcDbEntity
  8
YKK_N1
  6
Continuous
100
AcDbLine
 10
11050.000015
 20
8899.99999924
 30
0.0
 11
11136.602515
 21
8849.99999924
 31
0.0
  0
LINE
  5
2BA
330
8C5
100
AcDbEntity
  8
YKK_N1
  6
Continuous
100
AcDbLine
 10
11136.602615
 20
8950.00005924
 30
0.0
 11
11050.000015
 21
8899.99999924
 31
0.0
  0
LINE
  5
2BB
330
8C5
100
AcDbEntity
  8
YKK_A1
100
AcDbLine
 10
11072.99976042
 20
9122.99999958
 30
0.0
 11
11049.99976007
 21
9099.99999924
 31
0.0
  0
LINE
  5
2BC
330
8C5
100
AcDbEntity
  8
YKK_N1
  6
Continuous
100
AcDbLine
 10
11050.000015
 20
9024.99999924
 30
0.0
 11
11050.000015
 21
8899.99999924
 31
0.0
  0
LINE
  5
2BD
330
8C5
100
AcDbEntity
  8
YKK_A1
100
AcDbLine
 10
11404.99976387
 20
9144.99999991
 30
0.0
 11
11094.99976074
 21
9144.99999991
 31
0.0
  0
LINE
  5
2BE
330
8C5
100
AcDbEntity
  8
YKK_A1
100
AcDbLine
 10
11072.99976042
 20
9122.99999958
 30
0.0
 11
11426.9997642
 21
9122.99999958
 31
0.0
  0
TEXT
  5
2BF
330
8C5
100
AcDbEntity
  8
YKK_N1
  6
Continuous
100
AcDbText
 10
11119.01046228
 20
8903.54849234
 30
0.0
 40
60.0
  1
W=400
 72
     4
 11
11259.01046228
 21
8933.54849234
 31
0.0
100
AcDbText
  0
LINE
  5
2C0
330
8C5
100
AcDbEntity
  8
YKK_N1
  6
Continuous
100
AcDbLine
 10
11136.602615
 20
8950.00005924
 30
0.0
 11
11136.602615
 21
8850.00005924
 31
0.0
  0
LINE
  5
2C1
330
8C5
100
AcDbEntity
  8
YKK_IN
  6
Continuous
100
AcDbLine
 10
11285.35536642
 20
9064.64465256
 30
0.0
 11
11214.64470358
 21
9135.35534592
 31
0.0
  0
LINE
  5
2C2
330
8C5
100
AcDbEntity
  8
YKK_IN
  6
Continuous
100
AcDbLine
 10
11285.35536642
 20
9135.35534592
 30
0.0
 11
11214.64470358
 21
9064.64465256
 31
0.0
  0
CIRCLE
  5
2C3
330
8C5
100
AcDbEntity
  8
YKK_IN
  6
Continuous
100
AcDbCircle
 10
11250.00005026
 20
9099.99999924
 30
0.0
 40
25.0
  0
LINE
  5
2C4
330
8C5
100
AcDbEntity
  8
YKK_N1
  6
Continuous
100
AcDbLine
 10
11450.000055
 20
8899.99999924
 30
0.0
 11
11363.397525
 21
8949.99999924
 31
0.0
  0
LINE
  5
2C5
330
8C5
100
AcDbEntity
  8
YKK_N1
  6
Continuous
100
AcDbLine
 10
11450.000055
 20
8899.99999924
 30
0.0
 11
11363.397495
 21
8849.99997924
 31
0.0
  0
LINE
  5
2C6
330
8C5
100
AcDbEntity
  8
YKK_N1
  6
Continuous
100
AcDbLine
 10
11363.397495
 20
8949.99997924
 30
0.0
 11
11363.397495
 21
8849.99997924
 31
0.0
  0
LINE
  5
2C7
330
8C5
100
AcDbEntity
  8
YKK_A1
100
AcDbLine
 10
11426.9997642
 20
9122.99999958
 30
0.0
 11
11449.99976454
 21
9099.99999924
 31
0.0
  0
LINE
  5
2C8
330
8C5
100
AcDbEntity
  8
YKK_N1
  6
Continuous
100
AcDbLine
 10
11450.000055
 20
9024.99999924
 30
0.0
 11
11450.000055
 21
8899.99999924
 31
0.0
  0
TEXT
  5
2C9
330
8C5
100
AcDbEntity
  8
YKK_A1
100
AcDbText
 10
11361.98269836
 20
9157.98064503
 30
0.0
 40
50.0
  1
F
100
AcDbText
  0
LINE
  5
2CA
330
8C5
100
AcDbEntity
  8
YKK_A1
100
AcDbLine
 10
11056.49975865
 20
9493.50000513
 30
0.0
 11
11443.49976597
 21
9493.50000513
 31
0.0
  0
LINE
  5
2CB
330
8C5
100
AcDbEntity
  8
YKK_A1
100
AcDbLine
 10
11449.99976454
 20
9500.00000371
 30
0.0
 11
11049.99976007
 21
9500.00000371
 31
0.0
  0
LINE
  5
2CC
330
8C5
100
AcDbEntity
  8
YKK_A1
100
AcDbLine
 10
11072.99976042
 20
9477.00000337
 30
0.0
 11
11049.99976007
 21
9500.00000371
 31
0.0
  0
LINE
  5
2CD
330
8C5
100
AcDbEntity
  8
YKK_A1
100
AcDbLine
 10
11404.99976387
 20
9455.00000304
 30
0.0
 11
11094.99976074
 21
9455.00000304
 31
0.0
  0
LINE
  5
2CE
330
8C5
100
AcDbEntity
  8
YKK_A1
100
AcDbLine
 10
11072.99976042
 20
9477.00000337
 30
0.0
 11
11426.9997642
 21
9477.00000337
 31
0.0
  0
LINE
  5
2CF
330
8C5
100
AcDbEntity
  8
YKK_A1
100
AcDbLine
 10
11426.9997642
 20
9477.00000337
 30
0.0
 11
11449.99976454
 21
9500.00000371
 31
0.0
  0
LINE
  5
2D0
330
8C5
100
AcDbEntity
  8
YKK_N1
  6
Continuous
100
AcDbLine
 10
11649.99976454
 20
9100.000015
 30
0.0
 11
11649.99976454
 21
9500.000005
 31
0.0
  0
LINE
  5
2D1
330
8C5
100
AcDbEntity
  8
YKK_N1
  6
Continuous
100
AcDbLine
 10
11699.99976454
 20
9186.602545
 30
0.0
 11
11649.99976454
 21
9100.000015
 31
0.0
  0
LINE
  5
2D2
330
8C5
100
AcDbEntity
  8
YKK_N1
  6
Continuous
100
AcDbLine
 10
11649.99976454
 20
9500.000005
 30
0.0
 11
11699.99976454
 21
9413.397605
 31
0.0
  0
TEXT
  5
2D3
330
8C5
100
AcDbEntity
  8
0
100
AcDbText
 10
4600.0
 20
14837.5
 30
0.0
 40
175.0
  1
W=300 H=300
100
AcDbText
  0
TEXT
  5
2D4
330
8C5
100
AcDbEntity
  8
0
100
AcDbText
 10
4600.0
 20
15287.5
 30
0.0
 40
175.0
  1
PXF-026023-V(-A)-S
100
AcDbText
  0
TEXT
  5
2D5
330
8C5
100
AcDbEntity
  8
0
100
AcDbText
 10
500.0
 20
19625.0
 30
0.0
 40
250.0
  1
ＰＸＰＭＨ＿ＷＩＮ０１ プラマードＨ　ウインスターシリーズ樹脂タイプ ＦＩＸ窓(スクエア)
100
AcDbText
  0
TEXT
  5
2D6
330
8C5
100
AcDbEntity
  8
0
100
AcDbText
 10
100.0
 20
18737.5
 30
0.0
 40
175.0
  1
W=250 H=250
100
AcDbText
  0
TEXT
  5
2D7
330
8C5
100
AcDbEntity
  8
0
100
AcDbText
 10
100.0
 20
19187.5
 30
0.0
 40
175.0
  1
PXF-021018-V(-A)-S
100
AcDbText
  0
LINE
  5
2D8
330
8C5
100
AcDbEntity
  8
YKK_N1
  6
Continuous
100
AcDbLine
 10
2625.00000224
 20
17061.60254352
 30
0.0
 11
2575.00000224
 21
16975.00001352
 31
0.0
  0
LINE
  5
2D9
330
8C5
100
AcDbEntity
  8
YKK_N1
  6
Continuous
100
AcDbLine
 10
2575.00000224
 20
16975.00001352
 30
0.0
 11
2525.00000224
 21
17061.60255352
 31
0.0
  0
LINE
  5
2DA
330
8C5
100
AcDbEntity
  8
YKK_N1
  6
Continuous
100
AcDbLine
 10
2575.00000224
 20
16975.00001352
 30
0.0
 11
2575.00000224
 21
17225.00000352
 31
0.0
  0
TEXT
  5
2DB
330
8C5
100
AcDbEntity
  8
YKK_N1
  6
Continuous
100
AcDbText
 10
2696.69414158
 20
16973.12356097
 30
0.0
 40
60.0
  1
H=250
 50
90.000003
 72
     4
 11
2666.69413451
 21
17108.1235594
 31
0.0
100
AcDbText
  0
LINE
  5
2DC
330
8C5
100
AcDbEntity
  8
YKK_A1
100
AcDbLine
 10
2330.00000156
 20
17202.00000189
 30
0.0
 11
2330.00000156
 21
16997.99999811
 31
0.0
  0
LINE
  5
2DD
330
8C5
100
AcDbEntity
  8
YKK_A1
100
AcDbLine
 10
2352.00000189
 20
17202.00000189
 30
0.0
 11
2352.00000189
 21
16997.99999811
 31
0.0
  0
LINE
  5
2DE
330
8C5
100
AcDbEntity
  8
YKK_A1
100
AcDbLine
 10
2169.99999844
 20
17202.00000189
 30
0.0
 11
2169.99999844
 21
16997.99999811
 31
0.0
  0
LINE
  5
2DF
330
8C5
100
AcDbEntity
  8
YKK_A1
100
AcDbLine
 10
2147.99999811
 20
16997.99999811
 30
0.0
 11
2147.99999811
 21
17202.00000189
 31
0.0
  0
LINE
  5
2E0
330
8C5
100
AcDbEntity
  8
YKK_A1
100
AcDbLine
 10
2368.50000214
 20
17218.50000214
 30
0.0
 11
2368.50000214
 21
16981.49999786
 31
0.0
  0
LINE
  5
2E1
330
8C5
100
AcDbEntity
  8
YKK_A1
100
AcDbLine
 10
2375.00000224
 20
16974.99999776
 30
0.0
 11
2375.00000224
 21
17225.00000224
 31
0.0
  0
LINE
  5
2E2
330
8C5
100
AcDbEntity
  8
YKK_A1
100
AcDbLine
 10
2131.49999786
 20
17218.50000366
 30
0.0
 11
2131.49999786
 21
16981.49999786
 31
0.0
  0
LINE
  5
2E3
330
8C5
100
AcDbEntity
  8
YKK_A1
100
AcDbLine
 10
2124.99999776
 20
17225.00000224
 30
0.0
 11
2124.99999776
 21
16974.99999776
 31
0.0
  0
LINE
  5
2E4
330
8C5
100
AcDbEntity
  8
YKK_N1
  6
Continuous
100
AcDbLine
 10
2450.00000224
 20
16975.00001352
 30
0.0
 11
2575.00000224
 21
16975.00001352
 31
0.0
  0
LINE
  5
2E5
330
8C5
100
AcDbEntity
  8
YKK_A1
100
AcDbLine
 10
2330.00000156
 20
17019.99999844
 30
0.0
 11
2169.99999844
 21
17019.99999844
 31
0.0
  0
LINE
  5
2E6
330
8C5
100
AcDbEntity
  8
YKK_A1
100
AcDbLine
 10
2147.99999811
 20
16997.99999811
 30
0.0
 11
2352.00000189
 21
16997.99999811
 31
0.0
  0
LINE
  5
2E7
330
8C5
100
AcDbEntity
  8
YKK_A1
100
AcDbLine
 10
2124.99999776
 20
16974.99999776
 30
0.0
 11
2375.00000224
 21
16974.99999776
 31
0.0
  0
LINE
  5
2E8
330
8C5
100
AcDbEntity
  8
YKK_A1
100
AcDbLine
 10
2368.50000214
 20
16981.49999786
 30
0.0
 11
2131.49999786
 21
16981.49999786
 31
0.0
  0
LINE
  5
2E9
330
8C5
100
AcDbEntity
  8
YKK_N1
  6
Continuous
100
AcDbLine
 10
2211.60285269
 20
16825.00005776
 30
0.0
 11
2125.00025269
 21
16774.99999776
 31
0.0
  0
LINE
  5
2EA
330
8C5
100
AcDbEntity
  8
YKK_N1
  6
Continuous
100
AcDbLine
 10
2125.00025269
 20
16774.99999776
 30
0.0
 11
2211.60275269
 21
16724.99999776
 31
0.0
  0
LINE
  5
2EB
330
8C5
100
AcDbEntity
  8
YKK_N1
  6
Continuous
100
AcDbLine
 10
2125.00025269
 20
16774.99999776
 30
0.0
 11
2375.00029269
 21
16774.99999776
 31
0.0
  0
TEXT
  5
2EC
330
8C5
100
AcDbEntity
  8
YKK_N1
  6
Continuous
100
AcDbText
 10
2114.01069997
 20
16650.07182722
 30
0.0
 40
60.0
  1
W=250
 72
     4
 11
2259.01069997
 21
16680.07182722
 31
0.0
100
AcDbText
  0
LINE
  5
2ED
330
8C5
100
AcDbEntity
  8
YKK_A1
100
AcDbLine
 10
2147.99999811
 20
16997.99999811
 30
0.0
 11
2124.99999776
 21
16974.99999776
 31
0.0
  0
LINE
  5
2EE
330
8C5
100
AcDbEntity
  8
YKK_N1
  6
Continuous
100
AcDbLine
 10
2125.00025269
 20
16899.99999776
 30
0.0
 11
2125.00025269
 21
16774.99999776
 31
0.0
  0
LINE
  5
2EF
330
8C5
100
AcDbEntity
  8
YKK_IN
  6
Continuous
100
AcDbLine
 10
2285.35560411
 20
17010.35534444
 30
0.0
 11
2214.64494127
 21
16939.64465109
 31
0.0
  0
LINE
  5
2F0
330
8C5
100
AcDbEntity
  8
YKK_IN
  6
Continuous
100
AcDbLine
 10
2285.35560411
 20
16939.64465109
 30
0.0
 11
2214.64494127
 21
17010.35534444
 31
0.0
  0
LINE
  5
2F1
330
8C5
100
AcDbEntity
  8
YKK_A1
100
AcDbLine
 10
2352.00000189
 20
16997.99999811
 30
0.0
 11
2375.00000224
 21
16974.99999776
 31
0.0
  0
CIRCLE
  5
2F2
330
8C5
100
AcDbEntity
  8
YKK_IN
  6
Continuous
100
AcDbCircle
 10
2250.00028795
 20
16974.99999776
 30
0.0
 40
25.0
  0
LINE
  5
2F3
330
8C5
100
AcDbEntity
  8
YKK_N1
  6
Continuous
100
AcDbLine
 10
2211.60285269
 20
16825.00005776
 30
0.0
 11
2211.60285269
 21
16725.00005776
 31
0.0
  0
LINE
  5
2F4
330
8C5
100
AcDbEntity
  8
YKK_N1
  6
Continuous
100
AcDbLine
 10
2288.39773269
 20
16824.99997776
 30
0.0
 11
2288.39773269
 21
16724.99997776
 31
0.0
  0
LINE
  5
2F5
330
8C5
100
AcDbEntity
  8
YKK_N1
  6
Continuous
100
AcDbLine
 10
2375.00029269
 20
16774.99999776
 30
0.0
 11
2288.39773269
 21
16724.99997776
 31
0.0
  0
LINE
  5
2F6
330
8C5
100
AcDbEntity
  8
YKK_N1
  6
Continuous
100
AcDbLine
 10
2375.00029269
 20
16774.99999776
 30
0.0
 11
2288.39776269
 21
16824.99999776
 31
0.0
  0
LINE
  5
2F7
330
8C5
100
AcDbEntity
  8
YKK_N1
  6
Continuous
100
AcDbLine
 10
2375.00029269
 20
16899.99999776
 30
0.0
 11
2375.00029269
 21
16774.99999776
 31
0.0
  0
LINE
  5
2F8
330
8C5
100
AcDbEntity
  8
YKK_N1
  6
Continuous
100
AcDbLine
 10
2450.00000224
 20
17225.00000352
 30
0.0
 11
2575.00000224
 21
17225.00000352
 31
0.0
  0
LINE
  5
2F9
330
8C5
100
AcDbEntity
  8
YKK_A1
100
AcDbLine
 10
2131.49999634
 20
17218.50000366
 30
0.0
 11
2368.50000366
 21
17218.50000366
 31
0.0
  0
LINE
  5
2FA
330
8C5
100
AcDbEntity
  8
YKK_A1
100
AcDbLine
 10
2375.00000224
 20
17225.00000224
 30
0.0
 11
2124.99999776
 21
17225.00000224
 31
0.0
  0
LINE
  5
2FB
330
8C5
100
AcDbEntity
  8
YKK_A1
100
AcDbLine
 10
2147.99999811
 20
17202.00000189
 30
0.0
 11
2352.00000189
 21
17202.00000189
 31
0.0
  0
LINE
  5
2FC
330
8C5
100
AcDbEntity
  8
YKK_A1
100
AcDbLine
 10
2330.00000156
 20
17180.00000156
 30
0.0
 11
2169.99999844
 21
17180.00000156
 31
0.0
  0
LINE
  5
2FD
330
8C5
100
AcDbEntity
  8
YKK_A1
100
AcDbLine
 10
2147.99999811
 20
17202.00000189
 30
0.0
 11
2124.99999776
 21
17225.00000224
 31
0.0
  0
TEXT
  5
2FE
330
8C5
100
AcDbEntity
  8
YKK_A1
100
AcDbText
 10
2286.98293605
 20
17032.98064356
 30
0.0
 40
50.0
  1
F
100
AcDbText
  0
LINE
  5
2FF
330
8C5
100
AcDbEntity
  8
YKK_A1
100
AcDbLine
 10
2352.00000189
 20
17202.00000189
 30
0.0
 11
2375.00000224
 21
17225.00000224
 31
0.0
  0
LINE
  5
300
330
8C5
100
AcDbEntity
  8
YKK_N1
  6
Continuous
100
AcDbLine
 10
2625.00000224
 20
17061.60255352
 30
0.0
 11
2525.00000224
 21
17061.60255352
 31
0.0
  0
LINE
  5
301
330
8C5
100
AcDbEntity
  8
YKK_N1
  6
Continuous
100
AcDbLine
 10
2525.00000224
 20
17138.39740352
 30
0.0
 11
2625.00000224
 21
17138.39740352
 31
0.0
  0
LINE
  5
302
330
8C5
100
AcDbEntity
  8
YKK_N1
  6
Continuous
100
AcDbLine
 10
2525.00000224
 20
17138.39740352
 30
0.0
 11
2575.00000224
 21
17225.00000352
 31
0.0
  0
LINE
  5
303
330
8C5
100
AcDbEntity
  8
YKK_N1
  6
Continuous
100
AcDbLine
 10
2575.00000224
 20
17225.00000352
 30
0.0
 11
2625.00000224
 21
17138.39760352
 31
0.0
  0
TEXT
  5
304
330
8C5
100
AcDbEntity
  8
0
100
AcDbText
 10
9100.0
 20
10937.5
 30
0.0
 40
175.0
  1
W=400 H=400
100
AcDbText
  0
TEXT
  5
305
330
8C5
100
AcDbEntity
  8
0
100
AcDbText
 10
9100.0
 20
11387.5
 30
0.0
 40
175.0
  1
PXF-036033-V(-A)-S
100
AcDbText
  0
TEXT
  5
306
330
8C5
100
AcDbEntity
  8
YKK_A1
100
AcDbText
 10
6811.98269836
 20
13107.98063503
 30
0.0
 40
50.0
  1
F
100
AcDbText
  0
LINE
  5
307
330
8C5
100
AcDbEntity
  8
YKK_A1
100
AcDbLine
 10
6876.9997642
 20
13326.99999337
 30
0.0
 11
6876.9997642
 21
13072.99998958
 31
0.0
  0
LINE
  5
308
330
8C5
100
AcDbEntity
  8
YKK_A1
100
AcDbLine
 10
6893.49976445
 20
13343.49999362
 30
0.0
 11
6893.49976445
 21
13056.49998934
 31
0.0
  0
LINE
  5
309
330
8C5
100
AcDbEntity
  8
YKK_A1
100
AcDbLine
 10
6854.99976387
 20
13326.99999337
 30
0.0
 11
6854.99976387
 21
13072.99998958
 31
0.0
  0
LINE
  5
30A
330
8C5
100
AcDbEntity
  8
YKK_A1
100
AcDbLine
 10
6899.99976454
 20
13049.99998924
 30
0.0
 11
6899.99976454
 21
13349.99999371
 31
0.0
  0
LINE
  5
30B
330
8C5
100
AcDbEntity
  8
YKK_N1
  6
Continuous
100
AcDbLine
 10
7149.99976454
 20
13136.602535
 30
0.0
 11
7099.99976454
 21
13050.000005
 31
0.0
  0
LINE
  5
30C
330
8C5
100
AcDbEntity
  8
YKK_N1
  6
Continuous
100
AcDbLine
 10
7099.99976454
 20
13050.000005
 30
0.0
 11
7049.99976454
 21
13136.602545
 31
0.0
  0
LINE
  5
30D
330
8C5
100
AcDbEntity
  8
YKK_N1
  6
Continuous
100
AcDbLine
 10
7099.99976454
 20
13050.000005
 30
0.0
 11
7099.99976454
 21
13349.999995
 31
0.0
  0
TEXT
  5
30E
330
8C5
100
AcDbEntity
  8
YKK_N1
  6
Continuous
100
AcDbText
 10
7247.30229588
 20
13053.12355244
 30
0.0
 40
60.0
  1
H=300
 50
90.000003
 72
     4
 11
7217.30228907
 21
13183.12355087
 31
0.0
100
AcDbText
  0
LINE
  5
30F
330
8C5
100
AcDbEntity
  8
YKK_A1
100
AcDbLine
 10
6622.99976042
 20
13072.99998958
 30
0.0
 11
6622.99976042
 21
13326.99999337
 31
0.0
  0
LINE
  5
310
330
8C5
100
AcDbEntity
  8
YKK_A1
100
AcDbLine
 10
6606.49976017
 20
13343.49999513
 30
0.0
 11
6606.49976017
 21
13056.49998934
 31
0.0
  0
LINE
  5
311
330
8C5
100
AcDbEntity
  8
YKK_A1
100
AcDbLine
 10
6644.99976074
 20
13326.99999337
 30
0.0
 11
6644.99976074
 21
13072.99998958
 31
0.0
  0
LINE
  5
312
330
8C5
100
AcDbEntity
  8
YKK_A1
100
AcDbLine
 10
6599.99976007
 20
13349.99999371
 30
0.0
 11
6599.99976007
 21
13049.99998924
 31
0.0
  0
LINE
  5
313
330
8C5
100
AcDbEntity
  8
YKK_IN
  6
Continuous
100
AcDbLine
 10
6785.35536642
 20
13014.64464256
 30
0.0
 11
6714.64470358
 21
13085.35533592
 31
0.0
  0
LINE
  5
314
330
8C5
100
AcDbEntity
  8
YKK_IN
  6
Continuous
100
AcDbLine
 10
6785.35536642
 20
13085.35533592
 30
0.0
 11
6714.64470358
 21
13014.64464256
 31
0.0
  0
CIRCLE
  5
315
330
8C5
100
AcDbEntity
  8
YKK_IN
  6
Continuous
100
AcDbCircle
 10
6750.00005026
 20
13049.99998924
 30
0.0
 40
25.0
  0
LINE
  5
316
330
8C5
100
AcDbEntity
  8
YKK_A1
100
AcDbLine
 10
6599.99976007
 20
13049.99998924
 30
0.0
 11
6899.99976454
 21
13049.99998924
 31
0.0
  0
LINE
  5
317
330
8C5
100
AcDbEntity
  8
YKK_N1
  6
Continuous
100
AcDbLine
 10
6600.000015
 20
12849.99998924
 30
0.0
 11
6900.000055
 21
12849.99998924
 31
0.0
  0
TEXT
  5
318
330
8C5
100
AcDbEntity
  8
YKK_N1
  6
Continuous
100
AcDbText
 10
6619.01046228
 20
12725.0718187
 30
0.0
 40
60.0
  1
W=300
 72
     4
 11
6759.01046228
 21
12755.0718187
 31
0.0
100
AcDbText
  0
LINE
  5
319
330
8C5
100
AcDbEntity
  8
YKK_A1
100
AcDbLine
 10
6854.99976387
 20
13094.99998991
 30
0.0
 11
6644.99976074
 21
13094.99998991
 31
0.0
  0
LINE
  5
31A
330
8C5
100
AcDbEntity
  8
YKK_A1
100
AcDbLine
 10
6622.99976042
 20
13072.99998958
 30
0.0
 11
6876.9997642
 21
13072.99998958
 31
0.0
  0
LINE
  5
31B
330
8C5
100
AcDbEntity
  8
YKK_A1
100
AcDbLine
 10
6893.49976445
 20
13056.49998934
 30
0.0
 11
6606.49976017
 21
13056.49998934
 31
0.0
  0
LINE
  5
31C
330
8C5
100
AcDbEntity
  8
YKK_N1
  6
Continuous
100
AcDbLine
 10
6600.000015
 20
12849.99998924
 30
0.0
 11
6686.602515
 21
12799.99998924
 31
0.0
  0
LINE
  5
31D
330
8C5
100
AcDbEntity
  8
YKK_N1
  6
Continuous
100
AcDbLine
 10
6686.602615
 20
12900.00004924
 30
0.0
 11
6600.000015
 21
12849.99998924
 31
0.0
  0
LINE
  5
31E
330
8C5
100
AcDbEntity
  8
YKK_N1
  6
Continuous
100
AcDbLine
 10
6600.000015
 20
12974.99998924
 30
0.0
 11
6600.000015
 21
12849.99998924
 31
0.0
  0
LINE
  5
31F
330
8C5
100
AcDbEntity
  8
YKK_N1
  6
Continuous
100
AcDbLine
 10
6686.602615
 20
12900.00004924
 30
0.0
 11
6686.602615
 21
12800.00004924
 31
0.0
  0
LINE
  5
320
330
8C5
100
AcDbEntity
  8
YKK_A1
100
AcDbLine
 10
6622.99976042
 20
13072.99998958
 30
0.0
 11
6599.99976007
 21
13049.99998924
 31
0.0
  0
LINE
  5
321
330
8C5
100
AcDbEntity
  8
YKK_N1
  6
Continuous
100
AcDbLine
 10
6974.99976454
 20
13050.000005
 30
0.0
 11
7099.99976454
 21
13050.000005
 31
0.0
  0
LINE
  5
322
330
8C5
100
AcDbEntity
  8
YKK_N1
  6
Continuous
100
AcDbLine
 10
6900.000055
 20
12849.99998924
 30
0.0
 11
6813.397495
 21
12799.99996924
 31
0.0
  0
LINE
  5
323
330
8C5
100
AcDbEntity
  8
YKK_N1
  6
Continuous
100
AcDbLine
 10
6900.000055
 20
12974.99998924
 30
0.0
 11
6900.000055
 21
12849.99998924
 31
0.0
  0
LINE
  5
324
330
8C5
100
AcDbEntity
  8
YKK_N1
  6
Continuous
100
AcDbLine
 10
6813.397495
 20
12899.99996924
 30
0.0
 11
6813.397495
 21
12799.99996924
 31
0.0
  0
LINE
  5
325
330
8C5
100
AcDbEntity
  8
YKK_N1
  6
Continuous
100
AcDbLine
 10
6900.000055
 20
12849.99998924
 30
0.0
 11
6813.397525
 21
12899.99998924
 31
0.0
  0
LINE
  5
326
330
8C5
100
AcDbEntity
  8
YKK_A1
100
AcDbLine
 10
6876.9997642
 20
13072.99998958
 30
0.0
 11
6899.99976454
 21
13049.99998924
 31
0.0
  0
LINE
  5
327
330
8C5
100
AcDbEntity
  8
YKK_A1
100
AcDbLine
 10
6854.99976387
 20
13304.99999304
 30
0.0
 11
6644.99976074
 21
13304.99999304
 31
0.0
  0
LINE
  5
328
330
8C5
100
AcDbEntity
  8
YKK_A1
100
AcDbLine
 10
6622.99976042
 20
13326.99999337
 30
0.0
 11
6876.9997642
 21
13326.99999337
 31
0.0
  0
LINE
  5
329
330
8C5
100
AcDbEntity
  8
YKK_A1
100
AcDbLine
 10
6606.49975865
 20
13343.49999513
 30
0.0
 11
6893.49976597
 21
13343.49999513
 31
0.0
  0
LINE
  5
32A
330
8C5
100
AcDbEntity
  8
YKK_A1
100
AcDbLine
 10
6899.99976454
 20
13349.99999371
 30
0.0
 11
6599.99976007
 21
13349.99999371
 31
0.0
  0
LINE
  5
32B
330
8C5
100
AcDbEntity
  8
YKK_A1
100
AcDbLine
 10
6622.99976042
 20
13326.99999337
 30
0.0
 11
6599.99976007
 21
13349.99999371
 31
0.0
  0
LINE
  5
32C
330
8C5
100
AcDbEntity
  8
YKK_N1
  6
Continuous
100
AcDbLine
 10
6974.99976454
 20
13349.999995
 30
0.0
 11
7099.99976454
 21
13349.999995
 31
0.0
  0
LINE
  5
32D
330
8C5
100
AcDbEntity
  8
YKK_A1
100
AcDbLine
 10
6876.9997642
 20
13326.99999337
 30
0.0
 11
6899.99976454
 21
13349.99999371
 31
0.0
  0
LINE
  5
32E
330
8C5
100
AcDbEntity
  8
YKK_N1
  6
Continuous
100
AcDbLine
 10
7099.99976454
 20
13349.999995
 30
0.0
 11
7149.99976454
 21
13263.397595
 31
0.0
  0
LINE
  5
32F
330
8C5
100
AcDbEntity
  8
YKK_N1
  6
Continuous
100
AcDbLine
 10
7049.99976454
 20
13263.397395
 30
0.0
 11
7149.99976454
 21
13263.397395
 31
0.0
  0
LINE
  5
330
330
8C5
100
AcDbEntity
  8
YKK_N1
  6
Continuous
100
AcDbLine
 10
7049.99976454
 20
13263.397395
 30
0.0
 11
7099.99976454
 21
13349.999995
 31
0.0
  0
LINE
  5
331
330
8C5
100
AcDbEntity
  8
YKK_N1
  6
Continuous
100
AcDbLine
 10
7149.99976454
 20
13136.602545
 30
0.0
 11
7049.99976454
 21
13136.602545
 31
0.0
  0
LINE
  5
332
330
8C5
100
AcDbEntity
  8
YKK_F1
 62
     7
100
AcDbLine
 10
27000.0
 20
0.0
 30
0.0
 11
27000.0
 21
19500.0
 31
0.0
  0
LINE
  5
333
330
8C5
100
AcDbEntity
  8
YKK_F1
 62
     7
100
AcDbLine
 10
27500.0
 20
0.0
 30
0.0
 11
27500.0
 21
20000.0
 31
0.0
  0
LINE
  5
334
330
8C5
100
AcDbEntity
  8
YKK_F1
 62
     7
100
AcDbLine
 10
22500.0
 20
0.0
 30
0.0
 11
22500.0
 21
19500.0
 31
0.0
  0
LINE
  5
335
330
8C5
100
AcDbEntity
  8
YKK_F1
 62
     7
100
AcDbLine
 10
18000.0
 20
0.0
 30
0.0
 11
18000.0
 21
19500.0
 31
0.0
  0
LINE
  5
1F8B
330
8C5
100
AcDbEntity
  8
YKK_N1
  6
Continuous
100
AcDbLine
 10
15722.49997
 20
9100.000015
 30
0.0
 11
16047.49997
 21
9100.000015
 31
0.0
  0
LINE
  5
1F8C
330
8C5
100
AcDbEntity
  8
YKK_N1
  6
Continuous
100
AcDbLine
 10
15722.49997
 20
9080.000015
 30
0.0
 11
16047.49997
 21
9080.000015
 31
0.0
  0
LINE
  5
1F8D
330
8C5
100
AcDbEntity
  8
YKK_N1
  6
Continuous
100
AcDbLine
 10
15722.50003
 20
9520.000005
 30
0.0
 11
16047.50003
 21
9520.000005
 31
0.0
  0
LINE
  5
1F8E
330
8C5
100
AcDbEntity
  8
YKK_N1
  6
Continuous
100
AcDbLine
 10
15722.50003
 20
9500.000005
 30
0.0
 11
16047.50003
 21
9500.000005
 31
0.0
  0
LINE
  5
1F8F
330
8C5
100
AcDbEntity
  8
YKK_C1
100
AcDbLine
 10
15532.49986027
 20
9157.00001734
 30
0.0
 11
15532.49984629
 21
9443.00000513
 31
0.0
  0
LINE
  5
1F90
330
8C5
100
AcDbEntity
  8
YKK_C1
100
AcDbLine
 10
15497.49984661
 20
9130.00000513
 30
0.0
 11
15497.49984661
 21
9470.00000513
 31
0.0
  0
LINE
  5
1F91
330
8C5
100
AcDbEntity
  8
YKK_C1
100
AcDbLine
 10
15519.49984629
 20
9130.00000513
 30
0.0
 11
15519.49984629
 21
9470.00000513
 31
0.0
  0
LINE
  5
1F92
330
8C5
100
AcDbEntity
  8
YKK_C1
100
AcDbLine
 10
15452.49984629
 20
9483.50000513
 30
0.0
 11
15452.49984629
 21
9116.50000513
 31
0.0
  0
TEXT
  5
1F93
330
8C5
100
AcDbEntity
  8
YKK_N1
  6
Continuous
100
AcDbText
 10
15340.37716562
 20
8710.77297341
 30
0.0
 40
60.0
  1
65
 50
0.000003
 72
     4
 11
15390.37716405
 21
8740.77297603
 31
0.0
100
AcDbText
  0
TEXT
  5
1F94
330
8C5
100
AcDbEntity
  8
YKK_N1
  6
Continuous
100
AcDbText
 10
15555.63898791
 20
8710.77297367
 30
0.0
 40
60.0
  1
30
 50
0.000003
 72
     4
 11
15600.63898634
 21
8740.77297603
 31
0.0
100
AcDbText
  0
CIRCLE
  5
1F95
330
8C5
100
AcDbEntity
  8
YKK_N1
  6
Continuous
100
AcDbCircle
 10
15547.49984515
 20
8698.77297603
 30
0.0
 40
5.0
  0
CIRCLE
  5
1F96
330
8C5
100
AcDbEntity
  8
YKK_N1
  6
Continuous
100
AcDbCircle
 10
15517.49984515
 20
8698.77297603
 30
0.0
 40
5.0
  0
CIRCLE
  5
1F97
330
8C5
100
AcDbEntity
  8
YKK_N1
  6
Continuous
100
AcDbCircle
 10
15452.49984515
 20
8698.77297603
 30
0.0
 40
5.0
  0
LINE
  5
1F98
330
8C5
100
AcDbEntity
  8
YKK_N1
  6
Continuous
100
AcDbLine
 10
15452.49984515
 20
8698.77297603
 30
0.0
 11
15547.49984515
 21
8698.77297603
 31
0.0
  0
LINE
  5
1F99
330
8C5
100
AcDbEntity
  8
YKK_N1
  6
Continuous
100
AcDbLine
 10
15452.49984515
 20
8823.77297603
 30
0.0
 11
15452.49984515
 21
8698.77297603
 31
0.0
  0
LINE
  5
1F9A
330
8C5
100
AcDbEntity
  8
YKK_N1
  6
Continuous
100
AcDbLine
 10
15517.49984515
 20
8823.77297603
 30
0.0
 11
15517.49984515
 21
8698.77297603
 31
0.0
  0
LINE
  5
1F9B
330
8C5
100
AcDbEntity
  8
YKK_N1
  6
Continuous
100
AcDbLine
 10
15547.49984515
 20
8823.77297603
 30
0.0
 11
15547.49984515
 21
8698.77297603
 31
0.0
  0
LINE
  5
1F9C
330
8C5
100
AcDbEntity
  8
YKK_C1
100
AcDbLine
 10
15522.49984629
 20
9145.00000513
 30
0.0
 11
15522.49984629
 21
9140.25000513
 31
0.0
  0
LINE
  5
1F9D
330
8C5
100
AcDbEntity
  8
YKK_C1
100
AcDbLine
 10
15532.49984629
 20
9145.00000513
 30
0.0
 11
15522.49984629
 21
9145.00000513
 31
0.0
  0
LINE
  5
1F9E
330
8C5
100
AcDbEntity
  8
YKK_C1
100
AcDbLine
 10
15522.49984629
 20
9131.50000513
 30
0.0
 11
15532.49984629
 21
9131.50000513
 31
0.0
  0
LINE
  5
1F9F
330
8C5
100
AcDbEntity
  8
YKK_C1
100
AcDbLine
 10
15522.49984629
 20
9136.75000513
 30
0.0
 11
15522.49984629
 21
9100.00000513
 31
0.0
  0
LINE
  5
1FA0
330
8C5
100
AcDbEntity
  8
YKK_C1
100
AcDbLine
 10
15532.49984629
 20
9100.00000513
 30
0.0
 11
15522.49984629
 21
9100.00000513
 31
0.0
  0
LINE
  5
1FA1
330
8C5
100
AcDbEntity
  8
YKK_C1
100
AcDbLine
 10
15547.49984629
 20
9104.00000513
 30
0.0
 11
15532.49984629
 21
9104.00000513
 31
0.0
  0
LINE
  5
1FA2
330
8C5
100
AcDbEntity
  8
YKK_C1
100
AcDbLine
 10
15547.49984629
 20
9100.00000513
 30
0.0
 11
15547.49984629
 21
9104.00000513
 31
0.0
  0
LINE
  5
1FA3
330
8C5
100
AcDbEntity
  8
YKK_C1
100
AcDbLine
 10
15532.49984629
 20
9100.00000513
 30
0.0
 11
15532.49984629
 21
9147.00000513
 31
0.0
  0
LINE
  5
1FA4
330
8C5
100
AcDbEntity
  8
YKK_C1
100
AcDbLine
 10
15513.99984994
 20
9080.00000626
 30
0.0
 11
15513.99984994
 21
9108.20000513
 31
0.0
  0
LINE
  5
1FA5
330
8C5
100
AcDbEntity
  8
YKK_C1
100
AcDbLine
 10
15517.49984994
 20
9080.00000626
 30
0.0
 11
15513.99984994
 21
9080.00000626
 31
0.0
  0
LINE
  5
1FA6
330
8C5
100
AcDbEntity
  8
YKK_C1
100
AcDbLine
 10
15452.49984629
 20
9106.50000513
 30
0.0
 11
15484.49984629
 21
9108.17705407
 31
0.0
  0
LINE
  5
1FA7
330
8C5
100
AcDbEntity
  8
YKK_C1
100
AcDbLine
 10
15452.49984629
 20
9100.00000513
 30
0.0
 11
15452.49984629
 21
9106.50000513
 31
0.0
  0
LINE
  5
1FAA
330
8C5
100
AcDbEntity
  8
YKK_C1
100
AcDbLine
 10
15484.49984629
 20
9100.00000513
 30
0.0
 11
15484.49984629
 21
9123.00000513
 31
0.0
  0
LINE
  5
1FAB
330
8C5
100
AcDbEntity
  8
YKK_C1
100
AcDbLine
 10
15499.49984629
 20
9114.50000513
 30
0.0
 11
15499.49984629
 21
9123.00000513
 31
0.0
  0
LINE
  5
1FAC
330
8C5
100
AcDbEntity
  8
YKK_C1
100
AcDbLine
 10
15484.49984629
 20
9114.50000513
 30
0.0
 11
15499.49984629
 21
9114.50000513
 31
0.0
  0
LINE
  5
1FB2
330
8C5
100
AcDbEntity
  8
YKK_C1
100
AcDbLine
 10
15484.49984629
 20
9123.00000513
 30
0.0
 11
15488.39984629
 21
9123.00000513
 31
0.0
  0
LINE
  5
1FB6
330
8C5
100
AcDbEntity
  8
YKK_C1
100
AcDbLine
 10
15513.99984994
 20
9100.00000513
 30
0.0
 11
15452.49984629
 21
9100.00000513
 31
0.0
  0
LINE
  5
1FB7
330
8C5
100
AcDbEntity
  8
YKK_C1
100
AcDbLine
 10
15522.49984629
 20
9123.00000513
 30
0.0
 11
15494.59984629
 21
9123.00000513
 31
0.0
  0
LINE
  5
1FB8
330
8C5
100
AcDbEntity
  8
YKK_C1
100
AcDbLine
 10
15522.49984629
 20
9108.20000513
 30
0.0
 11
15484.49984629
 21
9108.20000513
 31
0.0
  0
CIRCLE
  5
1FB9
330
8C5
100
AcDbEntity
  8
YKK_IN
  6
Continuous
100
AcDbCircle
 10
15517.50000313
 20
9100.000015
 30
0.0
 40
25.0
  0
LINE
  5
1FBA
330
8C5
100
AcDbEntity
  8
YKK_IN
  6
Continuous
100
AcDbLine
 10
15552.85531929
 20
9135.35536168
 30
0.0
 11
15482.14465645
 21
9064.64466832
 31
0.0
  0
LINE
  5
1FBB
330
8C5
100
AcDbEntity
  8
YKK_IN
  6
Continuous
100
AcDbLine
 10
15552.85531929
 20
9064.64466832
 30
0.0
 11
15482.14465645
 21
9135.35536168
 31
0.0
  0
CIRCLE
  5
1FBC
330
8C5
100
AcDbEntity
  8
YKK_N1
  6
Continuous
100
AcDbCircle
 10
15847.49997
 20
9100.000015
 30
0.0
 40
5.0
  0
CIRCLE
  5
1FBD
330
8C5
100
AcDbEntity
  8
YKK_N1
  6
Continuous
100
AcDbCircle
 10
15847.49997
 20
9147.000015
 30
0.0
 40
5.0
  0
LINE
  5
1FBE
330
8C5
100
AcDbEntity
  8
YKK_N1
  6
Continuous
100
AcDbLine
 10
15847.49997
 20
9100.000015
 30
0.0
 11
15847.49997
 21
9147.000015
 31
0.0
  0
LINE
  5
1FBF
330
8C5
100
AcDbEntity
  8
YKK_N1
  6
Continuous
100
AcDbLine
 10
15722.49997
 20
9147.000015
 30
0.0
 11
15847.49997
 21
9147.000015
 31
0.0
  0
TEXT
  5
1FC0
330
8C5
100
AcDbEntity
  8
YKK_N1
  6
Continuous
100
AcDbText
 10
15835.49997
 20
9103.04414728
 30
0.0
 40
60.0
  1
47
 50
90.0
 72
     4
 11
15805.49997
 21
9153.04414728
 31
0.0
100
AcDbText
  0
TEXT
  5
1FC1
330
8C5
100
AcDbEntity
  8
YKK_N1
  6
Continuous
100
AcDbText
 10
15349.50475107
 20
9312.94938704
 30
0.0
 40
60.0
  1
80
 50
0.000003
 72
     4
 11
15394.5047495
 21
9342.94938939
 31
0.0
100
AcDbText
  0
TEXT
  5
1FC2
330
8C5
100
AcDbEntity
  8
YKK_N1
  6
Continuous
100
AcDbText
 10
15558.99719653
 20
9312.9493873
 30
0.0
 40
60.0
  1
15
 50
0.000003
 72
     4
 11
15598.99719496
 21
9342.94938939
 31
0.0
100
AcDbText
  0
LINE
  5
1FC3
330
8C5
100
AcDbEntity
  8
YKK_N1
  6
Continuous
100
AcDbLine
 10
15532.49984629
 20
9425.94938939
 30
0.0
 11
15532.49984629
 21
9300.94938939
 31
0.0
  0
LINE
  5
1FC4
330
8C5
100
AcDbEntity
  8
YKK_N1
  6
Continuous
100
AcDbLine
 10
15547.49984629
 20
9425.94938939
 30
0.0
 11
15547.49984629
 21
9300.94938939
 31
0.0
  0
CIRCLE
  5
1FC5
330
8C5
100
AcDbEntity
  8
YKK_N1
  6
Continuous
100
AcDbCircle
 10
15532.49984629
 20
9300.94938939
 30
0.0
 40
5.0
  0
CIRCLE
  5
1FC6
330
8C5
100
AcDbEntity
  8
YKK_N1
  6
Continuous
100
AcDbCircle
 10
15547.49984629
 20
9300.94938939
 30
0.0
 40
5.0
  0
LINE
  5
1FC7
330
8C5
100
AcDbEntity
  8
YKK_C1
100
AcDbLine
 10
15517.49984994
 20
9520.00000401
 30
0.0
 11
15513.99984994
 21
9520.00000401
 31
0.0
  0
LINE
  5
1FC8
330
8C5
100
AcDbEntity
  8
YKK_C1
100
AcDbLine
 10
15513.99984994
 20
9520.00000401
 30
0.0
 11
15513.99984994
 21
9491.80000513
 31
0.0
  0
LINE
  5
1FC9
330
8C5
100
AcDbEntity
  8
YKK_C1
100
AcDbLine
 10
15522.49984629
 20
9468.50000513
 30
0.0
 11
15532.49984629
 21
9468.50000513
 31
0.0
  0
LINE
  5
1FCA
330
8C5
100
AcDbEntity
  8
YKK_C1
100
AcDbLine
 10
15522.49984629
 20
9463.25000513
 30
0.0
 11
15522.49984629
 21
9500.00000513
 31
0.0
  0
LINE
  5
1FCB
330
8C5
100
AcDbEntity
  8
YKK_C1
100
AcDbLine
 10
15532.49984629
 20
9500.00000513
 30
0.0
 11
15522.49984629
 21
9500.00000513
 31
0.0
  0
LINE
  5
1FCC
330
8C5
100
AcDbEntity
  8
YKK_C1
100
AcDbLine
 10
15547.49984629
 20
9496.00000513
 30
0.0
 11
15532.49984629
 21
9496.00000513
 31
0.0
  0
LINE
  5
1FCD
330
8C5
100
AcDbEntity
  8
YKK_C1
100
AcDbLine
 10
15547.49984629
 20
9500.00000513
 30
0.0
 11
15547.49984629
 21
9496.00000513
 31
0.0
  0
LINE
  5
1FCE
330
8C5
100
AcDbEntity
  8
YKK_C1
100
AcDbLine
 10
15522.49984629
 20
9455.00000513
 30
0.0
 11
15522.49984629
 21
9459.75000513
 31
0.0
  0
LINE
  5
1FCF
330
8C5
100
AcDbEntity
  8
YKK_C1
100
AcDbLine
 10
15532.49984629
 20
9455.00000513
 30
0.0
 11
15522.49984629
 21
9455.00000513
 31
0.0
  0
LINE
  5
1FD0
330
8C5
100
AcDbEntity
  8
YKK_C1
100
AcDbLine
 10
15532.49984629
 20
9500.00000513
 30
0.0
 11
15532.49984629
 21
9453.00000513
 31
0.0
  0
LINE
  5
1FD1
330
8C5
100
AcDbEntity
  8
YKK_N1
  6
Continuous
100
AcDbLine
 10
15452.49984629
 20
9425.94938939
 30
0.0
 11
15452.49984629
 21
9300.94938939
 31
0.0
  0
CIRCLE
  5
1FD2
330
8C5
100
AcDbEntity
  8
YKK_N1
  6
Continuous
100
AcDbCircle
 10
15452.49984629
 20
9300.94938939
 30
0.0
 40
5.0
  0
LINE
  5
1FD3
330
8C5
100
AcDbEntity
  8
YKK_C1
100
AcDbLine
 10
15484.49984629
 20
9500.00000513
 30
0.0
 11
15484.49984629
 21
9477.00000513
 31
0.0
  0
LINE
  5
1FD4
330
8C5
100
AcDbEntity
  8
YKK_C1
100
AcDbLine
 10
15499.49984629
 20
9485.50000513
 30
0.0
 11
15499.49984629
 21
9477.00000513
 31
0.0
  0
LINE
  5
1FD5
330
8C5
100
AcDbEntity
  8
YKK_C1
100
AcDbLine
 10
15484.49984629
 20
9485.50000513
 30
0.0
 11
15499.49984629
 21
9485.50000513
 31
0.0
  0
LINE
  5
1FDB
330
8C5
100
AcDbEntity
  8
YKK_C1
100
AcDbLine
 10
15484.49984629
 20
9477.00000513
 30
0.0
 11
15488.39984629
 21
9477.00000513
 31
0.0
  0
LINE
  5
1FDC
330
8C5
100
AcDbEntity
  8
YKK_C1
100
AcDbLine
 10
15452.49984629
 20
9500.00000513
 30
0.0
 11
15452.49984629
 21
9493.50000513
 31
0.0
  0
LINE
  5
1FDD
330
8C5
100
AcDbEntity
  8
YKK_C1
100
AcDbLine
 10
15452.49984629
 20
9493.50000513
 30
0.0
 11
15484.49984629
 21
9491.8229562
 31
0.0
  0
LINE
  5
1FE3
330
8C5
100
AcDbEntity
  8
YKK_N1
  6
Continuous
100
AcDbLine
 10
15452.49984629
 20
9300.94938939
 30
0.0
 11
15547.49984629
 21
9300.94938939
 31
0.0
  0
LINE
  5
1FE4
330
8C5
100
AcDbEntity
  8
YKK_C1
100
AcDbLine
 10
15522.49984629
 20
9477.00000513
 30
0.0
 11
15494.59984629
 21
9477.00000513
 31
0.0
  0
LINE
  5
1FE5
330
8C5
100
AcDbEntity
  8
YKK_C1
100
AcDbLine
 10
15522.49984629
 20
9491.80000513
 30
0.0
 11
15484.49984629
 21
9491.80000513
 31
0.0
  0
LINE
  5
1FE6
330
8C5
100
AcDbEntity
  8
YKK_C1
100
AcDbLine
 10
15513.99984994
 20
9500.00000513
 30
0.0
 11
15452.49984629
 21
9500.00000513
 31
0.0
  0
CIRCLE
  5
1FE7
330
8C5
100
AcDbEntity
  8
YKK_N1
  6
Continuous
100
AcDbCircle
 10
15847.50003
 20
9500.000005
 30
0.0
 40
5.0
  0
CIRCLE
  5
1FE8
330
8C5
100
AcDbEntity
  8
YKK_N1
  6
Continuous
100
AcDbCircle
 10
15847.50003
 20
9453.000005
 30
0.0
 40
5.0
  0
LINE
  5
1FE9
330
8C5
100
AcDbEntity
  8
YKK_N1
  6
Continuous
100
AcDbLine
 10
15847.50003
 20
9453.000005
 30
0.0
 11
15847.50003
 21
9500.000005
 31
0.0
  0
LINE
  5
1FEA
330
8C5
100
AcDbEntity
  8
YKK_N1
  6
Continuous
100
AcDbLine
 10
15722.50003
 20
9453.000005
 30
0.0
 11
15847.50003
 21
9453.000005
 31
0.0
  0
TEXT
  5
1FEB
330
8C5
100
AcDbEntity
  8
YKK_N1
  6
Continuous
100
AcDbText
 10
15835.50003
 20
9396.36043998
 30
0.0
 40
60.0
  1
47
 50
90.0
 72
     4
 11
15805.50003
 21
9446.36043998
 31
0.0
100
AcDbText
  0
TEXT
  5
1FEC
330
8C5
100
AcDbEntity
  8
YKK_N1
  6
Continuous
100
AcDbText
 10
16166.00544225
 20
9173.48846951
 30
0.0
 40
60.0
  1
H=400
 50
90.0
 72
     4
 11
16136.00544225
 21
9303.48846951
 31
0.0
100
AcDbText
  0
LINE
  5
1FED
330
8C5
100
AcDbEntity
  8
YKK_N1
  6
Continuous
100
AcDbLine
 10
16047.49997
 20
9099.999995
 30
0.0
 11
16047.50003
 21
9500.000005
 31
0.0
  0
LINE
  5
1FEE
330
8C5
100
AcDbEntity
  8
YKK_N1
  6
Continuous
100
AcDbLine
 10
15997.49997
 20
9186.602555
 30
0.0
 11
16097.49999
 21
9186.602555
 31
0.0
  0
TEXT
  5
1FEF
330
8C5
100
AcDbEntity
  8
YKK_N1
  6
Continuous
100
AcDbText
 10
16035.49997
 20
8963.52787916
 30
0.0
 40
60.0
  1
20
 50
90.0
 72
     4
 11
16005.49997
 21
9008.52787916
 31
0.0
100
AcDbText
  0
POINT
  5
1FF0
330
8C5
100
AcDbEntity
  8
YKK_N1
  6
Continuous
100
AcDbPoint
 10
16047.49997
 20
9100.000015
 30
0.0
  0
LINE
  5
1FF1
330
8C5
100
AcDbEntity
  8
YKK_N1
  6
Continuous
100
AcDbLine
 10
16047.49997
 20
9079.999995
 30
0.0
 11
16047.49997
 21
9099.999995
 31
0.0
  0
CIRCLE
  5
1FF2
330
8C5
100
AcDbEntity
  8
YKK_N1
  6
Continuous
100
AcDbCircle
 10
16047.49997
 20
9080.000015
 30
0.0
 40
5.0
  0
LINE
  5
1FF3
330
8C5
100
AcDbEntity
  8
YKK_N1
  6
Continuous
100
AcDbLine
 10
16047.49997
 20
9100.000015
 30
0.0
 11
15997.49997
 21
9186.602555
 31
0.0
  0
LINE
  5
1FF4
330
8C5
100
AcDbEntity
  8
YKK_N1
  6
Continuous
100
AcDbLine
 10
16047.49997
 20
9100.000015
 30
0.0
 11
16097.49999
 21
9186.602555
 31
0.0
  0
TEXT
  5
1FF5
330
8C5
100
AcDbEntity
  8
YKK_N1
  6
Continuous
100
AcDbText
 10
16035.50003
 20
9536.50924845
 30
0.0
 40
60.0
  1
20
 50
90.0
 72
     4
 11
16005.50003
 21
9581.50924845
 31
0.0
100
AcDbText
  0
POINT
  5
1FF6
330
8C5
100
AcDbEntity
  8
YKK_N1
  6
Continuous
100
AcDbPoint
 10
16047.50003
 20
9500.000005
 30
0.0
  0
POINT
  5
1FF7
330
8C5
100
AcDbEntity
  8
YKK_N1
  6
Continuous
100
AcDbPoint
 10
16047.50003
 20
9500.000005
 30
0.0
  0
LINE
  5
1FF8
330
8C5
100
AcDbEntity
  8
YKK_N1
  6
Continuous
100
AcDbLine
 10
16047.50003
 20
9500.000005
 30
0.0
 11
16047.50003
 21
9520.000005
 31
0.0
  0
LINE
  5
1FF9
330
8C5
100
AcDbEntity
  8
YKK_N1
  6
Continuous
100
AcDbLine
 10
15997.50003
 20
9413.397405
 30
0.0
 11
16047.50003
 21
9500.000005
 31
0.0
  0
CIRCLE
  5
1FFA
330
8C5
100
AcDbEntity
  8
YKK_N1
  6
Continuous
100
AcDbCircle
 10
16047.50003
 20
9520.000005
 30
0.0
 40
5.0
  0
LINE
  5
1FFB
330
8C5
100
AcDbEntity
  8
YKK_N1
  6
Continuous
100
AcDbLine
 10
15997.50003
 20
9413.397405
 30
0.0
 11
16097.50002
 21
9413.397405
 31
0.0
  0
LINE
  5
1FFC
330
8C5
100
AcDbEntity
  8
YKK_N1
  6
Continuous
100
AcDbLine
 10
16097.50003
 20
9413.397505
 30
0.0
 11
16047.50003
 21
9500.000005
 31
0.0
  0
LINE
  5
1FFD
330
8C5
100
AcDbEntity
  8
YKK_N1
  6
Continuous
100
AcDbLine
 10
11450.000005
 20
5427.50271046
 30
0.0
 11
11450.000005
 21
5102.50271046
 31
0.0
  0
LINE
  5
1FFE
330
8C5
100
AcDbEntity
  8
YKK_N1
  6
Continuous
100
AcDbLine
 10
11470.000005
 20
5427.50271046
 30
0.0
 11
11470.000005
 21
5102.50271046
 31
0.0
  0
LINE
  5
1FFF
330
8C5
100
AcDbEntity
  8
YKK_N1
  6
Continuous
100
AcDbLine
 10
11403.000005
 20
5427.50271046
 30
0.0
 11
11403.000005
 21
5302.50271046
 31
0.0
  0
LINE
  5
2000
330
8C5
100
AcDbEntity
  8
YKK_N1
  6
Continuous
100
AcDbLine
 10
11050.000015
 20
5427.50277046
 30
0.0
 11
11050.000015
 21
5102.50277046
 31
0.0
  0
LINE
  5
2001
330
8C5
100
AcDbEntity
  8
YKK_N1
  6
Continuous
100
AcDbLine
 10
11030.000015
 20
5427.50277046
 30
0.0
 11
11030.000015
 21
5102.50277046
 31
0.0
  0
LINE
  5
2002
330
8C5
100
AcDbEntity
  8
YKK_N1
  6
Continuous
100
AcDbLine
 10
11097.000015
 20
5427.50277046
 30
0.0
 11
11097.000015
 21
5302.50277046
 31
0.0
  0
LINE
  5
2003
330
8C5
100
AcDbEntity
  8
YKK_N1
  6
Continuous
100
AcDbLine
 10
11050.000015
 20
5102.50277046
 30
0.0
 11
11136.602555
 21
5152.50277046
 31
0.0
  0
LINE
  5
2004
330
8C5
100
AcDbEntity
  8
YKK_N1
  6
Continuous
100
AcDbLine
 10
11050.000015
 20
5102.50277046
 30
0.0
 11
11136.602555
 21
5052.50275046
 31
0.0
  0
LINE
  5
2005
330
8C5
100
AcDbEntity
  8
YKK_N1
  6
Continuous
100
AcDbLine
 10
11050.000015
 20
5302.50277046
 30
0.0
 11
11097.000015
 21
5302.50277046
 31
0.0
  0
LINE
  5
2006
330
8C5
100
AcDbEntity
  8
YKK_N1
  6
Continuous
100
AcDbLine
 10
11049.999995
 20
5102.50277046
 30
0.0
 11
11450.000005
 21
5102.50271046
 31
0.0
  0
LINE
  5
2007
330
8C5
100
AcDbEntity
  8
YKK_N1
  6
Continuous
100
AcDbLine
 10
11029.999995
 20
5102.50277046
 30
0.0
 11
11049.999995
 21
5102.50277046
 31
0.0
  0
CIRCLE
  5
2008
330
8C5
100
AcDbEntity
  8
YKK_N1
  6
Continuous
100
AcDbCircle
 10
11030.000015
 20
5102.50277046
 30
0.0
 40
5.0
  0
POINT
  5
2009
330
8C5
100
AcDbEntity
  8
YKK_N1
  6
Continuous
100
AcDbPoint
 10
11050.000015
 20
5102.50277046
 30
0.0
  0
TEXT
  5
200A
330
8C5
100
AcDbEntity
  8
YKK_N1
  6
Continuous
100
AcDbText
 10
10913.52787916
 20
5114.50277046
 30
0.0
 40
60.0
  1
20
 72
     4
 11
10958.52787916
 21
5144.50277046
 31
0.0
100
AcDbText
  0
CIRCLE
  5
200B
330
8C5
100
AcDbEntity
  8
YKK_N1
  6
Continuous
100
AcDbCircle
 10
11050.000015
 20
5302.50277046
 30
0.0
 40
5.0
  0
TEXT
  5
200C
330
8C5
100
AcDbEntity
  8
YKK_N1
  6
Continuous
100
AcDbText
 10
11113.48846951
 20
4983.2913887
 30
0.0
 40
60.0
  1
W=400
 72
     4
 11
11253.48846951
 21
5013.2913887
 31
0.0
100
AcDbText
  0
LINE
  5
200D
330
8C5
100
AcDbEntity
  8
YKK_N1
  6
Continuous
100
AcDbLine
 10
11136.602555
 20
5152.50277046
 30
0.0
 11
11136.602555
 21
5052.50275046
 31
0.0
  0
CIRCLE
  5
200E
330
8C5
100
AcDbEntity
  8
YKK_N1
  6
Continuous
100
AcDbCircle
 10
11097.000015
 20
5302.50277046
 30
0.0
 40
5.0
  0
CIRCLE
  5
200F
330
8C5
100
AcDbEntity
  8
YKK_N1
  6
Continuous
100
AcDbCircle
 10
11470.000005
 20
5102.50271046
 30
0.0
 40
5.0
  0
POINT
  5
2010
330
8C5
100
AcDbEntity
  8
YKK_N1
  6
Continuous
100
AcDbPoint
 10
11450.000005
 20
5102.50271046
 30
0.0
  0
POINT
  5
2011
330
8C5
100
AcDbEntity
  8
YKK_N1
  6
Continuous
100
AcDbPoint
 10
11450.000005
 20
5102.50271046
 30
0.0
  0
LINE
  5
2012
330
8C5
100
AcDbEntity
  8
YKK_N1
  6
Continuous
100
AcDbLine
 10
11450.000005
 20
5102.50271046
 30
0.0
 11
11470.000005
 21
5102.50271046
 31
0.0
  0
TEXT
  5
2013
330
8C5
100
AcDbEntity
  8
YKK_N1
  6
Continuous
100
AcDbText
 10
11486.50924845
 20
5114.50271046
 30
0.0
 40
60.0
  1
20
 72
     4
 11
11531.50924845
 21
5144.50271046
 31
0.0
100
AcDbText
  0
CIRCLE
  5
2014
330
8C5
100
AcDbEntity
  8
YKK_N1
  6
Continuous
100
AcDbCircle
 10
11450.000005
 20
5302.50271046
 30
0.0
 40
5.0
  0
LINE
  5
2015
330
8C5
100
AcDbEntity
  8
YKK_N1
  6
Continuous
100
AcDbLine
 10
11363.397405
 20
5152.50271046
 30
0.0
 11
11363.397405
 21
5052.50272046
 31
0.0
  0
CIRCLE
  5
2016
330
8C5
100
AcDbEntity
  8
YKK_N1
  6
Continuous
100
AcDbCircle
 10
11403.000005
 20
5302.50271046
 30
0.0
 40
5.0
  0
LINE
  5
2017
330
8C5
100
AcDbEntity
  8
YKK_N1
  6
Continuous
100
AcDbLine
 10
11363.397405
 20
5152.50271046
 30
0.0
 11
11450.000005
 21
5102.50271046
 31
0.0
  0
LINE
  5
2018
330
8C5
100
AcDbEntity
  8
YKK_N1
  6
Continuous
100
AcDbLine
 10
11363.397505
 20
5052.50271046
 30
0.0
 11
11450.000005
 21
5102.50271046
 31
0.0
  0
LINE
  5
2019
330
8C5
100
AcDbEntity
  8
YKK_N1
  6
Continuous
100
AcDbLine
 10
11403.000005
 20
5302.50271046
 30
0.0
 11
11450.000005
 21
5302.50271046
 31
0.0
  0
LINE
  5
201A
330
8C5
100
AcDbEntity
  8
YKK_B1
100
AcDbLine
 10
11049.99975865
 20
5665.5
 30
0.0
 11
11072.99975865
 21
5665.5
 31
0.0
  0
LINE
  5
201B
330
8C5
100
AcDbEntity
  8
YKK_B1
100
AcDbLine
 10
11049.99975865
 20
5617.5
 30
0.0
 11
11096.99975865
 21
5617.5
 31
0.0
  0
LINE
  5
201C
330
8C5
100
AcDbEntity
  8
YKK_B1
100
AcDbLine
 10
11086.74975865
 20
5627.5
 30
0.0
 11
11049.99975865
 21
5627.5
 31
0.0
  0
TEXT
  5
201D
330
8C5
100
AcDbEntity
  8
YKK_N1
  6
Continuous
100
AcDbText
 10
11053.04414728
 20
5314.50277046
 30
0.0
 40
60.0
  1
47
 72
     4
 11
11103.04414728
 21
5344.50277046
 31
0.0
100
AcDbText
  0
LINE
  5
201E
330
8C5
100
AcDbEntity
  8
YKK_B1
100
AcDbLine
 10
11049.99975865
 20
5635.99999636
 30
0.0
 11
11049.99975865
 21
5697.5
 31
0.0
  0
LINE
  5
201F
330
8C5
100
AcDbEntity
  8
YKK_B1
100
AcDbLine
 10
11056.49975865
 20
5697.5
 30
0.0
 11
11058.17680759
 21
5665.5
 31
0.0
  0
LINE
  5
2020
330
8C5
100
AcDbEntity
  8
YKK_B1
100
AcDbLine
 10
11058.19975865
 20
5627.5
 30
0.0
 11
11058.19975865
 21
5665.5
 31
0.0
  0
LINE
  5
2021
330
8C5
100
AcDbEntity
  8
YKK_B1
100
AcDbLine
 10
11049.99975865
 20
5617.5
 30
0.0
 11
11049.99975865
 21
5627.5
 31
0.0
  0
LINE
  5
2022
330
8C5
100
AcDbEntity
  8
YKK_B1
100
AcDbLine
 10
11053.99975865
 20
5602.5
 30
0.0
 11
11053.99975865
 21
5617.5
 31
0.0
  0
LINE
  5
2023
330
8C5
100
AcDbEntity
  8
YKK_B1
100
AcDbLine
 10
11049.99975865
 20
5602.5
 30
0.0
 11
11053.99975865
 21
5602.5
 31
0.0
  0
LINE
  5
2024
330
8C5
100
AcDbEntity
  8
YKK_B1
100
AcDbLine
 10
11029.99975978
 20
5635.99999636
 30
0.0
 11
11058.19975865
 21
5635.99999636
 31
0.0
  0
LINE
  5
2025
330
8C5
100
AcDbEntity
  8
YKK_B1
100
AcDbLine
 10
11029.99975978
 20
5632.49999636
 30
0.0
 11
11029.99975978
 21
5635.99999636
 31
0.0
  0
LINE
  5
2026
330
8C5
100
AcDbEntity
  8
YKK_B1
100
AcDbLine
 10
11049.99975865
 20
5697.5
 30
0.0
 11
11056.49975865
 21
5697.5
 31
0.0
  0
LINE
  5
2027
330
8C5
100
AcDbEntity
  8
YKK_N1
  6
Continuous
100
AcDbLine
 10
11216.92882976
 20
5602.5
 30
0.0
 11
11341.92882976
 21
5602.5
 31
0.0
  0
LINE
  5
2028
330
8C5
100
AcDbEntity
  8
YKK_N1
  6
Continuous
100
AcDbLine
 10
11216.92882976
 20
5617.5
 30
0.0
 11
11341.92882976
 21
5617.5
 31
0.0
  0
LINE
  5
2029
330
8C5
100
AcDbEntity
  8
YKK_N1
  6
Continuous
100
AcDbLine
 10
11216.92882976
 20
5697.5
 30
0.0
 11
11341.92882976
 21
5697.5
 31
0.0
  0
LINE
  5
202A
330
8C5
100
AcDbEntity
  8
YKK_B1
100
AcDbLine
 10
11433.49975865
 20
5697.5
 30
0.0
 11
11066.49975865
 21
5697.5
 31
0.0
  0
LINE
  5
202B
330
8C5
100
AcDbEntity
  8
YKK_B1
100
AcDbLine
 10
11106.99977086
 20
5617.49998602
 30
0.0
 11
11392.99975865
 21
5617.5
 31
0.0
  0
LINE
  5
202C
330
8C5
100
AcDbEntity
  8
YKK_B1
100
AcDbLine
 10
11079.99975865
 20
5630.5
 30
0.0
 11
11419.99975865
 21
5630.5
 31
0.0
  0
LINE
  5
202D
330
8C5
100
AcDbEntity
  8
YKK_B1
100
AcDbLine
 10
11079.99978326
 20
5652.49999967
 30
0.0
 11
11419.99978326
 21
5652.49999967
 31
0.0
  0
TEXT
  5
202E
330
8C5
100
AcDbEntity
  8
YKK_N1
  6
Continuous
100
AcDbText
 10
11329.92883186
 20
5504.25885189
 30
0.0
 40
60.0
  1
15
 50
90.000003
 72
     4
 11
11299.92882976
 21
5544.25885032
 31
0.0
100
AcDbText
  0
LINE
  5
2030
330
8C5
100
AcDbEntity
  8
YKK_B1
100
AcDbLine
 10
11094.99975865
 20
5617.5
 30
0.0
 11
11094.99975865
 21
5627.5
 31
0.0
  0
LINE
  5
2033
330
8C5
100
AcDbEntity
  8
YKK_B1
100
AcDbLine
 10
11094.99975865
 20
5627.5
 30
0.0
 11
11090.24975865
 21
5627.5
 31
0.0
  0
LINE
  5
2034
330
8C5
100
AcDbEntity
  8
YKK_B1
100
AcDbLine
 10
11064.49975865
 20
5665.5
 30
0.0
 11
11064.49975865
 21
5650.5
 31
0.0
  0
LINE
  5
2035
330
8C5
100
AcDbEntity
  8
YKK_B1
100
AcDbLine
 10
11081.49975865
 20
5627.5
 30
0.0
 11
11081.49975865
 21
5617.5
 31
0.0
  0
LINE
  5
2037
330
8C5
100
AcDbEntity
  8
YKK_B1
100
AcDbLine
 10
11064.49975865
 20
5650.5
 30
0.0
 11
11072.99975865
 21
5650.5
 31
0.0
  0
LINE
  5
203A
330
8C5
100
AcDbEntity
  8
YKK_B1
100
AcDbLine
 10
11072.99975865
 20
5627.5
 30
0.0
 11
11072.99975865
 21
5655.4
 31
0.0
  0
LINE
  5
203D
330
8C5
100
AcDbEntity
  8
YKK_B1
100
AcDbLine
 10
11072.99975865
 20
5665.5
 30
0.0
 11
11072.99975865
 21
5661.6
 31
0.0
  0
LINE
  5
2040
330
8C5
100
AcDbEntity
  8
YKK_B1
100
AcDbLine
 10
11449.99975865
 20
5635.99999636
 30
0.0
 11
11449.99975865
 21
5697.5
 31
0.0
  0
LINE
  5
2041
330
8C5
100
AcDbEntity
  8
YKK_B1
100
AcDbLine
 10
11443.49975865
 20
5697.5
 30
0.0
 11
11441.82270972
 21
5665.5
 31
0.0
  0
LINE
  5
2044
330
8C5
100
AcDbEntity
  8
YKK_B1
100
AcDbLine
 10
11435.49975865
 20
5650.5
 30
0.0
 11
11426.99975865
 21
5650.5
 31
0.0
  0
LINE
  5
2045
330
8C5
100
AcDbEntity
  8
YKK_B1
100
AcDbLine
 10
11413.24975865
 20
5627.5
 30
0.0
 11
11449.99975865
 21
5627.5
 31
0.0
  0
LINE
  5
2047
330
8C5
100
AcDbEntity
  8
YKK_B1
100
AcDbLine
 10
11449.99975865
 20
5665.5
 30
0.0
 11
11426.99975865
 21
5665.5
 31
0.0
  0
LINE
  5
2049
330
8C5
100
AcDbEntity
  8
YKK_B1
100
AcDbLine
 10
11418.49975865
 20
5627.5
 30
0.0
 11
11418.49975865
 21
5617.5
 31
0.0
  0
LINE
  5
204A
330
8C5
100
AcDbEntity
  8
YKK_B1
100
AcDbLine
 10
11426.99975865
 20
5627.5
 30
0.0
 11
11426.99975865
 21
5655.4
 31
0.0
  0
LINE
  5
204B
330
8C5
100
AcDbEntity
  8
YKK_B1
100
AcDbLine
 10
11426.99975865
 20
5665.5
 30
0.0
 11
11426.99975865
 21
5661.6
 31
0.0
  0
LINE
  5
204D
330
8C5
100
AcDbEntity
  8
YKK_B1
100
AcDbLine
 10
11469.99975753
 20
5632.49999636
 30
0.0
 11
11469.99975753
 21
5635.99999636
 31
0.0
  0
LINE
  5
204E
330
8C5
100
AcDbEntity
  8
YKK_B1
100
AcDbLine
 10
11435.49975865
 20
5665.5
 30
0.0
 11
11435.49975865
 21
5650.5
 31
0.0
  0
LINE
  5
204F
330
8C5
100
AcDbEntity
  8
YKK_B1
100
AcDbLine
 10
11441.79975865
 20
5627.5
 30
0.0
 11
11441.79975865
 21
5665.5
 31
0.0
  0
LINE
  5
2050
330
8C5
100
AcDbEntity
  8
YKK_B1
100
AcDbLine
 10
11449.99975865
 20
5617.5
 30
0.0
 11
11449.99975865
 21
5627.5
 31
0.0
  0
LINE
  5
2051
330
8C5
100
AcDbEntity
  8
YKK_B1
100
AcDbLine
 10
11449.99975865
 20
5602.5
 30
0.0
 11
11445.99975865
 21
5602.5
 31
0.0
  0
LINE
  5
2052
330
8C5
100
AcDbEntity
  8
YKK_B1
100
AcDbLine
 10
11445.99975865
 20
5602.5
 30
0.0
 11
11445.99975865
 21
5617.5
 31
0.0
  0
LINE
  5
2054
330
8C5
100
AcDbEntity
  8
YKK_B1
100
AcDbLine
 10
11469.99975753
 20
5635.99999636
 30
0.0
 11
11441.79975865
 21
5635.99999636
 31
0.0
  0
LINE
  5
2055
330
8C5
100
AcDbEntity
  8
YKK_B1
100
AcDbLine
 10
11449.99975865
 20
5697.5
 30
0.0
 11
11443.49975865
 21
5697.5
 31
0.0
  0
LINE
  5
2056
330
8C5
100
AcDbEntity
  8
YKK_N1
  6
Continuous
100
AcDbLine
 10
11341.92882976
 20
5697.5
 30
0.0
 11
11341.92882976
 21
5602.5
 31
0.0
  0
LINE
  5
2058
330
8C5
100
AcDbEntity
  8
YKK_B1
100
AcDbLine
 10
11404.99975865
 20
5617.5
 30
0.0
 11
11404.99975865
 21
5627.5
 31
0.0
  0
CIRCLE
  5
205A
330
8C5
100
AcDbEntity
  8
YKK_N1
  6
Continuous
100
AcDbCircle
 10
11341.92882976
 20
5602.5
 30
0.0
 40
5.0
  0
CIRCLE
  5
205B
330
8C5
100
AcDbEntity
  8
YKK_N1
  6
Continuous
100
AcDbCircle
 10
11341.92882976
 20
5617.5
 30
0.0
 40
5.0
  0
CIRCLE
  5
205C
330
8C5
100
AcDbEntity
  8
YKK_N1
  6
Continuous
100
AcDbCircle
 10
11341.92882976
 20
5697.5
 30
0.0
 40
5.0
  0
LINE
  5
205D
330
8C5
100
AcDbEntity
  8
YKK_B1
100
AcDbLine
 10
11449.99975865
 20
5617.5
 30
0.0
 11
11402.99975865
 21
5617.5
 31
0.0
  0
LINE
  5
205F
330
8C5
100
AcDbEntity
  8
YKK_B1
100
AcDbLine
 10
11404.99975865
 20
5627.5
 30
0.0
 11
11409.74975865
 21
5627.5
 31
0.0
  0
TEXT
  5
2061
330
8C5
100
AcDbEntity
  8
YKK_N1
  6
Continuous
100
AcDbText
 10
11346.36043998
 20
5314.50271046
 30
0.0
 40
60.0
  1
47
 72
     4
 11
11396.36043998
 21
5344.50271046
 31
0.0
100
AcDbText
  0
TEXT
  5
2062
330
8C5
100
AcDbEntity
  8
YKK_N1
  6
Continuous
100
AcDbText
 10
11329.92883212
 20
5711.06801436
 30
0.0
 40
60.0
  1
80
 50
90.000003
 72
     4
 11
11299.92882976
 21
5756.06801279
 31
0.0
100
AcDbText
  0
LINE
  5
2063
330
8C5
100
AcDbEntity
  8
YKK_N1
  6
Continuous
100
AcDbLine
 10
11852.69639813
 20
5697.49998602
 30
0.0
 11
11852.69639813
 21
5602.49998602
 31
0.0
  0
TEXT
  5
2064
330
8C5
100
AcDbEntity
  8
YKK_N1
  6
Continuous
100
AcDbText
 10
11840.69640048
 20
5499.25883791
 30
0.0
 40
60.0
  1
30
 50
90.000003
 72
     4
 11
11810.69639813
 21
5544.25883634
 31
0.0
100
AcDbText
  0
LINE
  5
2065
330
8C5
100
AcDbEntity
  8
YKK_N1
  6
Continuous
100
AcDbLine
 10
11727.69639813
 20
5602.49998602
 30
0.0
 11
11852.69639813
 21
5602.49998602
 31
0.0
  0
CIRCLE
  5
2066
330
8C5
100
AcDbEntity
  8
YKK_N1
  6
Continuous
100
AcDbCircle
 10
11852.69639813
 20
5602.49998602
 30
0.0
 40
5.0
  0
LINE
  5
2067
330
8C5
100
AcDbEntity
  8
YKK_N1
  6
Continuous
100
AcDbLine
 10
11727.69639813
 20
5632.49998602
 30
0.0
 11
11852.69639813
 21
5632.49998602
 31
0.0
  0
CIRCLE
  5
2068
330
8C5
100
AcDbEntity
  8
YKK_N1
  6
Continuous
100
AcDbCircle
 10
11852.69639813
 20
5632.49998602
 30
0.0
 40
5.0
  0
LINE
  5
2069
330
8C5
100
AcDbEntity
  8
YKK_N1
  6
Continuous
100
AcDbLine
 10
11727.69639813
 20
5697.49998602
 30
0.0
 11
11852.69639813
 21
5697.49998602
 31
0.0
  0
CIRCLE
  5
206A
330
8C5
100
AcDbEntity
  8
YKK_N1
  6
Continuous
100
AcDbCircle
 10
11852.69639813
 20
5697.49998602
 30
0.0
 40
5.0
  0
TEXT
  5
206B
330
8C5
100
AcDbEntity
  8
YKK_N1
  6
Continuous
100
AcDbText
 10
11840.69640075
 20
5706.06800038
 30
0.0
 40
60.0
  1
65
 50
90.000003
 72
     4
 11
11810.69639813
 21
5756.06799881
 31
0.0
100
AcDbText
  0
LINE
  5
206C
330
8C5
100
AcDbEntity
  8
YKK_C1
100
AcDbLine
 10
15485.0998466
 20
9477.00000515
 30
0.0
 11
15485.0998466
 21
9454.99993924
 31
0.0
  0
LINE
  5
206D
330
8C5
100
AcDbEntity
  8
YKK_C1
100
AcDbLine
 10
15485.0998466
 20
9454.99993924
 30
0.0
 11
15494.5998466
 21
9454.99993924
 31
0.0
  0
LINE
  5
206E
330
8C5
100
AcDbEntity
  8
YKK_C1
100
AcDbLine
 10
15494.5998466
 20
9454.99993924
 30
0.0
 11
15494.5998466
 21
9482.49993924
 31
0.0
  0
LINE
  5
206F
330
8C5
100
AcDbEntity
  8
YKK_C1
100
AcDbLine
 10
15490.1998466
 20
9480.88360303
 30
0.0
 11
15490.1998466
 21
9473.92865712
 31
0.0
  0
LINE
  5
2070
330
8C5
100
AcDbEntity
  8
YKK_C1
100
AcDbLine
 10
15490.1998466
 20
9473.92865712
 30
0.0
 11
15494.5998466
 21
9466.30763426
 31
0.0
  0
LINE
  5
2071
330
8C5
100
AcDbEntity
  8
YKK_C1
100
AcDbLine
 10
15490.1998466
 20
9474.89993924
 30
0.0
 11
15485.0998466
 21
9474.89993924
 31
0.0
  0
LINE
  5
2072
330
8C5
100
AcDbEntity
  8
YKK_C1
100
AcDbLine
 10
15494.5998466
 20
9117.50002905
 30
0.0
 11
15494.5998466
 21
9145.00002905
 31
0.0
  0
LINE
  5
2073
330
8C5
100
AcDbEntity
  8
YKK_C1
100
AcDbLine
 10
15485.0998466
 20
9123.00000446
 30
0.0
 11
15485.0998466
 21
9145.00002905
 31
0.0
  0
LINE
  5
2074
330
8C5
100
AcDbEntity
  8
YKK_C1
100
AcDbLine
 10
15485.0998466
 20
9145.00002905
 30
0.0
 11
15494.5998466
 21
9145.00002905
 31
0.0
  0
LINE
  5
2075
330
8C5
100
AcDbEntity
  8
YKK_C1
100
AcDbLine
 10
15490.1998466
 20
9119.11636526
 30
0.0
 11
15490.1998466
 21
9126.07131117
 31
0.0
  0
LINE
  5
2076
330
8C5
100
AcDbEntity
  8
YKK_C1
100
AcDbLine
 10
15490.1998466
 20
9126.07131117
 30
0.0
 11
15494.5998466
 21
9133.69233403
 31
0.0
  0
LINE
  5
2077
330
8C5
100
AcDbEntity
  8
YKK_C1
100
AcDbLine
 10
15485.0998466
 20
9125.10002905
 30
0.0
 11
15490.1998466
 21
9125.10002905
 31
0.0
  0
LINE
  5
2078
330
8C5
100
AcDbEntity
  8
YKK_B1
100
AcDbLine
 10
11067.49978324
 20
5655.39999967
 30
0.0
 11
11094.99978324
 21
5655.39999967
 31
0.0
  0
LINE
  5
2079
330
8C5
100
AcDbEntity
  8
YKK_B1
100
AcDbLine
 10
11094.99978324
 20
5655.39999967
 30
0.0
 11
11094.99978324
 21
5664.89999967
 31
0.0
  0
LINE
  5
207A
330
8C5
100
AcDbEntity
  8
YKK_B1
100
AcDbLine
 10
11094.99978324
 20
5664.89999967
 30
0.0
 11
11072.99978324
 21
5664.89999967
 31
0.0
  0
LINE
  5
207B
330
8C5
100
AcDbEntity
  8
YKK_B1
100
AcDbLine
 10
11075.09978324
 20
5664.89999967
 30
0.0
 11
11075.09978324
 21
5659.79999967
 31
0.0
  0
LINE
  5
207C
330
8C5
100
AcDbEntity
  8
YKK_B1
100
AcDbLine
 10
11069.11611945
 20
5659.79999967
 30
0.0
 11
11076.07106537
 21
5659.79999967
 31
0.0
  0
LINE
  5
207D
330
8C5
100
AcDbEntity
  8
YKK_B1
100
AcDbLine
 10
11076.07106537
 20
5659.79999967
 30
0.0
 11
11083.69208822
 21
5655.39999967
 31
0.0
  0
LINE
  5
207E
330
8C5
100
AcDbEntity
  8
YKK_B1
100
AcDbLine
 10
11432.49975915
 20
5655.39999967
 30
0.0
 11
11404.99975915
 21
5655.39999967
 31
0.0
  0
LINE
  5
207F
330
8C5
100
AcDbEntity
  8
YKK_B1
100
AcDbLine
 10
11404.99975915
 20
5655.39999967
 30
0.0
 11
11404.99975915
 21
5664.89999967
 31
0.0
  0
LINE
  5
2080
330
8C5
100
AcDbEntity
  8
YKK_B1
100
AcDbLine
 10
11404.99975915
 20
5664.89999967
 30
0.0
 11
11426.99975915
 21
5664.89999967
 31
0.0
  0
LINE
  5
2081
330
8C5
100
AcDbEntity
  8
YKK_B1
100
AcDbLine
 10
11424.89975915
 20
5664.89999967
 30
0.0
 11
11424.89975915
 21
5659.79999967
 31
0.0
  0
LINE
  5
2082
330
8C5
100
AcDbEntity
  8
YKK_B1
100
AcDbLine
 10
11430.88342294
 20
5659.79999967
 30
0.0
 11
11423.92847703
 21
5659.79999967
 31
0.0
  0
LINE
  5
2083
330
8C5
100
AcDbEntity
  8
YKK_B1
100
AcDbLine
 10
11423.92847703
 20
5659.79999967
 30
0.0
 11
11416.30745417
 21
5655.39999967
 31
0.0
  0
LINE
  5
2091
330
8C5
100
AcDbEntity
  8
YKK_N1
  6
Continuous
100
AcDbLine
 10
15722.49997
 20
13050.000005
 30
0.0
 11
16047.49997
 21
13050.000005
 31
0.0
  0
LINE
  5
2092
330
8C5
100
AcDbEntity
  8
YKK_N1
  6
Continuous
100
AcDbLine
 10
15722.49997
 20
13030.000005
 30
0.0
 11
16047.49997
 21
13030.000005
 31
0.0
  0
LINE
  5
2093
330
8C5
100
AcDbEntity
  8
YKK_N1
  6
Continuous
100
AcDbLine
 10
15722.50003
 20
13369.999995
 30
0.0
 11
16047.50003
 21
13369.999995
 31
0.0
  0
LINE
  5
2094
330
8C5
100
AcDbEntity
  8
YKK_N1
  6
Continuous
100
AcDbLine
 10
15722.50003
 20
13349.999995
 30
0.0
 11
16047.50003
 21
13349.999995
 31
0.0
  0
LINE
  5
2095
330
8C5
100
AcDbEntity
  8
YKK_C1
100
AcDbLine
 10
15532.49986027
 20
13107.00000734
 30
0.0
 11
15532.49984629
 21
13292.99999513
 31
0.0
  0
LINE
  5
2096
330
8C5
100
AcDbEntity
  8
YKK_C1
100
AcDbLine
 10
15497.49984661
 20
13079.99999513
 30
0.0
 11
15497.49984661
 21
13319.99999513
 31
0.0
  0
LINE
  5
2097
330
8C5
100
AcDbEntity
  8
YKK_C1
100
AcDbLine
 10
15519.49984629
 20
13079.99999513
 30
0.0
 11
15519.49984629
 21
13319.99999513
 31
0.0
  0
LINE
  5
2098
330
8C5
100
AcDbEntity
  8
YKK_C1
100
AcDbLine
 10
15452.49984629
 20
13333.49999513
 30
0.0
 11
15452.49984629
 21
13066.49999513
 31
0.0
  0
TEXT
  5
2099
330
8C5
100
AcDbEntity
  8
YKK_N1
  6
Continuous
100
AcDbText
 10
15340.37716562
 20
12660.77296341
 30
0.0
 40
60.0
  1
65
 50
0.000003
 72
     4
 11
15390.37716405
 21
12690.77296603
 31
0.0
100
AcDbText
  0
TEXT
  5
209A
330
8C5
100
AcDbEntity
  8
YKK_N1
  6
Continuous
100
AcDbText
 10
15555.63898791
 20
12660.77296367
 30
0.0
 40
60.0
  1
30
 50
0.000003
 72
     4
 11
15600.63898634
 21
12690.77296603
 31
0.0
100
AcDbText
  0
CIRCLE
  5
209B
330
8C5
100
AcDbEntity
  8
YKK_N1
  6
Continuous
100
AcDbCircle
 10
15547.49984515
 20
12648.77296603
 30
0.0
 40
5.0
  0
CIRCLE
  5
209C
330
8C5
100
AcDbEntity
  8
YKK_N1
  6
Continuous
100
AcDbCircle
 10
15517.49984515
 20
12648.77296603
 30
0.0
 40
5.0
  0
CIRCLE
  5
209D
330
8C5
100
AcDbEntity
  8
YKK_N1
  6
Continuous
100
AcDbCircle
 10
15452.49984515
 20
12648.77296603
 30
0.0
 40
5.0
  0
LINE
  5
209E
330
8C5
100
AcDbEntity
  8
YKK_N1
  6
Continuous
100
AcDbLine
 10
15452.49984515
 20
12648.77296603
 30
0.0
 11
15547.49984515
 21
12648.77296603
 31
0.0
  0
LINE
  5
209F
330
8C5
100
AcDbEntity
  8
YKK_N1
  6
Continuous
100
AcDbLine
 10
15452.49984515
 20
12773.77296603
 30
0.0
 11
15452.49984515
 21
12648.77296603
 31
0.0
  0
LINE
  5
20A0
330
8C5
100
AcDbEntity
  8
YKK_N1
  6
Continuous
100
AcDbLine
 10
15517.49984515
 20
12773.77296603
 30
0.0
 11
15517.49984515
 21
12648.77296603
 31
0.0
  0
LINE
  5
20A1
330
8C5
100
AcDbEntity
  8
YKK_N1
  6
Continuous
100
AcDbLine
 10
15547.49984515
 20
12773.77296603
 30
0.0
 11
15547.49984515
 21
12648.77296603
 31
0.0
  0
LINE
  5
20A2
330
8C5
100
AcDbEntity
  8
YKK_C1
100
AcDbLine
 10
15522.49984629
 20
13094.99999513
 30
0.0
 11
15522.49984629
 21
13090.24999513
 31
0.0
  0
LINE
  5
20A3
330
8C5
100
AcDbEntity
  8
YKK_C1
100
AcDbLine
 10
15532.49984629
 20
13094.99999513
 30
0.0
 11
15522.49984629
 21
13094.99999513
 31
0.0
  0
LINE
  5
20A4
330
8C5
100
AcDbEntity
  8
YKK_C1
100
AcDbLine
 10
15522.49984629
 20
13081.49999513
 30
0.0
 11
15532.49984629
 21
13081.49999513
 31
0.0
  0
LINE
  5
20A5
330
8C5
100
AcDbEntity
  8
YKK_C1
100
AcDbLine
 10
15522.49984629
 20
13086.74999513
 30
0.0
 11
15522.49984629
 21
13049.99999513
 31
0.0
  0
LINE
  5
20A6
330
8C5
100
AcDbEntity
  8
YKK_C1
100
AcDbLine
 10
15532.49984629
 20
13049.99999513
 30
0.0
 11
15522.49984629
 21
13049.99999513
 31
0.0
  0
LINE
  5
20A7
330
8C5
100
AcDbEntity
  8
YKK_C1
100
AcDbLine
 10
15547.49984629
 20
13053.99999513
 30
0.0
 11
15532.49984629
 21
13053.99999513
 31
0.0
  0
LINE
  5
20A8
330
8C5
100
AcDbEntity
  8
YKK_C1
100
AcDbLine
 10
15547.49984629
 20
13049.99999513
 30
0.0
 11
15547.49984629
 21
13053.99999513
 31
0.0
  0
LINE
  5
20A9
330
8C5
100
AcDbEntity
  8
YKK_C1
100
AcDbLine
 10
15532.49984629
 20
13049.99999513
 30
0.0
 11
15532.49984629
 21
13096.99999513
 31
0.0
  0
LINE
  5
20AA
330
8C5
100
AcDbEntity
  8
YKK_C1
100
AcDbLine
 10
15513.99984994
 20
13029.99999626
 30
0.0
 11
15513.99984994
 21
13058.19999513
 31
0.0
  0
LINE
  5
20AB
330
8C5
100
AcDbEntity
  8
YKK_C1
100
AcDbLine
 10
15517.49984994
 20
13029.99999626
 30
0.0
 11
15513.99984994
 21
13029.99999626
 31
0.0
  0
LINE
  5
20AC
330
8C5
100
AcDbEntity
  8
YKK_C1
100
AcDbLine
 10
15452.49984629
 20
13056.49999513
 30
0.0
 11
15484.49984629
 21
13058.17704407
 31
0.0
  0
LINE
  5
20AD
330
8C5
100
AcDbEntity
  8
YKK_C1
100
AcDbLine
 10
15452.49984629
 20
13049.99999513
 30
0.0
 11
15452.49984629
 21
13056.49999513
 31
0.0
  0
LINE
  5
20AE
330
8C5
100
AcDbEntity
  8
YKK_C1
100
AcDbLine
 10
15484.49984629
 20
13049.99999513
 30
0.0
 11
15484.49984629
 21
13072.99999513
 31
0.0
  0
LINE
  5
20AF
330
8C5
100
AcDbEntity
  8
YKK_C1
100
AcDbLine
 10
15499.49984629
 20
13064.49999513
 30
0.0
 11
15499.49984629
 21
13072.99999513
 31
0.0
  0
LINE
  5
20B0
330
8C5
100
AcDbEntity
  8
YKK_C1
100
AcDbLine
 10
15484.49984629
 20
13064.49999513
 30
0.0
 11
15499.49984629
 21
13064.49999513
 31
0.0
  0
LINE
  5
20B1
330
8C5
100
AcDbEntity
  8
YKK_C1
100
AcDbLine
 10
15484.49984629
 20
13072.99999513
 30
0.0
 11
15488.39984629
 21
13072.99999513
 31
0.0
  0
LINE
  5
20B2
330
8C5
100
AcDbEntity
  8
YKK_C1
100
AcDbLine
 10
15513.99984994
 20
13049.99999513
 30
0.0
 11
15452.49984629
 21
13049.99999513
 31
0.0
  0
LINE
  5
20B3
330
8C5
100
AcDbEntity
  8
YKK_C1
100
AcDbLine
 10
15522.49984629
 20
13072.99999513
 30
0.0
 11
15494.59984629
 21
13072.99999513
 31
0.0
  0
LINE
  5
20B4
330
8C5
100
AcDbEntity
  8
YKK_C1
100
AcDbLine
 10
15522.49984629
 20
13058.19999513
 30
0.0
 11
15484.49984629
 21
13058.19999513
 31
0.0
  0
CIRCLE
  5
20B5
330
8C5
100
AcDbEntity
  8
YKK_IN
  6
Continuous
100
AcDbCircle
 10
15517.50000313
 20
13050.000005
 30
0.0
 40
25.0
  0
LINE
  5
20B6
330
8C5
100
AcDbEntity
  8
YKK_IN
  6
Continuous
100
AcDbLine
 10
15552.85531929
 20
13085.35535168
 30
0.0
 11
15482.14465645
 21
13014.64465832
 31
0.0
  0
LINE
  5
20B7
330
8C5
100
AcDbEntity
  8
YKK_IN
  6
Continuous
100
AcDbLine
 10
15552.85531929
 20
13014.64465832
 30
0.0
 11
15482.14465645
 21
13085.35535168
 31
0.0
  0
CIRCLE
  5
20B8
330
8C5
100
AcDbEntity
  8
YKK_N1
  6
Continuous
100
AcDbCircle
 10
15847.49997
 20
13050.000005
 30
0.0
 40
5.0
  0
CIRCLE
  5
20B9
330
8C5
100
AcDbEntity
  8
YKK_N1
  6
Continuous
100
AcDbCircle
 10
15847.49997
 20
13097.000005
 30
0.0
 40
5.0
  0
LINE
  5
20BA
330
8C5
100
AcDbEntity
  8
YKK_N1
  6
Continuous
100
AcDbLine
 10
15847.49997
 20
13050.000005
 30
0.0
 11
15847.49997
 21
13097.000005
 31
0.0
  0
LINE
  5
20BB
330
8C5
100
AcDbEntity
  8
YKK_N1
  6
Continuous
100
AcDbLine
 10
15722.49997
 20
13097.000005
 30
0.0
 11
15847.49997
 21
13097.000005
 31
0.0
  0
TEXT
  5
20BC
330
8C5
100
AcDbEntity
  8
YKK_N1
  6
Continuous
100
AcDbText
 10
15835.49997
 20
13053.04413728
 30
0.0
 40
60.0
  1
47
 50
90.0
 72
     4
 11
15805.49997
 21
13103.04413728
 31
0.0
100
AcDbText
  0
TEXT
  5
20BD
330
8C5
100
AcDbEntity
  8
YKK_N1
  6
Continuous
100
AcDbText
 10
15349.50475107
 20
13178.2459847
 30
0.0
 40
60.0
  1
80
 50
0.000003
 72
     4
 11
15394.5047495
 21
13208.24598706
 31
0.0
100
AcDbText
  0
TEXT
  5
20BE
330
8C5
100
AcDbEntity
  8
YKK_N1
  6
Continuous
100
AcDbText
 10
15558.99719653
 20
13178.24598497
 30
0.0
 40
60.0
  1
15
 50
0.000003
 72
     4
 11
15598.99719496
 21
13208.24598706
 31
0.0
100
AcDbText
  0
LINE
  5
20BF
330
8C5
100
AcDbEntity
  8
YKK_N1
  6
Continuous
100
AcDbLine
 10
15532.49984629
 20
13225.94937939
 30
0.0
 11
15532.49984629
 21
13200.94937939
 31
0.0
  0
LINE
  5
20C0
330
8C5
100
AcDbEntity
  8
YKK_N1
  6
Continuous
100
AcDbLine
 10
15547.49984629
 20
13225.94937939
 30
0.0
 11
15547.49984629
 21
13200.94937939
 31
0.0
  0
CIRCLE
  5
20C1
330
8C5
100
AcDbEntity
  8
YKK_N1
  6
Continuous
100
AcDbCircle
 10
15532.49984629
 20
13200.94937939
 30
0.0
 40
5.0
  0
CIRCLE
  5
20C2
330
8C5
100
AcDbEntity
  8
YKK_N1
  6
Continuous
100
AcDbCircle
 10
15547.49984629
 20
13200.94937939
 30
0.0
 40
5.0
  0
LINE
  5
20C3
330
8C5
100
AcDbEntity
  8
YKK_C1
100
AcDbLine
 10
15517.49984994
 20
13369.99999401
 30
0.0
 11
15513.99984994
 21
13369.99999401
 31
0.0
  0
LINE
  5
20C4
330
8C5
100
AcDbEntity
  8
YKK_C1
100
AcDbLine
 10
15513.99984994
 20
13369.99999401
 30
0.0
 11
15513.99984994
 21
13341.79999513
 31
0.0
  0
LINE
  5
20C5
330
8C5
100
AcDbEntity
  8
YKK_C1
100
AcDbLine
 10
15522.49984629
 20
13318.49999513
 30
0.0
 11
15532.49984629
 21
13318.49999513
 31
0.0
  0
LINE
  5
20C6
330
8C5
100
AcDbEntity
  8
YKK_C1
100
AcDbLine
 10
15522.49984629
 20
13313.24999513
 30
0.0
 11
15522.49984629
 21
13349.99999513
 31
0.0
  0
LINE
  5
20C7
330
8C5
100
AcDbEntity
  8
YKK_C1
100
AcDbLine
 10
15532.49984629
 20
13349.99999513
 30
0.0
 11
15522.49984629
 21
13349.99999513
 31
0.0
  0
LINE
  5
20C8
330
8C5
100
AcDbEntity
  8
YKK_C1
100
AcDbLine
 10
15547.49984629
 20
13345.99999513
 30
0.0
 11
15532.49984629
 21
13345.99999513
 31
0.0
  0
LINE
  5
20C9
330
8C5
100
AcDbEntity
  8
YKK_C1
100
AcDbLine
 10
15547.49984629
 20
13349.99999513
 30
0.0
 11
15547.49984629
 21
13345.99999513
 31
0.0
  0
LINE
  5
20CA
330
8C5
100
AcDbEntity
  8
YKK_C1
100
AcDbLine
 10
15522.49984629
 20
13304.99999513
 30
0.0
 11
15522.49984629
 21
13309.74999513
 31
0.0
  0
LINE
  5
20CB
330
8C5
100
AcDbEntity
  8
YKK_C1
100
AcDbLine
 10
15532.49984629
 20
13304.99999513
 30
0.0
 11
15522.49984629
 21
13304.99999513
 31
0.0
  0
LINE
  5
20CC
330
8C5
100
AcDbEntity
  8
YKK_C1
100
AcDbLine
 10
15532.49984629
 20
13349.99999513
 30
0.0
 11
15532.49984629
 21
13302.99999513
 31
0.0
  0
LINE
  5
20CD
330
8C5
100
AcDbEntity
  8
YKK_N1
  6
Continuous
100
AcDbLine
 10
15452.49984629
 20
13225.94937939
 30
0.0
 11
15452.49984629
 21
13200.94937939
 31
0.0
  0
CIRCLE
  5
20CE
330
8C5
100
AcDbEntity
  8
YKK_N1
  6
Continuous
100
AcDbCircle
 10
15452.49984629
 20
13200.94937939
 30
0.0
 40
5.0
  0
LINE
  5
20CF
330
8C5
100
AcDbEntity
  8
YKK_C1
100
AcDbLine
 10
15484.49984629
 20
13349.99999513
 30
0.0
 11
15484.49984629
 21
13326.99999513
 31
0.0
  0
LINE
  5
20D0
330
8C5
100
AcDbEntity
  8
YKK_C1
100
AcDbLine
 10
15499.49984629
 20
13335.49999513
 30
0.0
 11
15499.49984629
 21
13326.99999513
 31
0.0
  0
LINE
  5
20D1
330
8C5
100
AcDbEntity
  8
YKK_C1
100
AcDbLine
 10
15484.49984629
 20
13335.49999513
 30
0.0
 11
15499.49984629
 21
13335.49999513
 31
0.0
  0
LINE
  5
20D2
330
8C5
100
AcDbEntity
  8
YKK_C1
100
AcDbLine
 10
15484.49984629
 20
13326.99999513
 30
0.0
 11
15488.39984629
 21
13326.99999513
 31
0.0
  0
LINE
  5
20D3
330
8C5
100
AcDbEntity
  8
YKK_C1
100
AcDbLine
 10
15452.49984629
 20
13349.99999513
 30
0.0
 11
15452.49984629
 21
13343.49999513
 31
0.0
  0
LINE
  5
20D4
330
8C5
100
AcDbEntity
  8
YKK_C1
100
AcDbLine
 10
15452.49984629
 20
13343.49999513
 30
0.0
 11
15484.49984629
 21
13341.8229462
 31
0.0
  0
LINE
  5
20D5
330
8C5
100
AcDbEntity
  8
YKK_N1
  6
Continuous
100
AcDbLine
 10
15452.49984629
 20
13200.94937939
 30
0.0
 11
15547.49984629
 21
13200.94937939
 31
0.0
  0
LINE
  5
20D6
330
8C5
100
AcDbEntity
  8
YKK_C1
100
AcDbLine
 10
15522.49984629
 20
13326.99999513
 30
0.0
 11
15494.59984629
 21
13326.99999513
 31
0.0
  0
LINE
  5
20D7
330
8C5
100
AcDbEntity
  8
YKK_C1
100
AcDbLine
 10
15522.49984629
 20
13341.79999513
 30
0.0
 11
15484.49984629
 21
13341.79999513
 31
0.0
  0
LINE
  5
20D8
330
8C5
100
AcDbEntity
  8
YKK_C1
100
AcDbLine
 10
15513.99984994
 20
13349.99999513
 30
0.0
 11
15452.49984629
 21
13349.99999513
 31
0.0
  0
CIRCLE
  5
20D9
330
8C5
100
AcDbEntity
  8
YKK_N1
  6
Continuous
100
AcDbCircle
 10
15847.50003
 20
13349.999995
 30
0.0
 40
5.0
  0
CIRCLE
  5
20DA
330
8C5
100
AcDbEntity
  8
YKK_N1
  6
Continuous
100
AcDbCircle
 10
15847.50003
 20
13302.999995
 30
0.0
 40
5.0
  0
LINE
  5
20DB
330
8C5
100
AcDbEntity
  8
YKK_N1
  6
Continuous
100
AcDbLine
 10
15847.50003
 20
13302.999995
 30
0.0
 11
15847.50003
 21
13349.999995
 31
0.0
  0
LINE
  5
20DC
330
8C5
100
AcDbEntity
  8
YKK_N1
  6
Continuous
100
AcDbLine
 10
15722.50003
 20
13302.999995
 30
0.0
 11
15847.50003
 21
13302.999995
 31
0.0
  0
TEXT
  5
20DD
330
8C5
100
AcDbEntity
  8
YKK_N1
  6
Continuous
100
AcDbText
 10
15835.50003
 20
13246.36042998
 30
0.0
 40
60.0
  1
47
 50
90.0
 72
     4
 11
15805.50003
 21
13296.36042998
 31
0.0
100
AcDbText
  0
TEXT
  5
20DE
330
8C5
100
AcDbEntity
  8
YKK_N1
  6
Continuous
100
AcDbText
 10
16166.27130228
 20
13073.48845951
 30
0.0
 40
60.0
  1
H=300
 50
90.0
 72
     4
 11
16136.27130228
 21
13203.48845951
 31
0.0
100
AcDbText
  0
LINE
  5
20DF
330
8C5
100
AcDbEntity
  8
YKK_N1
  6
Continuous
100
AcDbLine
 10
16047.49997
 20
13049.999985
 30
0.0
 11
16047.50003
 21
13349.999995
 31
0.0
  0
LINE
  5
20E0
330
8C5
100
AcDbEntity
  8
YKK_N1
  6
Continuous
100
AcDbLine
 10
15997.49997
 20
13136.602545
 30
0.0
 11
16097.49999
 21
13136.602545
 31
0.0
  0
TEXT
  5
20E1
330
8C5
100
AcDbEntity
  8
YKK_N1
  6
Continuous
100
AcDbText
 10
16035.49997
 20
12913.52786916
 30
0.0
 40
60.0
  1
20
 50
90.0
 72
     4
 11
16005.49997
 21
12958.52786916
 31
0.0
100
AcDbText
  0
POINT
  5
20E2
330
8C5
100
AcDbEntity
  8
YKK_N1
  6
Continuous
100
AcDbPoint
 10
16047.49997
 20
13050.000005
 30
0.0
  0
LINE
  5
20E3
330
8C5
100
AcDbEntity
  8
YKK_N1
  6
Continuous
100
AcDbLine
 10
16047.49997
 20
13029.999985
 30
0.0
 11
16047.49997
 21
13049.999985
 31
0.0
  0
CIRCLE
  5
20E4
330
8C5
100
AcDbEntity
  8
YKK_N1
  6
Continuous
100
AcDbCircle
 10
16047.49997
 20
13030.000005
 30
0.0
 40
5.0
  0
LINE
  5
20E5
330
8C5
100
AcDbEntity
  8
YKK_N1
  6
Continuous
100
AcDbLine
 10
16047.49997
 20
13050.000005
 30
0.0
 11
15997.49997
 21
13136.602545
 31
0.0
  0
LINE
  5
20E6
330
8C5
100
AcDbEntity
  8
YKK_N1
  6
Continuous
100
AcDbLine
 10
16047.49997
 20
13050.000005
 30
0.0
 11
16097.49999
 21
13136.602545
 31
0.0
  0
TEXT
  5
20E7
330
8C5
100
AcDbEntity
  8
YKK_N1
  6
Continuous
100
AcDbText
 10
16035.50003
 20
13386.50923845
 30
0.0
 40
60.0
  1
20
 50
90.0
 72
     4
 11
16005.50003
 21
13431.50923845
 31
0.0
100
AcDbText
  0
POINT
  5
20E8
330
8C5
100
AcDbEntity
  8
YKK_N1
  6
Continuous
100
AcDbPoint
 10
16047.50003
 20
13349.999995
 30
0.0
  0
POINT
  5
20E9
330
8C5
100
AcDbEntity
  8
YKK_N1
  6
Continuous
100
AcDbPoint
 10
16047.50003
 20
13349.999995
 30
0.0
  0
LINE
  5
20EA
330
8C5
100
AcDbEntity
  8
YKK_N1
  6
Continuous
100
AcDbLine
 10
16047.50003
 20
13349.999995
 30
0.0
 11
16047.50003
 21
13369.999995
 31
0.0
  0
LINE
  5
20EB
330
8C5
100
AcDbEntity
  8
YKK_N1
  6
Continuous
100
AcDbLine
 10
15997.50003
 20
13263.397395
 30
0.0
 11
16047.50003
 21
13349.999995
 31
0.0
  0
CIRCLE
  5
20EC
330
8C5
100
AcDbEntity
  8
YKK_N1
  6
Continuous
100
AcDbCircle
 10
16047.50003
 20
13369.999995
 30
0.0
 40
5.0
  0
LINE
  5
20ED
330
8C5
100
AcDbEntity
  8
YKK_N1
  6
Continuous
100
AcDbLine
 10
15997.50003
 20
13263.397395
 30
0.0
 11
16097.50002
 21
13263.397395
 31
0.0
  0
LINE
  5
20EE
330
8C5
100
AcDbEntity
  8
YKK_N1
  6
Continuous
100
AcDbLine
 10
16097.50003
 20
13263.397495
 30
0.0
 11
16047.50003
 21
13349.999995
 31
0.0
  0
LINE
  5
20EF
330
8C5
100
AcDbEntity
  8
YKK_C1
100
AcDbLine
 10
15485.0998466
 20
13326.99999515
 30
0.0
 11
15485.0998466
 21
13304.99992924
 31
0.0
  0
LINE
  5
20F0
330
8C5
100
AcDbEntity
  8
YKK_C1
100
AcDbLine
 10
15485.0998466
 20
13304.99992924
 30
0.0
 11
15494.5998466
 21
13304.99992924
 31
0.0
  0
LINE
  5
20F1
330
8C5
100
AcDbEntity
  8
YKK_C1
100
AcDbLine
 10
15494.5998466
 20
13304.99992924
 30
0.0
 11
15494.5998466
 21
13332.49992924
 31
0.0
  0
LINE
  5
20F2
330
8C5
100
AcDbEntity
  8
YKK_C1
100
AcDbLine
 10
15490.1998466
 20
13330.88359303
 30
0.0
 11
15490.1998466
 21
13323.92864712
 31
0.0
  0
LINE
  5
20F3
330
8C5
100
AcDbEntity
  8
YKK_C1
100
AcDbLine
 10
15490.1998466
 20
13323.92864712
 30
0.0
 11
15494.5998466
 21
13316.30762426
 31
0.0
  0
LINE
  5
20F4
330
8C5
100
AcDbEntity
  8
YKK_C1
100
AcDbLine
 10
15490.1998466
 20
13324.89992924
 30
0.0
 11
15485.0998466
 21
13324.89992924
 31
0.0
  0
LINE
  5
20F5
330
8C5
100
AcDbEntity
  8
YKK_C1
100
AcDbLine
 10
15494.5998466
 20
13067.50001905
 30
0.0
 11
15494.5998466
 21
13095.00001905
 31
0.0
  0
LINE
  5
20F6
330
8C5
100
AcDbEntity
  8
YKK_C1
100
AcDbLine
 10
15485.0998466
 20
13072.99999446
 30
0.0
 11
15485.0998466
 21
13095.00001905
 31
0.0
  0
LINE
  5
20F7
330
8C5
100
AcDbEntity
  8
YKK_C1
100
AcDbLine
 10
15485.0998466
 20
13095.00001905
 30
0.0
 11
15494.5998466
 21
13095.00001905
 31
0.0
  0
LINE
  5
20F8
330
8C5
100
AcDbEntity
  8
YKK_C1
100
AcDbLine
 10
15490.1998466
 20
13069.11635526
 30
0.0
 11
15490.1998466
 21
13076.07130117
 31
0.0
  0
LINE
  5
20F9
330
8C5
100
AcDbEntity
  8
YKK_C1
100
AcDbLine
 10
15490.1998466
 20
13076.07130117
 30
0.0
 11
15494.5998466
 21
13083.69232403
 31
0.0
  0
LINE
  5
20FA
330
8C5
100
AcDbEntity
  8
YKK_C1
100
AcDbLine
 10
15485.0998466
 20
13075.10001905
 30
0.0
 11
15490.1998466
 21
13075.10001905
 31
0.0
  0
LINE
  5
20FB
330
8C5
100
AcDbEntity
  8
YKK_N1
  6
Continuous
100
AcDbLine
 10
15722.49997
 20
16975.00001352
 30
0.0
 11
16047.49997
 21
16975.00001352
 31
0.0
  0
LINE
  5
20FC
330
8C5
100
AcDbEntity
  8
YKK_N1
  6
Continuous
100
AcDbLine
 10
15722.49997
 20
16955.00001352
 30
0.0
 11
16047.49997
 21
16955.00001352
 31
0.0
  0
LINE
  5
20FD
330
8C5
100
AcDbEntity
  8
YKK_N1
  6
Continuous
100
AcDbLine
 10
15722.50003
 20
17245.00000352
 30
0.0
 11
16047.50003
 21
17245.00000352
 31
0.0
  0
LINE
  5
20FE
330
8C5
100
AcDbEntity
  8
YKK_N1
  6
Continuous
100
AcDbLine
 10
15722.50003
 20
17225.00000352
 30
0.0
 11
16047.50003
 21
17225.00000352
 31
0.0
  0
LINE
  5
20FF
330
8C5
100
AcDbEntity
  8
YKK_C1
100
AcDbLine
 10
15532.49986027
 20
17032.00001586
 30
0.0
 11
15532.49984629
 21
17168.00000366
 31
0.0
  0
LINE
  5
2100
330
8C5
100
AcDbEntity
  8
YKK_C1
100
AcDbLine
 10
15497.49984661
 20
17005.00000366
 30
0.0
 11
15497.49984661
 21
17195.00000366
 31
0.0
  0
LINE
  5
2101
330
8C5
100
AcDbEntity
  8
YKK_C1
100
AcDbLine
 10
15519.49984629
 20
17005.00000366
 30
0.0
 11
15519.49984629
 21
17195.00000366
 31
0.0
  0
LINE
  5
2102
330
8C5
100
AcDbEntity
  8
YKK_C1
100
AcDbLine
 10
15452.49984629
 20
17208.50000366
 30
0.0
 11
15452.49984629
 21
16991.50000366
 31
0.0
  0
TEXT
  5
2103
330
8C5
100
AcDbEntity
  8
YKK_N1
  6
Continuous
100
AcDbText
 10
15340.37716562
 20
16585.77297193
 30
0.0
 40
60.0
  1
65
 50
0.000003
 72
     4
 11
15390.37716405
 21
16615.77297455
 31
0.0
100
AcDbText
  0
TEXT
  5
2104
330
8C5
100
AcDbEntity
  8
YKK_N1
  6
Continuous
100
AcDbText
 10
15555.63898791
 20
16585.77297219
 30
0.0
 40
60.0
  1
30
 50
0.000003
 72
     4
 11
15600.63898634
 21
16615.77297455
 31
0.0
100
AcDbText
  0
CIRCLE
  5
2105
330
8C5
100
AcDbEntity
  8
YKK_N1
  6
Continuous
100
AcDbCircle
 10
15547.49984515
 20
16573.77297455
 30
0.0
 40
5.0
  0
CIRCLE
  5
2106
330
8C5
100
AcDbEntity
  8
YKK_N1
  6
Continuous
100
AcDbCircle
 10
15517.49984515
 20
16573.77297455
 30
0.0
 40
5.0
  0
CIRCLE
  5
2107
330
8C5
100
AcDbEntity
  8
YKK_N1
  6
Continuous
100
AcDbCircle
 10
15452.49984515
 20
16573.77297455
 30
0.0
 40
5.0
  0
LINE
  5
2108
330
8C5
100
AcDbEntity
  8
YKK_N1
  6
Continuous
100
AcDbLine
 10
15452.49984515
 20
16573.77297455
 30
0.0
 11
15547.49984515
 21
16573.77297455
 31
0.0
  0
LINE
  5
2109
330
8C5
100
AcDbEntity
  8
YKK_N1
  6
Continuous
100
AcDbLine
 10
15452.49984515
 20
16698.77297455
 30
0.0
 11
15452.49984515
 21
16573.77297455
 31
0.0
  0
LINE
  5
210A
330
8C5
100
AcDbEntity
  8
YKK_N1
  6
Continuous
100
AcDbLine
 10
15517.49984515
 20
16698.77297455
 30
0.0
 11
15517.49984515
 21
16573.77297455
 31
0.0
  0
LINE
  5
210B
330
8C5
100
AcDbEntity
  8
YKK_N1
  6
Continuous
100
AcDbLine
 10
15547.49984515
 20
16698.77297455
 30
0.0
 11
15547.49984515
 21
16573.77297455
 31
0.0
  0
LINE
  5
210C
330
8C5
100
AcDbEntity
  8
YKK_C1
100
AcDbLine
 10
15522.49984629
 20
17020.00000366
 30
0.0
 11
15522.49984629
 21
17015.25000366
 31
0.0
  0
LINE
  5
210D
330
8C5
100
AcDbEntity
  8
YKK_C1
100
AcDbLine
 10
15532.49984629
 20
17020.00000366
 30
0.0
 11
15522.49984629
 21
17020.00000366
 31
0.0
  0
LINE
  5
210E
330
8C5
100
AcDbEntity
  8
YKK_C1
100
AcDbLine
 10
15522.49984629
 20
17006.50000366
 30
0.0
 11
15532.49984629
 21
17006.50000366
 31
0.0
  0
LINE
  5
210F
330
8C5
100
AcDbEntity
  8
YKK_C1
100
AcDbLine
 10
15522.49984629
 20
17011.75000366
 30
0.0
 11
15522.49984629
 21
16975.00000366
 31
0.0
  0
LINE
  5
2110
330
8C5
100
AcDbEntity
  8
YKK_C1
100
AcDbLine
 10
15532.49984629
 20
16975.00000366
 30
0.0
 11
15522.49984629
 21
16975.00000366
 31
0.0
  0
LINE
  5
2111
330
8C5
100
AcDbEntity
  8
YKK_C1
100
AcDbLine
 10
15547.49984629
 20
16979.00000366
 30
0.0
 11
15532.49984629
 21
16979.00000366
 31
0.0
  0
LINE
  5
2112
330
8C5
100
AcDbEntity
  8
YKK_C1
100
AcDbLine
 10
15547.49984629
 20
16975.00000366
 30
0.0
 11
15547.49984629
 21
16979.00000366
 31
0.0
  0
LINE
  5
2113
330
8C5
100
AcDbEntity
  8
YKK_C1
100
AcDbLine
 10
15532.49984629
 20
16975.00000366
 30
0.0
 11
15532.49984629
 21
17022.00000366
 31
0.0
  0
LINE
  5
2114
330
8C5
100
AcDbEntity
  8
YKK_C1
100
AcDbLine
 10
15513.99984994
 20
16955.00000478
 30
0.0
 11
15513.99984994
 21
16983.20000366
 31
0.0
  0
LINE
  5
2115
330
8C5
100
AcDbEntity
  8
YKK_C1
100
AcDbLine
 10
15517.49984994
 20
16955.00000478
 30
0.0
 11
15513.99984994
 21
16955.00000478
 31
0.0
  0
LINE
  5
2116
330
8C5
100
AcDbEntity
  8
YKK_C1
100
AcDbLine
 10
15452.49984629
 20
16981.50000366
 30
0.0
 11
15484.49984629
 21
16983.17705259
 31
0.0
  0
LINE
  5
2117
330
8C5
100
AcDbEntity
  8
YKK_C1
100
AcDbLine
 10
15452.49984629
 20
16975.00000366
 30
0.0
 11
15452.49984629
 21
16981.50000366
 31
0.0
  0
LINE
  5
2118
330
8C5
100
AcDbEntity
  8
YKK_C1
100
AcDbLine
 10
15484.49984629
 20
16975.00000366
 30
0.0
 11
15484.49984629
 21
16998.00000366
 31
0.0
  0
LINE
  5
2119
330
8C5
100
AcDbEntity
  8
YKK_C1
100
AcDbLine
 10
15499.49984629
 20
16989.50000366
 30
0.0
 11
15499.49984629
 21
16998.00000366
 31
0.0
  0
LINE
  5
211A
330
8C5
100
AcDbEntity
  8
YKK_C1
100
AcDbLine
 10
15484.49984629
 20
16989.50000366
 30
0.0
 11
15499.49984629
 21
16989.50000366
 31
0.0
  0
LINE
  5
211B
330
8C5
100
AcDbEntity
  8
YKK_C1
100
AcDbLine
 10
15484.49984629
 20
16998.00000366
 30
0.0
 11
15488.39984629
 21
16998.00000366
 31
0.0
  0
LINE
  5
211C
330
8C5
100
AcDbEntity
  8
YKK_C1
100
AcDbLine
 10
15513.99984994
 20
16975.00000366
 30
0.0
 11
15452.49984629
 21
16975.00000366
 31
0.0
  0
LINE
  5
211D
330
8C5
100
AcDbEntity
  8
YKK_C1
100
AcDbLine
 10
15522.49984629
 20
16998.00000366
 30
0.0
 11
15494.59984629
 21
16998.00000366
 31
0.0
  0
LINE
  5
211E
330
8C5
100
AcDbEntity
  8
YKK_C1
100
AcDbLine
 10
15522.49984629
 20
16983.20000366
 30
0.0
 11
15484.49984629
 21
16983.20000366
 31
0.0
  0
CIRCLE
  5
211F
330
8C5
100
AcDbEntity
  8
YKK_IN
  6
Continuous
100
AcDbCircle
 10
15517.50000313
 20
16975.00001352
 30
0.0
 40
25.0
  0
LINE
  5
2120
330
8C5
100
AcDbEntity
  8
YKK_IN
  6
Continuous
100
AcDbLine
 10
15552.85531929
 20
17010.3553602
 30
0.0
 11
15482.14465645
 21
16939.64466684
 31
0.0
  0
LINE
  5
2121
330
8C5
100
AcDbEntity
  8
YKK_IN
  6
Continuous
100
AcDbLine
 10
15552.85531929
 20
16939.64466684
 30
0.0
 11
15482.14465645
 21
17010.3553602
 31
0.0
  0
CIRCLE
  5
2122
330
8C5
100
AcDbEntity
  8
YKK_N1
  6
Continuous
100
AcDbCircle
 10
15847.49997
 20
16975.00001352
 30
0.0
 40
5.0
  0
CIRCLE
  5
2123
330
8C5
100
AcDbEntity
  8
YKK_N1
  6
Continuous
100
AcDbCircle
 10
15847.49997
 20
17022.00001352
 30
0.0
 40
5.0
  0
LINE
  5
2124
330
8C5
100
AcDbEntity
  8
YKK_N1
  6
Continuous
100
AcDbLine
 10
15847.49997
 20
16975.00001352
 30
0.0
 11
15847.49997
 21
17022.00001352
 31
0.0
  0
LINE
  5
2125
330
8C5
100
AcDbEntity
  8
YKK_N1
  6
Continuous
100
AcDbLine
 10
15722.49997
 20
17022.00001352
 30
0.0
 11
15847.49997
 21
17022.00001352
 31
0.0
  0
TEXT
  5
2126
330
8C5
100
AcDbEntity
  8
YKK_N1
  6
Continuous
100
AcDbText
 10
15835.49997
 20
16978.04414581
 30
0.0
 40
60.0
  1
47
 50
90.0
 72
     4
 11
15805.49997
 21
17028.04414581
 31
0.0
100
AcDbText
  0
TEXT
  5
2127
330
8C5
100
AcDbEntity
  8
YKK_N1
  6
Continuous
100
AcDbText
 10
15349.50475107
 20
17075.31360077
 30
0.0
 40
60.0
  1
80
 50
0.000003
 72
     4
 11
15394.5047495
 21
17105.31360313
 31
0.0
100
AcDbText
  0
TEXT
  5
2128
330
8C5
100
AcDbEntity
  8
YKK_N1
  6
Continuous
100
AcDbText
 10
15558.99719653
 20
17075.31360104
 30
0.0
 40
60.0
  1
15
 50
0.000003
 72
     4
 11
15598.99719496
 21
17105.31360313
 31
0.0
100
AcDbText
  0
LINE
  5
2129
330
8C5
100
AcDbEntity
  8
YKK_N1
  6
Continuous
100
AcDbLine
 10
15532.49984629
 20
17125.94938792
 30
0.0
 11
15532.49984629
 21
17100.94938792
 31
0.0
  0
LINE
  5
212A
330
8C5
100
AcDbEntity
  8
YKK_N1
  6
Continuous
100
AcDbLine
 10
15547.49984629
 20
17125.94938792
 30
0.0
 11
15547.49984629
 21
17100.94938792
 31
0.0
  0
CIRCLE
  5
212B
330
8C5
100
AcDbEntity
  8
YKK_N1
  6
Continuous
100
AcDbCircle
 10
15532.49984629
 20
17100.94938792
 30
0.0
 40
5.0
  0
CIRCLE
  5
212C
330
8C5
100
AcDbEntity
  8
YKK_N1
  6
Continuous
100
AcDbCircle
 10
15547.49984629
 20
17100.94938792
 30
0.0
 40
5.0
  0
LINE
  5
212D
330
8C5
100
AcDbEntity
  8
YKK_C1
100
AcDbLine
 10
15517.49984994
 20
17245.00000253
 30
0.0
 11
15513.99984994
 21
17245.00000253
 31
0.0
  0
LINE
  5
212E
330
8C5
100
AcDbEntity
  8
YKK_C1
100
AcDbLine
 10
15513.99984994
 20
17245.00000253
 30
0.0
 11
15513.99984994
 21
17216.80000366
 31
0.0
  0
LINE
  5
212F
330
8C5
100
AcDbEntity
  8
YKK_C1
100
AcDbLine
 10
15522.49984629
 20
17193.50000366
 30
0.0
 11
15532.49984629
 21
17193.50000366
 31
0.0
  0
LINE
  5
2130
330
8C5
100
AcDbEntity
  8
YKK_C1
100
AcDbLine
 10
15522.49984629
 20
17188.25000366
 30
0.0
 11
15522.49984629
 21
17225.00000366
 31
0.0
  0
LINE
  5
2131
330
8C5
100
AcDbEntity
  8
YKK_C1
100
AcDbLine
 10
15532.49984629
 20
17225.00000366
 30
0.0
 11
15522.49984629
 21
17225.00000366
 31
0.0
  0
LINE
  5
2132
330
8C5
100
AcDbEntity
  8
YKK_C1
100
AcDbLine
 10
15547.49984629
 20
17221.00000366
 30
0.0
 11
15532.49984629
 21
17221.00000366
 31
0.0
  0
LINE
  5
2133
330
8C5
100
AcDbEntity
  8
YKK_C1
100
AcDbLine
 10
15547.49984629
 20
17225.00000366
 30
0.0
 11
15547.49984629
 21
17221.00000366
 31
0.0
  0
LINE
  5
2134
330
8C5
100
AcDbEntity
  8
YKK_C1
100
AcDbLine
 10
15522.49984629
 20
17180.00000366
 30
0.0
 11
15522.49984629
 21
17184.75000366
 31
0.0
  0
LINE
  5
2135
330
8C5
100
AcDbEntity
  8
YKK_C1
100
AcDbLine
 10
15532.49984629
 20
17180.00000366
 30
0.0
 11
15522.49984629
 21
17180.00000366
 31
0.0
  0
LINE
  5
2136
330
8C5
100
AcDbEntity
  8
YKK_C1
100
AcDbLine
 10
15532.49984629
 20
17225.00000366
 30
0.0
 11
15532.49984629
 21
17178.00000366
 31
0.0
  0
LINE
  5
2137
330
8C5
100
AcDbEntity
  8
YKK_N1
  6
Continuous
100
AcDbLine
 10
15452.49984629
 20
17125.94938792
 30
0.0
 11
15452.49984629
 21
17100.94938792
 31
0.0
  0
CIRCLE
  5
2138
330
8C5
100
AcDbEntity
  8
YKK_N1
  6
Continuous
100
AcDbCircle
 10
15452.49984629
 20
17100.94938792
 30
0.0
 40
5.0
  0
LINE
  5
2139
330
8C5
100
AcDbEntity
  8
YKK_C1
100
AcDbLine
 10
15484.49984629
 20
17225.00000366
 30
0.0
 11
15484.49984629
 21
17202.00000366
 31
0.0
  0
LINE
  5
213A
330
8C5
100
AcDbEntity
  8
YKK_C1
100
AcDbLine
 10
15499.49984629
 20
17210.50000366
 30
0.0
 11
15499.49984629
 21
17202.00000366
 31
0.0
  0
LINE
  5
213B
330
8C5
100
AcDbEntity
  8
YKK_C1
100
AcDbLine
 10
15484.49984629
 20
17210.50000366
 30
0.0
 11
15499.49984629
 21
17210.50000366
 31
0.0
  0
LINE
  5
213C
330
8C5
100
AcDbEntity
  8
YKK_C1
100
AcDbLine
 10
15484.49984629
 20
17202.00000366
 30
0.0
 11
15488.39984629
 21
17202.00000366
 31
0.0
  0
LINE
  5
213D
330
8C5
100
AcDbEntity
  8
YKK_C1
100
AcDbLine
 10
15452.49984629
 20
17225.00000366
 30
0.0
 11
15452.49984629
 21
17218.50000366
 31
0.0
  0
LINE
  5
213E
330
8C5
100
AcDbEntity
  8
YKK_C1
100
AcDbLine
 10
15452.49984629
 20
17218.50000366
 30
0.0
 11
15484.49984629
 21
17216.82295472
 31
0.0
  0
LINE
  5
213F
330
8C5
100
AcDbEntity
  8
YKK_N1
  6
Continuous
100
AcDbLine
 10
15452.49984629
 20
17100.94938792
 30
0.0
 11
15547.49984629
 21
17100.94938792
 31
0.0
  0
LINE
  5
2140
330
8C5
100
AcDbEntity
  8
YKK_C1
100
AcDbLine
 10
15522.49984629
 20
17202.00000366
 30
0.0
 11
15494.59984629
 21
17202.00000366
 31
0.0
  0
LINE
  5
2141
330
8C5
100
AcDbEntity
  8
YKK_C1
100
AcDbLine
 10
15522.49984629
 20
17216.80000366
 30
0.0
 11
15484.49984629
 21
17216.80000366
 31
0.0
  0
LINE
  5
2142
330
8C5
100
AcDbEntity
  8
YKK_C1
100
AcDbLine
 10
15513.99984994
 20
17225.00000366
 30
0.0
 11
15452.49984629
 21
17225.00000366
 31
0.0
  0
CIRCLE
  5
2143
330
8C5
100
AcDbEntity
  8
YKK_N1
  6
Continuous
100
AcDbCircle
 10
15847.50003
 20
17225.00000352
 30
0.0
 40
5.0
  0
CIRCLE
  5
2144
330
8C5
100
AcDbEntity
  8
YKK_N1
  6
Continuous
100
AcDbCircle
 10
15847.50003
 20
17178.00000352
 30
0.0
 40
5.0
  0
LINE
  5
2145
330
8C5
100
AcDbEntity
  8
YKK_N1
  6
Continuous
100
AcDbLine
 10
15847.50003
 20
17178.00000352
 30
0.0
 11
15847.50003
 21
17225.00000352
 31
0.0
  0
LINE
  5
2146
330
8C5
100
AcDbEntity
  8
YKK_N1
  6
Continuous
100
AcDbLine
 10
15722.50003
 20
17178.00000352
 30
0.0
 11
15847.50003
 21
17178.00000352
 31
0.0
  0
TEXT
  5
2147
330
8C5
100
AcDbEntity
  8
YKK_N1
  6
Continuous
100
AcDbText
 10
15835.50003
 20
17121.3604385
 30
0.0
 40
60.0
  1
47
 50
90.0
 72
     4
 11
15805.50003
 21
17171.3604385
 31
0.0
100
AcDbText
  0
TEXT
  5
2148
330
8C5
100
AcDbEntity
  8
YKK_N1
  6
Continuous
100
AcDbText
 10
16166.36625229
 20
16968.48846803
 30
0.0
 40
60.0
  1
H=250
 50
90.0
 72
     4
 11
16136.36625229
 21
17103.48846803
 31
0.0
100
AcDbText
  0
LINE
  5
2149
330
8C5
100
AcDbEntity
  8
YKK_N1
  6
Continuous
100
AcDbLine
 10
16047.49997
 20
16974.99999352
 30
0.0
 11
16047.50003
 21
17225.00000352
 31
0.0
  0
LINE
  5
214A
330
8C5
100
AcDbEntity
  8
YKK_N1
  6
Continuous
100
AcDbLine
 10
15997.49997
 20
17061.60255352
 30
0.0
 11
16097.49999
 21
17061.60255352
 31
0.0
  0
TEXT
  5
214B
330
8C5
100
AcDbEntity
  8
YKK_N1
  6
Continuous
100
AcDbText
 10
16035.49997
 20
16838.52787768
 30
0.0
 40
60.0
  1
20
 50
90.0
 72
     4
 11
16005.49997
 21
16883.52787768
 31
0.0
100
AcDbText
  0
POINT
  5
214C
330
8C5
100
AcDbEntity
  8
YKK_N1
  6
Continuous
100
AcDbPoint
 10
16047.49997
 20
16975.00001352
 30
0.0
  0
LINE
  5
214D
330
8C5
100
AcDbEntity
  8
YKK_N1
  6
Continuous
100
AcDbLine
 10
16047.49997
 20
16954.99999352
 30
0.0
 11
16047.49997
 21
16974.99999352
 31
0.0
  0
CIRCLE
  5
214E
330
8C5
100
AcDbEntity
  8
YKK_N1
  6
Continuous
100
AcDbCircle
 10
16047.49997
 20
16955.00001352
 30
0.0
 40
5.0
  0
LINE
  5
214F
330
8C5
100
AcDbEntity
  8
YKK_N1
  6
Continuous
100
AcDbLine
 10
16047.49997
 20
16975.00001352
 30
0.0
 11
15997.49997
 21
17061.60255352
 31
0.0
  0
LINE
  5
2150
330
8C5
100
AcDbEntity
  8
YKK_N1
  6
Continuous
100
AcDbLine
 10
16047.49997
 20
16975.00001352
 30
0.0
 11
16097.49999
 21
17061.60255352
 31
0.0
  0
TEXT
  5
2151
330
8C5
100
AcDbEntity
  8
YKK_N1
  6
Continuous
100
AcDbText
 10
16035.50003
 20
17261.50924697
 30
0.0
 40
60.0
  1
20
 50
90.0
 72
     4
 11
16005.50003
 21
17306.50924697
 31
0.0
100
AcDbText
  0
POINT
  5
2152
330
8C5
100
AcDbEntity
  8
YKK_N1
  6
Continuous
100
AcDbPoint
 10
16047.50003
 20
17225.00000352
 30
0.0
  0
POINT
  5
2153
330
8C5
100
AcDbEntity
  8
YKK_N1
  6
Continuous
100
AcDbPoint
 10
16047.50003
 20
17225.00000352
 30
0.0
  0
LINE
  5
2154
330
8C5
100
AcDbEntity
  8
YKK_N1
  6
Continuous
100
AcDbLine
 10
16047.50003
 20
17225.00000352
 30
0.0
 11
16047.50003
 21
17245.00000352
 31
0.0
  0
LINE
  5
2155
330
8C5
100
AcDbEntity
  8
YKK_N1
  6
Continuous
100
AcDbLine
 10
15997.50003
 20
17138.39740352
 30
0.0
 11
16047.50003
 21
17225.00000352
 31
0.0
  0
CIRCLE
  5
2156
330
8C5
100
AcDbEntity
  8
YKK_N1
  6
Continuous
100
AcDbCircle
 10
16047.50003
 20
17245.00000352
 30
0.0
 40
5.0
  0
LINE
  5
2157
330
8C5
100
AcDbEntity
  8
YKK_N1
  6
Continuous
100
AcDbLine
 10
15997.50003
 20
17138.39740352
 30
0.0
 11
16097.50002
 21
17138.39740352
 31
0.0
  0
LINE
  5
2158
330
8C5
100
AcDbEntity
  8
YKK_N1
  6
Continuous
100
AcDbLine
 10
16097.50003
 20
17138.39750352
 30
0.0
 11
16047.50003
 21
17225.00000352
 31
0.0
  0
LINE
  5
2159
330
8C5
100
AcDbEntity
  8
YKK_C1
100
AcDbLine
 10
15485.0998466
 20
17202.00000367
 30
0.0
 11
15485.0998466
 21
17179.99993776
 31
0.0
  0
LINE
  5
215A
330
8C5
100
AcDbEntity
  8
YKK_C1
100
AcDbLine
 10
15485.0998466
 20
17179.99993776
 30
0.0
 11
15494.5998466
 21
17179.99993776
 31
0.0
  0
LINE
  5
215B
330
8C5
100
AcDbEntity
  8
YKK_C1
100
AcDbLine
 10
15494.5998466
 20
17179.99993776
 30
0.0
 11
15494.5998466
 21
17207.49993776
 31
0.0
  0
LINE
  5
215C
330
8C5
100
AcDbEntity
  8
YKK_C1
100
AcDbLine
 10
15490.1998466
 20
17205.88360156
 30
0.0
 11
15490.1998466
 21
17198.92865564
 31
0.0
  0
LINE
  5
215D
330
8C5
100
AcDbEntity
  8
YKK_C1
100
AcDbLine
 10
15490.1998466
 20
17198.92865564
 30
0.0
 11
15494.5998466
 21
17191.30763279
 31
0.0
  0
LINE
  5
215E
330
8C5
100
AcDbEntity
  8
YKK_C1
100
AcDbLine
 10
15490.1998466
 20
17199.89993776
 30
0.0
 11
15485.0998466
 21
17199.89993776
 31
0.0
  0
LINE
  5
215F
330
8C5
100
AcDbEntity
  8
YKK_C1
100
AcDbLine
 10
15494.5998466
 20
16992.50002757
 30
0.0
 11
15494.5998466
 21
17020.00002757
 31
0.0
  0
LINE
  5
2160
330
8C5
100
AcDbEntity
  8
YKK_C1
100
AcDbLine
 10
15485.0998466
 20
16998.00000298
 30
0.0
 11
15485.0998466
 21
17020.00002757
 31
0.0
  0
LINE
  5
2161
330
8C5
100
AcDbEntity
  8
YKK_C1
100
AcDbLine
 10
15485.0998466
 20
17020.00002757
 30
0.0
 11
15494.5998466
 21
17020.00002757
 31
0.0
  0
LINE
  5
2162
330
8C5
100
AcDbEntity
  8
YKK_C1
100
AcDbLine
 10
15490.1998466
 20
16994.11636378
 30
0.0
 11
15490.1998466
 21
17001.0713097
 31
0.0
  0
LINE
  5
2163
330
8C5
100
AcDbEntity
  8
YKK_C1
100
AcDbLine
 10
15490.1998466
 20
17001.0713097
 30
0.0
 11
15494.5998466
 21
17008.69233255
 31
0.0
  0
LINE
  5
2164
330
8C5
100
AcDbEntity
  8
YKK_C1
100
AcDbLine
 10
15485.0998466
 20
17000.10002757
 30
0.0
 11
15490.1998466
 21
17000.10002757
 31
0.0
  0
LINE
  5
2167
330
8C5
100
AcDbEntity
  8
YKK_N1
  6
Continuous
100
AcDbLine
 10
6900.000005
 20
5427.50271046
 30
0.0
 11
6900.000005
 21
5102.50271046
 31
0.0
  0
LINE
  5
2168
330
8C5
100
AcDbEntity
  8
YKK_N1
  6
Continuous
100
AcDbLine
 10
6920.000005
 20
5427.50271046
 30
0.0
 11
6920.000005
 21
5102.50271046
 31
0.0
  0
LINE
  5
2169
330
8C5
100
AcDbEntity
  8
YKK_N1
  6
Continuous
100
AcDbLine
 10
6853.000005
 20
5427.50271046
 30
0.0
 11
6853.000005
 21
5302.50271046
 31
0.0
  0
LINE
  5
216A
330
8C5
100
AcDbEntity
  8
YKK_N1
  6
Continuous
100
AcDbLine
 10
6600.000015
 20
5427.50277046
 30
0.0
 11
6600.000015
 21
5102.50277046
 31
0.0
  0
LINE
  5
216B
330
8C5
100
AcDbEntity
  8
YKK_N1
  6
Continuous
100
AcDbLine
 10
6580.000015
 20
5427.50277046
 30
0.0
 11
6580.000015
 21
5102.50277046
 31
0.0
  0
LINE
  5
216C
330
8C5
100
AcDbEntity
  8
YKK_N1
  6
Continuous
100
AcDbLine
 10
6647.000015
 20
5427.50277046
 30
0.0
 11
6647.000015
 21
5302.50277046
 31
0.0
  0
LINE
  5
216D
330
8C5
100
AcDbEntity
  8
YKK_N1
  6
Continuous
100
AcDbLine
 10
6600.000015
 20
5102.50277046
 30
0.0
 11
6686.602555
 21
5152.50277046
 31
0.0
  0
LINE
  5
216E
330
8C5
100
AcDbEntity
  8
YKK_N1
  6
Continuous
100
AcDbLine
 10
6600.000015
 20
5102.50277046
 30
0.0
 11
6686.602555
 21
5052.50275046
 31
0.0
  0
LINE
  5
216F
330
8C5
100
AcDbEntity
  8
YKK_N1
  6
Continuous
100
AcDbLine
 10
6600.000015
 20
5302.50277046
 30
0.0
 11
6647.000015
 21
5302.50277046
 31
0.0
  0
LINE
  5
2170
330
8C5
100
AcDbEntity
  8
YKK_N1
  6
Continuous
100
AcDbLine
 10
6599.999995
 20
5102.50277046
 30
0.0
 11
6900.000005
 21
5102.50271046
 31
0.0
  0
LINE
  5
2171
330
8C5
100
AcDbEntity
  8
YKK_N1
  6
Continuous
100
AcDbLine
 10
6579.999995
 20
5102.50277046
 30
0.0
 11
6599.999995
 21
5102.50277046
 31
0.0
  0
CIRCLE
  5
2172
330
8C5
100
AcDbEntity
  8
YKK_N1
  6
Continuous
100
AcDbCircle
 10
6580.000015
 20
5102.50277046
 30
0.0
 40
5.0
  0
POINT
  5
2173
330
8C5
100
AcDbEntity
  8
YKK_N1
  6
Continuous
100
AcDbPoint
 10
6600.000015
 20
5102.50277046
 30
0.0
  0
TEXT
  5
2174
330
8C5
100
AcDbEntity
  8
YKK_N1
  6
Continuous
100
AcDbText
 10
6463.52787916
 20
5114.50277046
 30
0.0
 40
60.0
  1
20
 72
     4
 11
6508.52787916
 21
5144.50277046
 31
0.0
100
AcDbText
  0
CIRCLE
  5
2175
330
8C5
100
AcDbEntity
  8
YKK_N1
  6
Continuous
100
AcDbCircle
 10
6600.000015
 20
5302.50277046
 30
0.0
 40
5.0
  0
TEXT
  5
2176
330
8C5
100
AcDbEntity
  8
YKK_N1
  6
Continuous
100
AcDbText
 10
6613.48846951
 20
4983.60686597
 30
0.0
 40
60.0
  1
W=300
 72
     4
 11
6753.48846951
 21
5013.60686597
 31
0.0
100
AcDbText
  0
LINE
  5
2177
330
8C5
100
AcDbEntity
  8
YKK_N1
  6
Continuous
100
AcDbLine
 10
6686.602555
 20
5152.50277046
 30
0.0
 11
6686.602555
 21
5052.50275046
 31
0.0
  0
CIRCLE
  5
2178
330
8C5
100
AcDbEntity
  8
YKK_N1
  6
Continuous
100
AcDbCircle
 10
6647.000015
 20
5302.50277046
 30
0.0
 40
5.0
  0
CIRCLE
  5
2179
330
8C5
100
AcDbEntity
  8
YKK_N1
  6
Continuous
100
AcDbCircle
 10
6920.000005
 20
5102.50271046
 30
0.0
 40
5.0
  0
POINT
  5
217A
330
8C5
100
AcDbEntity
  8
YKK_N1
  6
Continuous
100
AcDbPoint
 10
6900.000005
 20
5102.50271046
 30
0.0
  0
POINT
  5
217B
330
8C5
100
AcDbEntity
  8
YKK_N1
  6
Continuous
100
AcDbPoint
 10
6900.000005
 20
5102.50271046
 30
0.0
  0
LINE
  5
217C
330
8C5
100
AcDbEntity
  8
YKK_N1
  6
Continuous
100
AcDbLine
 10
6900.000005
 20
5102.50271046
 30
0.0
 11
6920.000005
 21
5102.50271046
 31
0.0
  0
TEXT
  5
217D
330
8C5
100
AcDbEntity
  8
YKK_N1
  6
Continuous
100
AcDbText
 10
6936.50924845
 20
5114.50271046
 30
0.0
 40
60.0
  1
20
 72
     4
 11
6981.50924845
 21
5144.50271046
 31
0.0
100
AcDbText
  0
CIRCLE
  5
217E
330
8C5
100
AcDbEntity
  8
YKK_N1
  6
Continuous
100
AcDbCircle
 10
6900.000005
 20
5302.50271046
 30
0.0
 40
5.0
  0
LINE
  5
217F
330
8C5
100
AcDbEntity
  8
YKK_N1
  6
Continuous
100
AcDbLine
 10
6813.397405
 20
5152.50271046
 30
0.0
 11
6813.397405
 21
5052.50272046
 31
0.0
  0
CIRCLE
  5
2180
330
8C5
100
AcDbEntity
  8
YKK_N1
  6
Continuous
100
AcDbCircle
 10
6853.000005
 20
5302.50271046
 30
0.0
 40
5.0
  0
LINE
  5
2181
330
8C5
100
AcDbEntity
  8
YKK_N1
  6
Continuous
100
AcDbLine
 10
6813.397405
 20
5152.50271046
 30
0.0
 11
6900.000005
 21
5102.50271046
 31
0.0
  0
LINE
  5
2182
330
8C5
100
AcDbEntity
  8
YKK_N1
  6
Continuous
100
AcDbLine
 10
6813.397505
 20
5052.50271046
 30
0.0
 11
6900.000005
 21
5102.50271046
 31
0.0
  0
LINE
  5
2183
330
8C5
100
AcDbEntity
  8
YKK_N1
  6
Continuous
100
AcDbLine
 10
6853.000005
 20
5302.50271046
 30
0.0
 11
6900.000005
 21
5302.50271046
 31
0.0
  0
LINE
  5
2184
330
8C5
100
AcDbEntity
  8
YKK_B1
100
AcDbLine
 10
6599.99975865
 20
5665.5
 30
0.0
 11
6622.99975865
 21
5665.5
 31
0.0
  0
LINE
  5
2185
330
8C5
100
AcDbEntity
  8
YKK_B1
100
AcDbLine
 10
6599.99975865
 20
5617.5
 30
0.0
 11
6646.99975865
 21
5617.5
 31
0.0
  0
LINE
  5
2186
330
8C5
100
AcDbEntity
  8
YKK_B1
100
AcDbLine
 10
6636.74975865
 20
5627.5
 30
0.0
 11
6599.99975865
 21
5627.5
 31
0.0
  0
TEXT
  5
2187
330
8C5
100
AcDbEntity
  8
YKK_N1
  6
Continuous
100
AcDbText
 10
6603.04414728
 20
5314.50277046
 30
0.0
 40
60.0
  1
47
 72
     4
 11
6653.04414728
 21
5344.50277046
 31
0.0
100
AcDbText
  0
LINE
  5
2188
330
8C5
100
AcDbEntity
  8
YKK_B1
100
AcDbLine
 10
6599.99975865
 20
5635.99999636
 30
0.0
 11
6599.99975865
 21
5697.5
 31
0.0
  0
LINE
  5
2189
330
8C5
100
AcDbEntity
  8
YKK_B1
100
AcDbLine
 10
6606.49975865
 20
5697.5
 30
0.0
 11
6608.17680759
 21
5665.5
 31
0.0
  0
LINE
  5
218A
330
8C5
100
AcDbEntity
  8
YKK_B1
100
AcDbLine
 10
6608.19975865
 20
5627.5
 30
0.0
 11
6608.19975865
 21
5665.5
 31
0.0
  0
LINE
  5
218B
330
8C5
100
AcDbEntity
  8
YKK_B1
100
AcDbLine
 10
6599.99975865
 20
5617.5
 30
0.0
 11
6599.99975865
 21
5627.5
 31
0.0
  0
LINE
  5
218C
330
8C5
100
AcDbEntity
  8
YKK_B1
100
AcDbLine
 10
6603.99975865
 20
5602.5
 30
0.0
 11
6603.99975865
 21
5617.5
 31
0.0
  0
LINE
  5
218D
330
8C5
100
AcDbEntity
  8
YKK_B1
100
AcDbLine
 10
6599.99975865
 20
5602.5
 30
0.0
 11
6603.99975865
 21
5602.5
 31
0.0
  0
LINE
  5
218E
330
8C5
100
AcDbEntity
  8
YKK_B1
100
AcDbLine
 10
6579.99975978
 20
5635.99999636
 30
0.0
 11
6608.19975865
 21
5635.99999636
 31
0.0
  0
LINE
  5
218F
330
8C5
100
AcDbEntity
  8
YKK_B1
100
AcDbLine
 10
6579.99975978
 20
5632.49999636
 30
0.0
 11
6579.99975978
 21
5635.99999636
 31
0.0
  0
LINE
  5
2190
330
8C5
100
AcDbEntity
  8
YKK_B1
100
AcDbLine
 10
6599.99975865
 20
5697.5
 30
0.0
 11
6606.49975865
 21
5697.5
 31
0.0
  0
LINE
  5
2191
330
8C5
100
AcDbEntity
  8
YKK_N1
  6
Continuous
100
AcDbLine
 10
6753.43406491
 20
5602.5
 30
0.0
 11
6778.43406491
 21
5602.5
 31
0.0
  0
LINE
  5
2192
330
8C5
100
AcDbEntity
  8
YKK_N1
  6
Continuous
100
AcDbLine
 10
6753.43406491
 20
5617.5
 30
0.0
 11
6778.43406491
 21
5617.5
 31
0.0
  0
LINE
  5
2193
330
8C5
100
AcDbEntity
  8
YKK_N1
  6
Continuous
100
AcDbLine
 10
6753.43406491
 20
5697.5
 30
0.0
 11
6778.43406491
 21
5697.5
 31
0.0
  0
LINE
  5
2194
330
8C5
100
AcDbEntity
  8
YKK_B1
100
AcDbLine
 10
6883.49975865
 20
5697.5
 30
0.0
 11
6616.49975865
 21
5697.5
 31
0.0
  0
LINE
  5
2195
330
8C5
100
AcDbEntity
  8
YKK_B1
100
AcDbLine
 10
6656.99977086
 20
5617.49998602
 30
0.0
 11
6842.99975865
 21
5617.5
 31
0.0
  0
LINE
  5
2196
330
8C5
100
AcDbEntity
  8
YKK_B1
100
AcDbLine
 10
6629.99975865
 20
5630.5
 30
0.0
 11
6869.99975865
 21
5630.5
 31
0.0
  0
LINE
  5
2197
330
8C5
100
AcDbEntity
  8
YKK_B1
100
AcDbLine
 10
6629.99978326
 20
5652.49999967
 30
0.0
 11
6869.99978326
 21
5652.49999967
 31
0.0
  0
TEXT
  5
2198
330
8C5
100
AcDbEntity
  8
YKK_N1
  6
Continuous
100
AcDbText
 10
6792.64981587
 20
5504.25885189
 30
0.0
 40
60.0
  1
15
 50
90.000003
 72
     4
 11
6762.64981377
 21
5544.25885032
 31
0.0
100
AcDbText
  0
LINE
  5
2199
330
8C5
100
AcDbEntity
  8
YKK_B1
100
AcDbLine
 10
6644.99975865
 20
5617.5
 30
0.0
 11
6644.99975865
 21
5627.5
 31
0.0
  0
LINE
  5
219A
330
8C5
100
AcDbEntity
  8
YKK_B1
100
AcDbLine
 10
6644.99975865
 20
5627.5
 30
0.0
 11
6640.24975865
 21
5627.5
 31
0.0
  0
LINE
  5
219B
330
8C5
100
AcDbEntity
  8
YKK_B1
100
AcDbLine
 10
6614.49975865
 20
5665.5
 30
0.0
 11
6614.49975865
 21
5650.5
 31
0.0
  0
LINE
  5
219C
330
8C5
100
AcDbEntity
  8
YKK_B1
100
AcDbLine
 10
6631.49975865
 20
5627.5
 30
0.0
 11
6631.49975865
 21
5617.5
 31
0.0
  0
LINE
  5
219D
330
8C5
100
AcDbEntity
  8
YKK_B1
100
AcDbLine
 10
6614.49975865
 20
5650.5
 30
0.0
 11
6622.99975865
 21
5650.5
 31
0.0
  0
LINE
  5
219E
330
8C5
100
AcDbEntity
  8
YKK_B1
100
AcDbLine
 10
6622.99975865
 20
5627.5
 30
0.0
 11
6622.99975865
 21
5655.4
 31
0.0
  0
LINE
  5
219F
330
8C5
100
AcDbEntity
  8
YKK_B1
100
AcDbLine
 10
6622.99975865
 20
5665.5
 30
0.0
 11
6622.99975865
 21
5661.6
 31
0.0
  0
LINE
  5
21A0
330
8C5
100
AcDbEntity
  8
YKK_B1
100
AcDbLine
 10
6899.99975865
 20
5635.99999636
 30
0.0
 11
6899.99975865
 21
5697.5
 31
0.0
  0
LINE
  5
21A1
330
8C5
100
AcDbEntity
  8
YKK_B1
100
AcDbLine
 10
6893.49975865
 20
5697.5
 30
0.0
 11
6891.82270972
 21
5665.5
 31
0.0
  0
LINE
  5
21A2
330
8C5
100
AcDbEntity
  8
YKK_B1
100
AcDbLine
 10
6885.49975865
 20
5650.5
 30
0.0
 11
6876.99975865
 21
5650.5
 31
0.0
  0
LINE
  5
21A3
330
8C5
100
AcDbEntity
  8
YKK_B1
100
AcDbLine
 10
6863.24975865
 20
5627.5
 30
0.0
 11
6899.99975865
 21
5627.5
 31
0.0
  0
LINE
  5
21A4
330
8C5
100
AcDbEntity
  8
YKK_B1
100
AcDbLine
 10
6899.99975865
 20
5665.5
 30
0.0
 11
6876.99975865
 21
5665.5
 31
0.0
  0
LINE
  5
21A5
330
8C5
100
AcDbEntity
  8
YKK_B1
100
AcDbLine
 10
6868.49975865
 20
5627.5
 30
0.0
 11
6868.49975865
 21
5617.5
 31
0.0
  0
LINE
  5
21A6
330
8C5
100
AcDbEntity
  8
YKK_B1
100
AcDbLine
 10
6876.99975865
 20
5627.5
 30
0.0
 11
6876.99975865
 21
5655.4
 31
0.0
  0
LINE
  5
21A7
330
8C5
100
AcDbEntity
  8
YKK_B1
100
AcDbLine
 10
6876.99975865
 20
5665.5
 30
0.0
 11
6876.99975865
 21
5661.6
 31
0.0
  0
LINE
  5
21A8
330
8C5
100
AcDbEntity
  8
YKK_B1
100
AcDbLine
 10
6919.99975753
 20
5632.49999636
 30
0.0
 11
6919.99975753
 21
5635.99999636
 31
0.0
  0
LINE
  5
21A9
330
8C5
100
AcDbEntity
  8
YKK_B1
100
AcDbLine
 10
6885.49975865
 20
5665.5
 30
0.0
 11
6885.49975865
 21
5650.5
 31
0.0
  0
LINE
  5
21AA
330
8C5
100
AcDbEntity
  8
YKK_B1
100
AcDbLine
 10
6891.79975865
 20
5627.5
 30
0.0
 11
6891.79975865
 21
5665.5
 31
0.0
  0
LINE
  5
21AB
330
8C5
100
AcDbEntity
  8
YKK_B1
100
AcDbLine
 10
6899.99975865
 20
5617.5
 30
0.0
 11
6899.99975865
 21
5627.5
 31
0.0
  0
LINE
  5
21AC
330
8C5
100
AcDbEntity
  8
YKK_B1
100
AcDbLine
 10
6899.99975865
 20
5602.5
 30
0.0
 11
6895.99975865
 21
5602.5
 31
0.0
  0
LINE
  5
21AD
330
8C5
100
AcDbEntity
  8
YKK_B1
100
AcDbLine
 10
6895.99975865
 20
5602.5
 30
0.0
 11
6895.99975865
 21
5617.5
 31
0.0
  0
LINE
  5
21AE
330
8C5
100
AcDbEntity
  8
YKK_B1
100
AcDbLine
 10
6919.99975753
 20
5635.99999636
 30
0.0
 11
6891.79975865
 21
5635.99999636
 31
0.0
  0
LINE
  5
21AF
330
8C5
100
AcDbEntity
  8
YKK_B1
100
AcDbLine
 10
6899.99975865
 20
5697.5
 30
0.0
 11
6893.49975865
 21
5697.5
 31
0.0
  0
LINE
  5
21B0
330
8C5
100
AcDbEntity
  8
YKK_N1
  6
Continuous
100
AcDbLine
 10
6778.43406491
 20
5697.5
 30
0.0
 11
6778.43406491
 21
5602.5
 31
0.0
  0
LINE
  5
21B1
330
8C5
100
AcDbEntity
  8
YKK_B1
100
AcDbLine
 10
6854.99975865
 20
5617.5
 30
0.0
 11
6854.99975865
 21
5627.5
 31
0.0
  0
CIRCLE
  5
21B2
330
8C5
100
AcDbEntity
  8
YKK_N1
  6
Continuous
100
AcDbCircle
 10
6778.43406491
 20
5602.5
 30
0.0
 40
5.0
  0
CIRCLE
  5
21B3
330
8C5
100
AcDbEntity
  8
YKK_N1
  6
Continuous
100
AcDbCircle
 10
6778.43406491
 20
5617.5
 30
0.0
 40
5.0
  0
CIRCLE
  5
21B4
330
8C5
100
AcDbEntity
  8
YKK_N1
  6
Continuous
100
AcDbCircle
 10
6778.43406491
 20
5697.5
 30
0.0
 40
5.0
  0
LINE
  5
21B5
330
8C5
100
AcDbEntity
  8
YKK_B1
100
AcDbLine
 10
6899.99975865
 20
5617.5
 30
0.0
 11
6852.99975865
 21
5617.5
 31
0.0
  0
LINE
  5
21B6
330
8C5
100
AcDbEntity
  8
YKK_B1
100
AcDbLine
 10
6854.99975865
 20
5627.5
 30
0.0
 11
6859.74975865
 21
5627.5
 31
0.0
  0
TEXT
  5
21B7
330
8C5
100
AcDbEntity
  8
YKK_N1
  6
Continuous
100
AcDbText
 10
6796.36043998
 20
5314.50271046
 30
0.0
 40
60.0
  1
47
 72
     4
 11
6846.36043998
 21
5344.50271046
 31
0.0
100
AcDbText
  0
TEXT
  5
21B8
330
8C5
100
AcDbEntity
  8
YKK_N1
  6
Continuous
100
AcDbText
 10
6792.64981613
 20
5711.06801436
 30
0.0
 40
60.0
  1
80
 50
90.000003
 72
     4
 11
6762.64981377
 21
5756.06801279
 31
0.0
100
AcDbText
  0
LINE
  5
21B9
330
8C5
100
AcDbEntity
  8
YKK_N1
  6
Continuous
100
AcDbLine
 10
7302.69639813
 20
5697.49998602
 30
0.0
 11
7302.69639813
 21
5602.49998602
 31
0.0
  0
TEXT
  5
21BA
330
8C5
100
AcDbEntity
  8
YKK_N1
  6
Continuous
100
AcDbText
 10
7290.69640048
 20
5499.25883791
 30
0.0
 40
60.0
  1
30
 50
90.000003
 72
     4
 11
7260.69639813
 21
5544.25883634
 31
0.0
100
AcDbText
  0
LINE
  5
21BB
330
8C5
100
AcDbEntity
  8
YKK_N1
  6
Continuous
100
AcDbLine
 10
7177.69639813
 20
5602.49998602
 30
0.0
 11
7302.69639813
 21
5602.49998602
 31
0.0
  0
CIRCLE
  5
21BC
330
8C5
100
AcDbEntity
  8
YKK_N1
  6
Continuous
100
AcDbCircle
 10
7302.69639813
 20
5602.49998602
 30
0.0
 40
5.0
  0
LINE
  5
21BD
330
8C5
100
AcDbEntity
  8
YKK_N1
  6
Continuous
100
AcDbLine
 10
7177.69639813
 20
5632.49998602
 30
0.0
 11
7302.69639813
 21
5632.49998602
 31
0.0
  0
CIRCLE
  5
21BE
330
8C5
100
AcDbEntity
  8
YKK_N1
  6
Continuous
100
AcDbCircle
 10
7302.69639813
 20
5632.49998602
 30
0.0
 40
5.0
  0
LINE
  5
21BF
330
8C5
100
AcDbEntity
  8
YKK_N1
  6
Continuous
100
AcDbLine
 10
7177.69639813
 20
5697.49998602
 30
0.0
 11
7302.69639813
 21
5697.49998602
 31
0.0
  0
CIRCLE
  5
21C0
330
8C5
100
AcDbEntity
  8
YKK_N1
  6
Continuous
100
AcDbCircle
 10
7302.69639813
 20
5697.49998602
 30
0.0
 40
5.0
  0
TEXT
  5
21C1
330
8C5
100
AcDbEntity
  8
YKK_N1
  6
Continuous
100
AcDbText
 10
7290.69640075
 20
5706.06800038
 30
0.0
 40
60.0
  1
65
 50
90.000003
 72
     4
 11
7260.69639813
 21
5756.06799881
 31
0.0
100
AcDbText
  0
LINE
  5
21C2
330
8C5
100
AcDbEntity
  8
YKK_B1
100
AcDbLine
 10
6617.49978324
 20
5655.39999967
 30
0.0
 11
6644.99978324
 21
5655.39999967
 31
0.0
  0
LINE
  5
21C3
330
8C5
100
AcDbEntity
  8
YKK_B1
100
AcDbLine
 10
6644.99978324
 20
5655.39999967
 30
0.0
 11
6644.99978324
 21
5664.89999967
 31
0.0
  0
LINE
  5
21C4
330
8C5
100
AcDbEntity
  8
YKK_B1
100
AcDbLine
 10
6644.99978324
 20
5664.89999967
 30
0.0
 11
6622.99978324
 21
5664.89999967
 31
0.0
  0
LINE
  5
21C5
330
8C5
100
AcDbEntity
  8
YKK_B1
100
AcDbLine
 10
6625.09978324
 20
5664.89999967
 30
0.0
 11
6625.09978324
 21
5659.79999967
 31
0.0
  0
LINE
  5
21C6
330
8C5
100
AcDbEntity
  8
YKK_B1
100
AcDbLine
 10
6619.11611945
 20
5659.79999967
 30
0.0
 11
6626.07106537
 21
5659.79999967
 31
0.0
  0
LINE
  5
21C7
330
8C5
100
AcDbEntity
  8
YKK_B1
100
AcDbLine
 10
6626.07106537
 20
5659.79999967
 30
0.0
 11
6633.69208822
 21
5655.39999967
 31
0.0
  0
LINE
  5
21C8
330
8C5
100
AcDbEntity
  8
YKK_B1
100
AcDbLine
 10
6882.49975915
 20
5655.39999967
 30
0.0
 11
6854.99975915
 21
5655.39999967
 31
0.0
  0
LINE
  5
21C9
330
8C5
100
AcDbEntity
  8
YKK_B1
100
AcDbLine
 10
6854.99975915
 20
5655.39999967
 30
0.0
 11
6854.99975915
 21
5664.89999967
 31
0.0
  0
LINE
  5
21CA
330
8C5
100
AcDbEntity
  8
YKK_B1
100
AcDbLine
 10
6854.99975915
 20
5664.89999967
 30
0.0
 11
6876.99975915
 21
5664.89999967
 31
0.0
  0
LINE
  5
21CB
330
8C5
100
AcDbEntity
  8
YKK_B1
100
AcDbLine
 10
6874.89975915
 20
5664.89999967
 30
0.0
 11
6874.89975915
 21
5659.79999967
 31
0.0
  0
LINE
  5
21CC
330
8C5
100
AcDbEntity
  8
YKK_B1
100
AcDbLine
 10
6880.88342294
 20
5659.79999967
 30
0.0
 11
6873.92847703
 21
5659.79999967
 31
0.0
  0
LINE
  5
21CD
330
8C5
100
AcDbEntity
  8
YKK_B1
100
AcDbLine
 10
6873.92847703
 20
5659.79999967
 30
0.0
 11
6866.30745417
 21
5655.39999967
 31
0.0
  0
LINE
  5
21CE
330
8C5
100
AcDbEntity
  8
YKK_N1
  6
Continuous
100
AcDbLine
 10
2375.00024269
 20
5427.50271046
 30
0.0
 11
2375.00024269
 21
5102.50271046
 31
0.0
  0
LINE
  5
21CF
330
8C5
100
AcDbEntity
  8
YKK_N1
  6
Continuous
100
AcDbLine
 10
2395.00024269
 20
5427.50271046
 30
0.0
 11
2395.00024269
 21
5102.50271046
 31
0.0
  0
LINE
  5
21D0
330
8C5
100
AcDbEntity
  8
YKK_N1
  6
Continuous
100
AcDbLine
 10
2328.00024269
 20
5427.50271046
 30
0.0
 11
2328.00024269
 21
5302.50271046
 31
0.0
  0
LINE
  5
21D1
330
8C5
100
AcDbEntity
  8
YKK_N1
  6
Continuous
100
AcDbLine
 10
2125.00025269
 20
5427.50277046
 30
0.0
 11
2125.00025269
 21
5102.50277046
 31
0.0
  0
LINE
  5
21D2
330
8C5
100
AcDbEntity
  8
YKK_N1
  6
Continuous
100
AcDbLine
 10
2105.00025269
 20
5427.50277046
 30
0.0
 11
2105.00025269
 21
5102.50277046
 31
0.0
  0
LINE
  5
21D3
330
8C5
100
AcDbEntity
  8
YKK_N1
  6
Continuous
100
AcDbLine
 10
2172.00025269
 20
5427.50277046
 30
0.0
 11
2172.00025269
 21
5302.50277046
 31
0.0
  0
LINE
  5
21D4
330
8C5
100
AcDbEntity
  8
YKK_N1
  6
Continuous
100
AcDbLine
 10
2125.00025269
 20
5102.50277046
 30
0.0
 11
2211.60279269
 21
5152.50277046
 31
0.0
  0
LINE
  5
21D5
330
8C5
100
AcDbEntity
  8
YKK_N1
  6
Continuous
100
AcDbLine
 10
2125.00025269
 20
5102.50277046
 30
0.0
 11
2211.60279269
 21
5052.50275046
 31
0.0
  0
LINE
  5
21D6
330
8C5
100
AcDbEntity
  8
YKK_N1
  6
Continuous
100
AcDbLine
 10
2125.00025269
 20
5302.50277046
 30
0.0
 11
2172.00025269
 21
5302.50277046
 31
0.0
  0
LINE
  5
21D7
330
8C5
100
AcDbEntity
  8
YKK_N1
  6
Continuous
100
AcDbLine
 10
2125.00023269
 20
5102.50277046
 30
0.0
 11
2375.00024269
 21
5102.50271046
 31
0.0
  0
LINE
  5
21D8
330
8C5
100
AcDbEntity
  8
YKK_N1
  6
Continuous
100
AcDbLine
 10
2105.00023269
 20
5102.50277046
 30
0.0
 11
2125.00023269
 21
5102.50277046
 31
0.0
  0
CIRCLE
  5
21D9
330
8C5
100
AcDbEntity
  8
YKK_N1
  6
Continuous
100
AcDbCircle
 10
2105.00025269
 20
5102.50277046
 30
0.0
 40
5.0
  0
POINT
  5
21DA
330
8C5
100
AcDbEntity
  8
YKK_N1
  6
Continuous
100
AcDbPoint
 10
2125.00025269
 20
5102.50277046
 30
0.0
  0
TEXT
  5
21DB
330
8C5
100
AcDbEntity
  8
YKK_N1
  6
Continuous
100
AcDbText
 10
1988.52811685
 20
5114.50277046
 30
0.0
 40
60.0
  1
20
 72
     4
 11
2033.52811685
 21
5144.50277046
 31
0.0
100
AcDbText
  0
CIRCLE
  5
21DC
330
8C5
100
AcDbEntity
  8
YKK_N1
  6
Continuous
100
AcDbCircle
 10
2125.00025269
 20
5302.50277046
 30
0.0
 40
5.0
  0
TEXT
  5
21DD
330
8C5
100
AcDbEntity
  8
YKK_N1
  6
Continuous
100
AcDbText
 10
2108.4887072
 20
4983.60686597
 30
0.0
 40
60.0
  1
W=250
 72
     4
 11
2253.4887072
 21
5013.60686597
 31
0.0
100
AcDbText
  0
LINE
  5
21DE
330
8C5
100
AcDbEntity
  8
YKK_N1
  6
Continuous
100
AcDbLine
 10
2211.60279269
 20
5152.50277046
 30
0.0
 11
2211.60279269
 21
5052.50275046
 31
0.0
  0
CIRCLE
  5
21DF
330
8C5
100
AcDbEntity
  8
YKK_N1
  6
Continuous
100
AcDbCircle
 10
2172.00025269
 20
5302.50277046
 30
0.0
 40
5.0
  0
CIRCLE
  5
21E0
330
8C5
100
AcDbEntity
  8
YKK_N1
  6
Continuous
100
AcDbCircle
 10
2395.00024269
 20
5102.50271046
 30
0.0
 40
5.0
  0
POINT
  5
21E1
330
8C5
100
AcDbEntity
  8
YKK_N1
  6
Continuous
100
AcDbPoint
 10
2375.00024269
 20
5102.50271046
 30
0.0
  0
POINT
  5
21E2
330
8C5
100
AcDbEntity
  8
YKK_N1
  6
Continuous
100
AcDbPoint
 10
2375.00024269
 20
5102.50271046
 30
0.0
  0
LINE
  5
21E3
330
8C5
100
AcDbEntity
  8
YKK_N1
  6
Continuous
100
AcDbLine
 10
2375.00024269
 20
5102.50271046
 30
0.0
 11
2395.00024269
 21
5102.50271046
 31
0.0
  0
TEXT
  5
21E4
330
8C5
100
AcDbEntity
  8
YKK_N1
  6
Continuous
100
AcDbText
 10
2411.50948614
 20
5114.50271046
 30
0.0
 40
60.0
  1
20
 72
     4
 11
2456.50948614
 21
5144.50271046
 31
0.0
100
AcDbText
  0
CIRCLE
  5
21E5
330
8C5
100
AcDbEntity
  8
YKK_N1
  6
Continuous
100
AcDbCircle
 10
2375.00024269
 20
5302.50271046
 30
0.0
 40
5.0
  0
LINE
  5
21E6
330
8C5
100
AcDbEntity
  8
YKK_N1
  6
Continuous
100
AcDbLine
 10
2288.39764269
 20
5152.50271046
 30
0.0
 11
2288.39764269
 21
5052.50272046
 31
0.0
  0
CIRCLE
  5
21E7
330
8C5
100
AcDbEntity
  8
YKK_N1
  6
Continuous
100
AcDbCircle
 10
2328.00024269
 20
5302.50271046
 30
0.0
 40
5.0
  0
LINE
  5
21E8
330
8C5
100
AcDbEntity
  8
YKK_N1
  6
Continuous
100
AcDbLine
 10
2288.39764269
 20
5152.50271046
 30
0.0
 11
2375.00024269
 21
5102.50271046
 31
0.0
  0
LINE
  5
21E9
330
8C5
100
AcDbEntity
  8
YKK_N1
  6
Continuous
100
AcDbLine
 10
2288.39774269
 20
5052.50271046
 30
0.0
 11
2375.00024269
 21
5102.50271046
 31
0.0
  0
LINE
  5
21EA
330
8C5
100
AcDbEntity
  8
YKK_N1
  6
Continuous
100
AcDbLine
 10
2328.00024269
 20
5302.50271046
 30
0.0
 11
2375.00024269
 21
5302.50271046
 31
0.0
  0
LINE
  5
21EB
330
8C5
100
AcDbEntity
  8
YKK_B1
100
AcDbLine
 10
2124.99999634
 20
5665.5
 30
0.0
 11
2147.99999634
 21
5665.5
 31
0.0
  0
LINE
  5
21EC
330
8C5
100
AcDbEntity
  8
YKK_B1
100
AcDbLine
 10
2124.99999634
 20
5617.5
 30
0.0
 11
2171.99999634
 21
5617.5
 31
0.0
  0
LINE
  5
21ED
330
8C5
100
AcDbEntity
  8
YKK_B1
100
AcDbLine
 10
2161.74999634
 20
5627.5
 30
0.0
 11
2124.99999634
 21
5627.5
 31
0.0
  0
TEXT
  5
21EE
330
8C5
100
AcDbEntity
  8
YKK_N1
  6
Continuous
100
AcDbText
 10
2128.04438497
 20
5314.50277046
 30
0.0
 40
60.0
  1
47
 72
     4
 11
2178.04438497
 21
5344.50277046
 31
0.0
100
AcDbText
  0
LINE
  5
21EF
330
8C5
100
AcDbEntity
  8
YKK_B1
100
AcDbLine
 10
2124.99999634
 20
5635.99999636
 30
0.0
 11
2124.99999634
 21
5697.5
 31
0.0
  0
LINE
  5
21F0
330
8C5
100
AcDbEntity
  8
YKK_B1
100
AcDbLine
 10
2131.49999634
 20
5697.5
 30
0.0
 11
2133.17704528
 21
5665.5
 31
0.0
  0
LINE
  5
21F1
330
8C5
100
AcDbEntity
  8
YKK_B1
100
AcDbLine
 10
2133.19999634
 20
5627.5
 30
0.0
 11
2133.19999634
 21
5665.5
 31
0.0
  0
LINE
  5
21F2
330
8C5
100
AcDbEntity
  8
YKK_B1
100
AcDbLine
 10
2124.99999634
 20
5617.5
 30
0.0
 11
2124.99999634
 21
5627.5
 31
0.0
  0
LINE
  5
21F3
330
8C5
100
AcDbEntity
  8
YKK_B1
100
AcDbLine
 10
2128.99999634
 20
5602.5
 30
0.0
 11
2128.99999634
 21
5617.5
 31
0.0
  0
LINE
  5
21F4
330
8C5
100
AcDbEntity
  8
YKK_B1
100
AcDbLine
 10
2124.99999634
 20
5602.5
 30
0.0
 11
2128.99999634
 21
5602.5
 31
0.0
  0
LINE
  5
21F5
330
8C5
100
AcDbEntity
  8
YKK_B1
100
AcDbLine
 10
2104.99999747
 20
5635.99999636
 30
0.0
 11
2133.19999634
 21
5635.99999636
 31
0.0
  0
LINE
  5
21F6
330
8C5
100
AcDbEntity
  8
YKK_B1
100
AcDbLine
 10
2104.99999747
 20
5632.49999636
 30
0.0
 11
2104.99999747
 21
5635.99999636
 31
0.0
  0
LINE
  5
21F7
330
8C5
100
AcDbEntity
  8
YKK_B1
100
AcDbLine
 10
2124.99999634
 20
5697.5
 30
0.0
 11
2131.49999634
 21
5697.5
 31
0.0
  0
LINE
  5
21F8
330
8C5
100
AcDbEntity
  8
YKK_N1
  6
Continuous
100
AcDbLine
 10
2247.46867051
 20
5602.5
 30
0.0
 11
2272.46867051
 21
5602.5
 31
0.0
  0
LINE
  5
21F9
330
8C5
100
AcDbEntity
  8
YKK_N1
  6
Continuous
100
AcDbLine
 10
2247.46867051
 20
5617.5
 30
0.0
 11
2272.46867051
 21
5617.5
 31
0.0
  0
LINE
  5
21FA
330
8C5
100
AcDbEntity
  8
YKK_N1
  6
Continuous
100
AcDbLine
 10
2247.46867051
 20
5697.5
 30
0.0
 11
2272.46867051
 21
5697.5
 31
0.0
  0
LINE
  5
21FB
330
8C5
100
AcDbEntity
  8
YKK_B1
100
AcDbLine
 10
2358.49999634
 20
5697.5
 30
0.0
 11
2141.49999634
 21
5697.5
 31
0.0
  0
LINE
  5
21FC
330
8C5
100
AcDbEntity
  8
YKK_B1
100
AcDbLine
 10
2182.00000855
 20
5617.49998602
 30
0.0
 11
2317.99999634
 21
5617.5
 31
0.0
  0
LINE
  5
21FD
330
8C5
100
AcDbEntity
  8
YKK_B1
100
AcDbLine
 10
2154.99999634
 20
5630.5
 30
0.0
 11
2344.99999634
 21
5630.5
 31
0.0
  0
LINE
  5
21FE
330
8C5
100
AcDbEntity
  8
YKK_B1
100
AcDbLine
 10
2155.00002095
 20
5652.49999967
 30
0.0
 11
2345.00002095
 21
5652.49999967
 31
0.0
  0
TEXT
  5
21FF
330
8C5
100
AcDbEntity
  8
YKK_N1
  6
Continuous
100
AcDbText
 10
2288.2852273
 20
5504.25885189
 30
0.0
 40
60.0
  1
15
 50
90.000003
 72
     4
 11
2258.2852252
 21
5544.25885032
 31
0.0
100
AcDbText
  0
LINE
  5
2200
330
8C5
100
AcDbEntity
  8
YKK_B1
100
AcDbLine
 10
2169.99999634
 20
5617.5
 30
0.0
 11
2169.99999634
 21
5627.5
 31
0.0
  0
LINE
  5
2201
330
8C5
100
AcDbEntity
  8
YKK_B1
100
AcDbLine
 10
2169.99999634
 20
5627.5
 30
0.0
 11
2165.24999634
 21
5627.5
 31
0.0
  0
LINE
  5
2202
330
8C5
100
AcDbEntity
  8
YKK_B1
100
AcDbLine
 10
2139.49999634
 20
5665.5
 30
0.0
 11
2139.49999634
 21
5650.5
 31
0.0
  0
LINE
  5
2203
330
8C5
100
AcDbEntity
  8
YKK_B1
100
AcDbLine
 10
2156.49999634
 20
5627.5
 30
0.0
 11
2156.49999634
 21
5617.5
 31
0.0
  0
LINE
  5
2204
330
8C5
100
AcDbEntity
  8
YKK_B1
100
AcDbLine
 10
2139.49999634
 20
5650.5
 30
0.0
 11
2147.99999634
 21
5650.5
 31
0.0
  0
LINE
  5
2205
330
8C5
100
AcDbEntity
  8
YKK_B1
100
AcDbLine
 10
2147.99999634
 20
5627.5
 30
0.0
 11
2147.99999634
 21
5655.4
 31
0.0
  0
LINE
  5
2206
330
8C5
100
AcDbEntity
  8
YKK_B1
100
AcDbLine
 10
2147.99999634
 20
5665.5
 30
0.0
 11
2147.99999634
 21
5661.6
 31
0.0
  0
LINE
  5
2207
330
8C5
100
AcDbEntity
  8
YKK_B1
100
AcDbLine
 10
2374.99999634
 20
5635.99999636
 30
0.0
 11
2374.99999634
 21
5697.5
 31
0.0
  0
LINE
  5
2208
330
8C5
100
AcDbEntity
  8
YKK_B1
100
AcDbLine
 10
2368.49999634
 20
5697.5
 30
0.0
 11
2366.82294741
 21
5665.5
 31
0.0
  0
LINE
  5
2209
330
8C5
100
AcDbEntity
  8
YKK_B1
100
AcDbLine
 10
2360.49999634
 20
5650.5
 30
0.0
 11
2351.99999634
 21
5650.5
 31
0.0
  0
LINE
  5
220A
330
8C5
100
AcDbEntity
  8
YKK_B1
100
AcDbLine
 10
2338.24999634
 20
5627.5
 30
0.0
 11
2374.99999634
 21
5627.5
 31
0.0
  0
LINE
  5
220B
330
8C5
100
AcDbEntity
  8
YKK_B1
100
AcDbLine
 10
2374.99999634
 20
5665.5
 30
0.0
 11
2351.99999634
 21
5665.5
 31
0.0
  0
LINE
  5
220C
330
8C5
100
AcDbEntity
  8
YKK_B1
100
AcDbLine
 10
2343.49999634
 20
5627.5
 30
0.0
 11
2343.49999634
 21
5617.5
 31
0.0
  0
LINE
  5
220D
330
8C5
100
AcDbEntity
  8
YKK_B1
100
AcDbLine
 10
2351.99999634
 20
5627.5
 30
0.0
 11
2351.99999634
 21
5655.4
 31
0.0
  0
LINE
  5
220E
330
8C5
100
AcDbEntity
  8
YKK_B1
100
AcDbLine
 10
2351.99999634
 20
5665.5
 30
0.0
 11
2351.99999634
 21
5661.6
 31
0.0
  0
LINE
  5
220F
330
8C5
100
AcDbEntity
  8
YKK_B1
100
AcDbLine
 10
2394.99999522
 20
5632.49999636
 30
0.0
 11
2394.99999522
 21
5635.99999636
 31
0.0
  0
LINE
  5
2210
330
8C5
100
AcDbEntity
  8
YKK_B1
100
AcDbLine
 10
2360.49999634
 20
5665.5
 30
0.0
 11
2360.49999634
 21
5650.5
 31
0.0
  0
LINE
  5
2211
330
8C5
100
AcDbEntity
  8
YKK_B1
100
AcDbLine
 10
2366.79999634
 20
5627.5
 30
0.0
 11
2366.79999634
 21
5665.5
 31
0.0
  0
LINE
  5
2212
330
8C5
100
AcDbEntity
  8
YKK_B1
100
AcDbLine
 10
2374.99999634
 20
5617.5
 30
0.0
 11
2374.99999634
 21
5627.5
 31
0.0
  0
LINE
  5
2213
330
8C5
100
AcDbEntity
  8
YKK_B1
100
AcDbLine
 10
2374.99999634
 20
5602.5
 30
0.0
 11
2370.99999634
 21
5602.5
 31
0.0
  0
LINE
  5
2214
330
8C5
100
AcDbEntity
  8
YKK_B1
100
AcDbLine
 10
2370.99999634
 20
5602.5
 30
0.0
 11
2370.99999634
 21
5617.5
 31
0.0
  0
LINE
  5
2215
330
8C5
100
AcDbEntity
  8
YKK_B1
100
AcDbLine
 10
2394.99999522
 20
5635.99999636
 30
0.0
 11
2366.79999634
 21
5635.99999636
 31
0.0
  0
LINE
  5
2216
330
8C5
100
AcDbEntity
  8
YKK_B1
100
AcDbLine
 10
2374.99999634
 20
5697.5
 30
0.0
 11
2368.49999634
 21
5697.5
 31
0.0
  0
LINE
  5
2217
330
8C5
100
AcDbEntity
  8
YKK_N1
  6
Continuous
100
AcDbLine
 10
2272.46867051
 20
5697.5
 30
0.0
 11
2272.46867051
 21
5602.5
 31
0.0
  0
LINE
  5
2218
330
8C5
100
AcDbEntity
  8
YKK_B1
100
AcDbLine
 10
2329.99999634
 20
5617.5
 30
0.0
 11
2329.99999634
 21
5627.5
 31
0.0
  0
CIRCLE
  5
2219
330
8C5
100
AcDbEntity
  8
YKK_N1
  6
Continuous
100
AcDbCircle
 10
2272.46867051
 20
5602.5
 30
0.0
 40
5.0
  0
CIRCLE
  5
221A
330
8C5
100
AcDbEntity
  8
YKK_N1
  6
Continuous
100
AcDbCircle
 10
2272.46867051
 20
5617.5
 30
0.0
 40
5.0
  0
CIRCLE
  5
221B
330
8C5
100
AcDbEntity
  8
YKK_N1
  6
Continuous
100
AcDbCircle
 10
2272.46867051
 20
5697.5
 30
0.0
 40
5.0
  0
LINE
  5
221C
330
8C5
100
AcDbEntity
  8
YKK_B1
100
AcDbLine
 10
2374.99999634
 20
5617.5
 30
0.0
 11
2327.99999634
 21
5617.5
 31
0.0
  0
LINE
  5
221D
330
8C5
100
AcDbEntity
  8
YKK_B1
100
AcDbLine
 10
2329.99999634
 20
5627.5
 30
0.0
 11
2334.74999634
 21
5627.5
 31
0.0
  0
TEXT
  5
221E
330
8C5
100
AcDbEntity
  8
YKK_N1
  6
Continuous
100
AcDbText
 10
2271.36067767
 20
5314.50271046
 30
0.0
 40
60.0
  1
47
 72
     4
 11
2321.36067767
 21
5344.50271046
 31
0.0
100
AcDbText
  0
TEXT
  5
221F
330
8C5
100
AcDbEntity
  8
YKK_N1
  6
Continuous
100
AcDbText
 10
2288.28522756
 20
5711.06801436
 30
0.0
 40
60.0
  1
80
 50
90.000003
 72
     4
 11
2258.2852252
 21
5756.06801279
 31
0.0
100
AcDbText
  0
LINE
  5
2220
330
8C5
100
AcDbEntity
  8
YKK_N1
  6
Continuous
100
AcDbLine
 10
2777.69663582
 20
5697.49998602
 30
0.0
 11
2777.69663582
 21
5602.49998602
 31
0.0
  0
TEXT
  5
2221
330
8C5
100
AcDbEntity
  8
YKK_N1
  6
Continuous
100
AcDbText
 10
2765.69663818
 20
5499.25883791
 30
0.0
 40
60.0
  1
30
 50
90.000003
 72
     4
 11
2735.69663582
 21
5544.25883634
 31
0.0
100
AcDbText
  0
LINE
  5
2222
330
8C5
100
AcDbEntity
  8
YKK_N1
  6
Continuous
100
AcDbLine
 10
2652.69663582
 20
5602.49998602
 30
0.0
 11
2777.69663582
 21
5602.49998602
 31
0.0
  0
CIRCLE
  5
2223
330
8C5
100
AcDbEntity
  8
YKK_N1
  6
Continuous
100
AcDbCircle
 10
2777.69663582
 20
5602.49998602
 30
0.0
 40
5.0
  0
LINE
  5
2224
330
8C5
100
AcDbEntity
  8
YKK_N1
  6
Continuous
100
AcDbLine
 10
2652.69663582
 20
5632.49998602
 30
0.0
 11
2777.69663582
 21
5632.49998602
 31
0.0
  0
CIRCLE
  5
2225
330
8C5
100
AcDbEntity
  8
YKK_N1
  6
Continuous
100
AcDbCircle
 10
2777.69663582
 20
5632.49998602
 30
0.0
 40
5.0
  0
LINE
  5
2226
330
8C5
100
AcDbEntity
  8
YKK_N1
  6
Continuous
100
AcDbLine
 10
2652.69663582
 20
5697.49998602
 30
0.0
 11
2777.69663582
 21
5697.49998602
 31
0.0
  0
CIRCLE
  5
2227
330
8C5
100
AcDbEntity
  8
YKK_N1
  6
Continuous
100
AcDbCircle
 10
2777.69663582
 20
5697.49998602
 30
0.0
 40
5.0
  0
TEXT
  5
2228
330
8C5
100
AcDbEntity
  8
YKK_N1
  6
Continuous
100
AcDbText
 10
2765.69663844
 20
5706.06800038
 30
0.0
 40
60.0
  1
65
 50
90.000003
 72
     4
 11
2735.69663582
 21
5756.06799881
 31
0.0
100
AcDbText
  0
LINE
  5
2229
330
8C5
100
AcDbEntity
  8
YKK_B1
100
AcDbLine
 10
2142.50002093
 20
5655.39999967
 30
0.0
 11
2170.00002093
 21
5655.39999967
 31
0.0
  0
LINE
  5
222A
330
8C5
100
AcDbEntity
  8
YKK_B1
100
AcDbLine
 10
2170.00002093
 20
5655.39999967
 30
0.0
 11
2170.00002093
 21
5664.89999967
 31
0.0
  0
LINE
  5
222B
330
8C5
100
AcDbEntity
  8
YKK_B1
100
AcDbLine
 10
2170.00002093
 20
5664.89999967
 30
0.0
 11
2148.00002093
 21
5664.89999967
 31
0.0
  0
LINE
  5
222C
330
8C5
100
AcDbEntity
  8
YKK_B1
100
AcDbLine
 10
2150.10002093
 20
5664.89999967
 30
0.0
 11
2150.10002093
 21
5659.79999967
 31
0.0
  0
LINE
  5
222D
330
8C5
100
AcDbEntity
  8
YKK_B1
100
AcDbLine
 10
2144.11635714
 20
5659.79999967
 30
0.0
 11
2151.07130306
 21
5659.79999967
 31
0.0
  0
LINE
  5
222E
330
8C5
100
AcDbEntity
  8
YKK_B1
100
AcDbLine
 10
2151.07130306
 20
5659.79999967
 30
0.0
 11
2158.69232591
 21
5655.39999967
 31
0.0
  0
LINE
  5
222F
330
8C5
100
AcDbEntity
  8
YKK_B1
100
AcDbLine
 10
2357.49999684
 20
5655.39999967
 30
0.0
 11
2329.99999684
 21
5655.39999967
 31
0.0
  0
LINE
  5
2230
330
8C5
100
AcDbEntity
  8
YKK_B1
100
AcDbLine
 10
2329.99999684
 20
5655.39999967
 30
0.0
 11
2329.99999684
 21
5664.89999967
 31
0.0
  0
LINE
  5
2231
330
8C5
100
AcDbEntity
  8
YKK_B1
100
AcDbLine
 10
2329.99999684
 20
5664.89999967
 30
0.0
 11
2351.99999684
 21
5664.89999967
 31
0.0
  0
LINE
  5
2232
330
8C5
100
AcDbEntity
  8
YKK_B1
100
AcDbLine
 10
2349.89999684
 20
5664.89999967
 30
0.0
 11
2349.89999684
 21
5659.79999967
 31
0.0
  0
LINE
  5
2233
330
8C5
100
AcDbEntity
  8
YKK_B1
100
AcDbLine
 10
2355.88366063
 20
5659.79999967
 30
0.0
 11
2348.92871472
 21
5659.79999967
 31
0.0
  0
LINE
  5
2234
330
8C5
100
AcDbEntity
  8
YKK_B1
100
AcDbLine
 10
2348.92871472
 20
5659.79999967
 30
0.0
 11
2341.30769186
 21
5655.39999967
 31
0.0
  0
LINE
  5
39DD
330
8C5
100
AcDbEntity
  8
YKK_A1
100
AcDbLine
 10
11069.99952283
 20
1680.00250312
 30
0.0
 11
11430.00251089
 21
1680.00250312
 31
0.0
  0
LINE
  5
39DE
330
8C5
100
AcDbEntity
  8
YKK_A1
100
AcDbLine
 10
11097.00000251
 20
1652.9999955
 30
0.0
 11
11403.00000313
 21
1652.9999955
 31
0.0
  0
LINE
  5
39DF
330
8C5
100
AcDbEntity
  8
YKK_A1
100
AcDbLine
 10
11403.00000313
 20
1346.9999948
 30
0.0
 11
11097.00000251
 21
1346.9999948
 31
0.0
  0
LINE
  5
39E0
330
8C5
100
AcDbEntity
  8
YKK_A1
100
AcDbLine
 10
11430.00251089
 20
1319.99614715
 30
0.0
 11
11069.99952283
 21
1319.99614715
 31
0.0
  0
LINE
  5
39E1
330
8C5
100
AcDbEntity
  8
YKK_A1
100
AcDbLine
 10
11430.00251089
 20
1680.00250312
 30
0.0
 11
11430.00251089
 21
1319.99614715
 31
0.0
  0
LINE
  5
39E2
330
8C5
100
AcDbEntity
  8
YKK_A1
100
AcDbLine
 10
11403.00000313
 20
1652.9999955
 30
0.0
 11
11403.00000313
 21
1346.9999948
 31
0.0
  0
LINE
  5
39E3
330
8C5
100
AcDbEntity
  8
YKK_A1
100
AcDbLine
 10
11097.00000251
 20
1652.9999955
 30
0.0
 11
11097.00000251
 21
1346.9999948
 31
0.0
  0
LINE
  5
39E4
330
8C5
100
AcDbEntity
  8
YKK_A1
100
AcDbLine
 10
11069.99952283
 20
1680.00250312
 30
0.0
 11
11069.99952283
 21
1319.99614715
 31
0.0
  0
TEXT
  5
39E5
330
8C5
100
AcDbEntity
  8
YKK_A1
100
AcDbText
 10
11359.98293761
 20
1359.98063992
 30
0.0
 40
50.0
  1
F
100
AcDbText
  0
LINE
  5
39E6
330
8C5
100
AcDbEntity
  8
YKK_N1
  6
Continuous
100
AcDbLine
 10
11630.00251089
 20
1300.000005
 30
0.0
 11
11580.00251089
 21
1386.602545
 31
0.0
  0
TEXT
  5
39E7
330
8C5
100
AcDbEntity
  8
YKK_N1
  6
Continuous
100
AcDbText
 10
11618.73027852
 20
1369.16922839
 30
0.0
 40
60.0
  1
H=400
 50
90.000003
 72
     4
 11
11588.73027171
 21
1499.16922682
 31
0.0
100
AcDbText
  0
LINE
  5
39E8
330
8C5
100
AcDbEntity
  8
YKK_N1
  6
Continuous
100
AcDbLine
 10
11505.00251089
 20
1300.000005
 30
0.0
 11
11630.00251089
 21
1300.000005
 31
0.0
  0
LINE
  5
39E9
330
8C5
100
AcDbEntity
  8
YKK_N1
  6
Continuous
100
AcDbLine
 10
11580.00251089
 20
1613.397395
 30
0.0
 11
11680.00251089
 21
1613.397395
 31
0.0
  0
LINE
  5
39EA
330
8C5
100
AcDbEntity
  8
YKK_N1
  6
Continuous
100
AcDbLine
 10
11680.00251089
 20
1386.602545
 30
0.0
 11
11580.00251089
 21
1386.602545
 31
0.0
  0
LINE
  5
39EB
330
8C5
100
AcDbEntity
  8
YKK_N1
  6
Continuous
100
AcDbLine
 10
11580.00251089
 20
1613.397395
 30
0.0
 11
11630.00251089
 21
1699.999995
 31
0.0
  0
LINE
  5
39EC
330
8C5
100
AcDbEntity
  8
YKK_N1
  6
Continuous
100
AcDbLine
 10
11505.00251089
 20
1699.999995
 30
0.0
 11
11630.00251089
 21
1699.999995
 31
0.0
  0
LINE
  5
39ED
330
8C5
100
AcDbEntity
  8
YKK_N1
  6
Continuous
100
AcDbLine
 10
11050.000015
 20
1119.99614715
 30
0.0
 11
11450.000055
 21
1119.99614715
 31
0.0
  0
LINE
  5
39EE
330
8C5
100
AcDbEntity
  8
YKK_N1
  6
Continuous
100
AcDbLine
 10
11050.000015
 20
1119.99614715
 30
0.0
 11
11136.602515
 21
1069.99614715
 31
0.0
  0
LINE
  5
39EF
330
8C5
100
AcDbEntity
  8
YKK_N1
  6
Continuous
100
AcDbLine
 10
11136.602615
 20
1169.99620715
 30
0.0
 11
11050.000015
 21
1119.99614715
 31
0.0
  0
LINE
  5
39F0
330
8C5
100
AcDbEntity
  8
YKK_N1
  6
Continuous
100
AcDbLine
 10
11050.000015
 20
1244.99614715
 30
0.0
 11
11050.000015
 21
1119.99614715
 31
0.0
  0
TEXT
  5
39F1
330
8C5
100
AcDbEntity
  8
YKK_N1
  6
Continuous
100
AcDbText
 10
11119.01046228
 20
1123.54464025
 30
0.0
 40
60.0
  1
W=400
 72
     4
 11
11259.01046228
 21
1153.54464025
 31
0.0
100
AcDbText
  0
LINE
  5
39F2
330
8C5
100
AcDbEntity
  8
YKK_N1
  6
Continuous
100
AcDbLine
 10
11136.602615
 20
1169.99620715
 30
0.0
 11
11136.602615
 21
1069.99620715
 31
0.0
  0
LINE
  5
39F3
330
8C5
100
AcDbEntity
  8
YKK_IN
  6
Continuous
100
AcDbLine
 10
11285.35534642
 20
1264.64849685
 30
0.0
 11
11214.64468358
 21
1335.35919021
 31
0.0
  0
LINE
  5
39F4
330
8C5
100
AcDbEntity
  8
YKK_IN
  6
Continuous
100
AcDbLine
 10
11285.35534642
 20
1335.35919021
 30
0.0
 11
11214.64468358
 21
1264.64849685
 31
0.0
  0
CIRCLE
  5
39F5
330
8C5
100
AcDbEntity
  8
YKK_IN
  6
Continuous
100
AcDbCircle
 10
11250.00003026
 20
1300.00384353
 30
0.0
 40
25.0
  0
LINE
  5
39F6
330
8C5
100
AcDbEntity
  8
YKK_N1
  6
Continuous
100
AcDbLine
 10
11450.000055
 20
1119.99614715
 30
0.0
 11
11363.397525
 21
1169.99614715
 31
0.0
  0
LINE
  5
39F7
330
8C5
100
AcDbEntity
  8
YKK_N1
  6
Continuous
100
AcDbLine
 10
11450.000055
 20
1119.99614715
 30
0.0
 11
11363.397495
 21
1069.99612715
 31
0.0
  0
LINE
  5
39F8
330
8C5
100
AcDbEntity
  8
YKK_N1
  6
Continuous
100
AcDbLine
 10
11363.397495
 20
1169.99612715
 30
0.0
 11
11363.397495
 21
1069.99612715
 31
0.0
  0
LINE
  5
39F9
330
8C5
100
AcDbEntity
  8
YKK_N1
  6
Continuous
100
AcDbLine
 10
11450.000055
 20
1244.99614715
 30
0.0
 11
11450.000055
 21
1119.99614715
 31
0.0
  0
LINE
  5
39FA
330
8C5
100
AcDbEntity
  8
YKK_N1
  6
Continuous
100
AcDbLine
 10
11630.00251089
 20
1300.000005
 30
0.0
 11
11630.00251089
 21
1699.999995
 31
0.0
  0
LINE
  5
39FB
330
8C5
100
AcDbEntity
  8
YKK_N1
  6
Continuous
100
AcDbLine
 10
11680.00251089
 20
1386.602535
 30
0.0
 11
11630.00251089
 21
1300.000005
 31
0.0
  0
LINE
  5
39FC
330
8C5
100
AcDbEntity
  8
YKK_N1
  6
Continuous
100
AcDbLine
 10
11630.00251089
 20
1699.999995
 30
0.0
 11
11680.00251089
 21
1613.397595
 31
0.0
  0
TEXT
  5
3A04
330
8C5
100
AcDbEntity
  8
0
100
AcDbText
 10
9100.0
 20
3137.5
 30
0.0
 40
175.0
  1
W=400 H=400
100
AcDbText
  0
TEXT
  5
3A05
330
8C5
100
AcDbEntity
  8
0
100
AcDbText
 10
9100.0
 20
3587.5
 30
0.0
 40
175.0
  1
PXF-036033-V(-A)-S
100
AcDbText
  0
TEXT
  5
3A06
330
8C5
100
AcDbEntity
  8
0
 62
     6
100
AcDbText
 10
12440.7341936
 20
3119.24295549
 30
0.0
 40
200.0
  1
内観姿図
 72
     2
 11
13334.06752693
 21
3119.24295549
 31
0.0
100
AcDbText
  0
ENDSEC
  0
SECTION
  2
OBJECTS
  0
DICTIONARY
  5
862
330
0
100
AcDbDictionary
281
     1
  3
ACAD_CIP_PREVIOUS_PRODUCT_INFO
350
92B
  3
ACAD_COLOR
350
8B8
  3
ACAD_DETAILVIEWSTYLE
350
8BF
  3
ACAD_GROUP
350
863
  3
ACAD_LAYOUT
350
8B7
  3
ACAD_MATERIAL
350
866
  3
ACAD_MLEADERSTYLE
350
8BB
  3
ACAD_MLINESTYLE
350
8B4
  3
ACAD_PLOTSETTINGS
350
8B6
  3
ACAD_PLOTSTYLENAME
350
864
  3
ACAD_SCALELIST
350
898
  3
ACAD_SECTIONVIEWSTYLE
350
8BD
  3
ACAD_TABLESTYLE
350
8B9
  3
ACAD_VISUALSTYLE
350
87F
  3
ACDB_RECOMPOSE_DATA
350
3AB9
  3
AcDbVariableDictionary
350
91B
  0
DICTIONARY
  5
97E
330
85E
100
AcDbDictionary
280
     1
281
     1
  0
DICTIONARY
  5
96E
330
858
100
AcDbDictionary
280
     1
281
     1
  3
ACAD_LAYERSTATES
360
96F
  0
XRECORD
  5
92B
102
{ACAD_REACTORS
330
862
102
}
330
862
100
AcDbXrecord
280
     1
300
ACD
300
2014
300
86063ACD_2014_0F
  0
DICTIONARY
  5
8B8
102
{ACAD_REACTORS
330
862
102
}
330
862
100
AcDbDictionary
281
     1
  0
DICTIONARY
  5
8BF
102
{ACAD_REACTORS
330
862
102
}
330
862
100
AcDbDictionary
281
     1
  3
Imperial24
350
8C0
  3
Metric50
350
9BE
  0
DICTIONARY
  5
863
102
{ACAD_REACTORS
330
862
102
}
330
862
100
AcDbDictionary
281
     1
  0
DICTIONARY
  5
8B7
102
{ACAD_REACTORS
330
862
102
}
330
862
100
AcDbDictionary
281
     1
  3
Model
350
8C8
  3
レイアウト1
350
8C4
  0
DICTIONARY
  5
866
102
{ACAD_REACTORS
330
862
102
}
330
862
100
AcDbDictionary
281
     1
  3
ByBlock
350
86F
  3
ByLayer
350
867
  3
Global
350
877
  0
DICTIONARY
  5
8BB
102
{ACAD_REACTORS
330
862
102
}
330
862
100
AcDbDictionary
281
     1
  3
Standard
350
8BC
  0
DICTIONARY
  5
8B4
102
{ACAD_REACTORS
330
862
102
}
330
862
100
AcDbDictionary
281
     1
  3
Standard
350
8B5
  0
DICTIONARY
  5
8B6
102
{ACAD_REACTORS
330
862
102
}
330
862
100
AcDbDictionary
281
     1
  0
ACDBDICTIONARYWDFLT
  5
864
102
{ACAD_REACTORS
330
862
102
}
330
862
100
AcDbDictionary
281
     1
  3
Normal
350
865
100
AcDbDictionaryWithDefault
340
865
  0
DICTIONARY
  5
898
102
{ACAD_REACTORS
330
862
102
}
330
862
100
AcDbDictionary
281
     1
  3
A0
350
899
  3
A1
350
89A
  3
A2
350
89B
  3
A3
350
89C
  3
A4
350
89D
  3
A5
350
89E
  3
A6
350
89F
  3
A7
350
8A0
  3
A8
350
8A1
  3
A9
350
8A2
  3
B0
350
8A3
  3
B1
350
8A4
  3
B2
350
8A5
  3
B3
350
8A6
  3
B4
350
8A7
  3
B5
350
8A8
  3
B6
350
8A9
  0
DICTIONARY
  5
8BD
102
{ACAD_REACTORS
330
862
102
}
330
862
100
AcDbDictionary
281
     1
  3
Imperial24
350
8BE
  3
Metric50
350
9BD
  0
DICTIONARY
  5
8B9
102
{ACAD_REACTORS
330
862
102
}
330
862
100
AcDbDictionary
281
     1
  3
Standard
350
8BA
  0
DICTIONARY
  5
87F
102
{ACAD_REACTORS
330
862
102
}
330
862
100
AcDbDictionary
281
     1
  3
2dWireframe
350
885
  3
Basic
350
884
  3
Brighten
350
88B
  3
ColorChange
350
88F
  3
Conceptual
350
888
  3
Dim
350
88A
  3
EdgeColorOff
350
897
  3
Facepattern
350
88E
  3
Flat
350
880
  3
FlatWithEdges
350
881
  3
Gouraud
350
882
  3
GouraudWithEdges
350
883
  3
Hidden
350
887
  3
JitterOff
350
895
  3
Linepattern
350
88D
  3
OverhangOff
350
896
  3
Realistic
350
889
  3
Shaded
350
894
  3
Shaded with edges
350
893
  3
Shades of Gray
350
890
  3
Sketchy
350
891
  3
Thicken
350
88C
  3
Wireframe
350
886
  3
X-Ray
350
892
  0
XRECORD
  5
3AB9
102
{ACAD_REACTORS
330
862
102
}
330
862
100
AcDbXrecord
280
     1
 90
        1
330
8BA
  0
DICTIONARY
  5
91B
102
{ACAD_REACTORS
330
862
102
}
330
862
100
AcDbDictionary
281
     1
  3
CANNOSCALE
350
921
  3
CMLEADERSTYLE
350
91D
  3
CTABLESTYLE
350
91C
  3
CVIEWDETAILSTYLE
350
91E
  3
CVIEWSECTIONSTYLE
350
91F
  3
LAYEREVAL
350
923
  3
LAYERNOTIFY
350
924
  3
LIGHTINGUNITS
350
922
  3
MSLTSCALE
350
920
  3
XCLIPFRAME
350
3AB7
  0
DICTIONARY
  5
96F
102
{ACAD_REACTORS
330
96E
102
}
330
96E
100
AcDbDictionary
281
     1
  0
ACDBDETAILVIEWSTYLE
  5
8C0
102
{ACAD_XDICTIONARY
360
3AF2
102
}
102
{ACAD_REACTORS
330
8BF
102
}
330
8BF
100
AcDbModelDocViewStyle
 70
     0
  3
Imperial24
290
     0
100
AcDbDetailViewStyle
 70
     0
 71
     0
 90
        3
 71
     1
340
8AB
 62
   256
 40
0.24
340
0
 62
   256
 40
0.24
300

 40
0.36
280
     3
 71
     2
340
8B2
 90
       25
 62
   256
 71
     3
340
8AB
 62
   256
 40
0.24
 90
        1
 40
0.75
 90
        1
300
%<\AcVar ViewType \f "%tc1">% %<\AcVar ViewDetailId>%\PSCALE %<\AcVar ViewScale \f "%sn">%
 71
     4
340
8B2
 90
       25
 62
   256
340
8B2
 90
       25
 62
   256
280
     0
  0
ACDBDETAILVIEWSTYLE
  5
9BE
102
{ACAD_XDICTIONARY
360
3AF6
102
}
102
{ACAD_REACTORS
330
8BF
102
}
330
8BF
100
AcDbModelDocViewStyle
 70
     0
  3
Metric50
290
     0
100
AcDbDetailViewStyle
 70
     0
 71
     0
 90
        3
 71
     1
340
8AB
 62
   256
 40
5.0
340
0
 62
   256
 40
5.0
300

 40
0.0
280
     1
 71
     2
340
8B2
 90
       25
 62
   256
 71
     3
340
8AB
 62
   256
 40
5.0
 90
        0
 40
15.0
 90
        1
300
%<\AcVar ViewDetailId>% (%<\AcVar ViewScale \f "%sn">%)
 71
     4
340
8B2
 90
       25
 62
   256
340
8B2
 90
       25
 62
   256
280
     0
  0
LAYOUT
  5
8C8
102
{ACAD_XDICTIONARY
360
9BA
102
}
102
{ACAD_REACTORS
330
8B7
102
}
330
8B7
100
AcDbPlotSettings
  1

  2
C:\ACAD-I\support\plotters\Default Windows System Printer.pc3
  4
A4
  6

 40
4.90008307
 41
4.90005732
 42
4.90008545
 43
4.90008545
 44
210.01567078
 45
297.01065063
 46
0.0
 47
0.0
 48
0.0
 49
0.0
140
0.0
141
0.0
142
1.0
143
3425.282771
 70
 11952
 72
     0
 73
     1
 74
     0
  7
monochrome.ctb
 75
     0
147
0.00029195
 76
     0
 77
     2
 78
   300
148
101925.32069779
149
2501.52388243
100
AcDbLayout
  1
Model
 70
     1
 71
     0
 10
0.0
 20
0.0
 11
12.0
 21
9.0
 12
0.0
 22
0.0
 32
0.0
 14
0.0
 24
0.0
 34
0.0
 15
0.0
 25
0.0
 35
0.0
146
0.0
 13
0.0
 23
0.0
 33
0.0
 16
1.0
 26
0.0
 36
0.0
 17
0.0
 27
1.0
 37
0.0
 76
     0
330
8C5
331
8C9
1001
ACAD_PSEXT
1000
C:\ACAD-I\support\plotters\Default Windows System Printer.pc3
1000
FX ApeosPort-IV C4475
1000
IP_10.230.204.203
1000

1070
     0
  0
LAYOUT
  5
8C4
102
{ACAD_REACTORS
330
8B7
102
}
330
8B7
100
AcDbPlotSettings
  1

  2
C:\ACAD-I\support\plotters\Default Windows System Printer.pc3
  4
A4
  6

 40
4.90008307
 41
4.90005732
 42
4.90008545
 43
4.90008545
 44
210.01567078
 45
297.01065063
 46
0.0
 47
0.0
 48
0.0
 49
0.0
140
0.0
141
0.0
142
1.0
143
1.0
 70
 15024
 72
     0
 73
     1
 74
     5
  7
monochrome.ctb
 75
    16
147
1.0
 76
     0
 77
     2
 78
   300
148
0.0
149
0.0
100
AcDbLayout
  1
レイアウト1
 70
     0
 71
     1
 10
0.0
 20
0.0
 11
12.0
 21
9.0
 12
0.0
 22
0.0
 32
0.0
 14
1.00000000E+20
 24
1.00000000E+20
 34
1.00000000E+20
 15
-1.00000000E+20
 25
-1.00000000E+20
 35
-1.00000000E+20
146
0.0
 13
0.0
 23
0.0
 33
0.0
 16
1.0
 26
0.0
 36
0.0
 17
0.0
 27
1.0
 37
0.0
 76
     0
330
8C1
1001
ACAD_PSEXT
1000
C:\ACAD-I\support\plotters\Default Windows System Printer.pc3
1000
FX ApeosPort-IV C4475
1000
IP_10.230.204.203
1000

1070
     0
  0
MATERIAL
  5
86F
102
{ACAD_XDICTIONARY
360
870
102
}
102
{ACAD_REACTORS
330
866
102
}
330
866
100
AcDbMaterial
  1
ByBlock
 72
     0
 43
0.02083333
 43
0.0
 43
0.0
 43
0.0
 43
0.0
 43
0.02083333
 43
0.0
 43
0.0
 43
0.0
 43
0.0
 43
1.0
 43
0.0
 43
0.0
 43
0.0
 43
0.0
 43
1.0
 77
     0
 47
0.02083333
 47
0.0
 47
0.0
 47
0.0
 47
0.0
 47
0.02083333
 47
0.0
 47
0.0
 47
0.0
 47
0.0
 47
1.0
 47
0.0
 47
0.0
 47
0.0
 47
0.0
 47
1.0
171
     0
 49
0.02083333
 49
0.0
 49
0.0
 49
0.0
 49
0.0
 49
0.02083333
 49
0.0
 49
0.0
 49
0.0
 49
0.0
 49
1.0
 49
0.0
 49
0.0
 49
0.0
 49
0.0
 49
1.0
175
     0
142
0.02083333
142
0.0
142
0.0
142
0.0
142
0.0
142
0.02083333
142
0.0
142
0.0
142
0.0
142
0.0
142
1.0
142
0.0
142
0.0
142
0.0
142
0.0
142
1.0
179
     0
144
0.02083333
144
0.0
144
0.0
144
0.0
144
0.0
144
0.02083333
144
0.0
144
0.0
144
0.0
144
0.0
144
1.0
144
0.0
144
0.0
144
0.0
144
0.0
144
1.0
147
0.02083333
147
0.0
147
0.0
147
0.0
147
0.0
147
0.02083333
147
0.0
147
0.0
147
0.0
147
0.0
147
1.0
147
0.0
147
0.0
147
0.0
147
0.0
147
1.0
  0
MATERIAL
  5
867
102
{ACAD_XDICTIONARY
360
868
102
}
102
{ACAD_REACTORS
330
866
102
}
330
866
100
AcDbMaterial
  1
ByLayer
 72
     0
 43
0.02083333
 43
0.0
 43
0.0
 43
0.0
 43
0.0
 43
0.02083333
 43
0.0
 43
0.0
 43
0.0
 43
0.0
 43
1.0
 43
0.0
 43
0.0
 43
0.0
 43
0.0
 43
1.0
 77
     0
 47
0.02083333
 47
0.0
 47
0.0
 47
0.0
 47
0.0
 47
0.02083333
 47
0.0
 47
0.0
 47
0.0
 47
0.0
 47
1.0
 47
0.0
 47
0.0
 47
0.0
 47
0.0
 47
1.0
171
     0
 49
0.02083333
 49
0.0
 49
0.0
 49
0.0
 49
0.0
 49
0.02083333
 49
0.0
 49
0.0
 49
0.0
 49
0.0
 49
1.0
 49
0.0
 49
0.0
 49
0.0
 49
0.0
 49
1.0
175
     0
142
0.02083333
142
0.0
142
0.0
142
0.0
142
0.0
142
0.02083333
142
0.0
142
0.0
142
0.0
142
0.0
142
1.0
142
0.0
142
0.0
142
0.0
142
0.0
142
1.0
179
     0
144
0.02083333
144
0.0
144
0.0
144
0.0
144
0.0
144
0.02083333
144
0.0
144
0.0
144
0.0
144
0.0
144
1.0
144
0.0
144
0.0
144
0.0
144
0.0
144
1.0
147
0.02083333
147
0.0
147
0.0
147
0.0
147
0.0
147
0.02083333
147
0.0
147
0.0
147
0.0
147
0.0
147
1.0
147
0.0
147
0.0
147
0.0
147
0.0
147
1.0
  0
MATERIAL
  5
877
102
{ACAD_XDICTIONARY
360
878
102
}
102
{ACAD_REACTORS
330
866
102
}
330
866
100
AcDbMaterial
  1
Global
 72
     0
 43
0.02083333
 43
0.0
 43
0.0
 43
0.0
 43
0.0
 43
0.02083333
 43
0.0
 43
0.0
 43
0.0
 43
0.0
 43
1.0
 43
0.0
 43
0.0
 43
0.0
 43
0.0
 43
1.0
 77
     0
 47
0.02083333
 47
0.0
 47
0.0
 47
0.0
 47
0.0
 47
0.02083333
 47
0.0
 47
0.0
 47
0.0
 47
0.0
 47
1.0
 47
0.0
 47
0.0
 47
0.0
 47
0.0
 47
1.0
171
     0
 49
0.02083333
 49
0.0
 49
0.0
 49
0.0
 49
0.0
 49
0.02083333
 49
0.0
 49
0.0
 49
0.0
 49
0.0
 49
1.0
 49
0.0
 49
0.0
 49
0.0
 49
0.0
 49
1.0
175
     0
142
0.02083333
142
0.0
142
0.0
142
0.0
142
0.0
142
0.02083333
142
0.0
142
0.0
142
0.0
142
0.0
142
1.0
142
0.0
142
0.0
142
0.0
142
0.0
142
1.0
179
     0
144
0.02083333
144
0.0
144
0.0
144
0.0
144
0.0
144
0.02083333
144
0.0
144
0.0
144
0.0
144
0.0
144
1.0
144
0.0
144
0.0
144
0.0
144
0.0
144
1.0
147
0.02083333
147
0.0
147
0.0
147
0.0
147
0.0
147
0.02083333
147
0.0
147
0.0
147
0.0
147
0.0
147
1.0
147
0.0
147
0.0
147
0.0
147
0.0
147
1.0
  0
MLEADERSTYLE
  5
8BC
102
{ACAD_XDICTIONARY
360
3AEE
102
}
102
{ACAD_REACTORS
330
8BB
102
}
330
8BB
100
AcDbMLeaderStyle
170
     2
171
     1
172
     0
 90
        2
 40
0.0
 41
0.0
173
     1
 91
-1056964608
340
8B0
 92
       -2
290
     1
 42
0.09
291
     1
 43
0.36
  3
Standard
 44
0.18
300

342
8AB
174
     1
178
     6
175
     1
176
     0
 93
-1056964608
 45
0.18
292
     0
297
     0
 46
0.18
 94
-1056964608
 47
1.0
 49
1.0
140
1.0
293
     1
141
0.0
294
     1
177
     0
142
1.0
295
     0
296
     0
143
0.125
1001
ACAD_MLEADERVER
1070
     2
  0
MLINESTYLE
  5
8B5
102
{ACAD_REACTORS
330
8B4
102
}
330
8B4
100
AcDbMlineStyle
  2
STANDARD
 70
     0
  3

 62
   256
 51
90.0
 52
90.0
 71
     2
 49
0.5
 62
   256
  6
BYLAYER
 49
-0.5
 62
   256
  6
BYLAYER
  0
ACDBPLACEHOLDER
  5
865
102
{ACAD_REACTORS
330
864
102
}
330
864
  0
SCALE
  5
899
102
{ACAD_REACTORS
330
898
102
}
330
898
100
AcDbScale
 70
     0
300
1:1
140
1.0
141
1.0
290
     1
  0
SCALE
  5
89A
102
{ACAD_REACTORS
330
898
102
}
330
898
100
AcDbScale
 70
     0
300
1/128" = 1'-0"
140
0.0078125
141
12.0
290
     0
  0
SCALE
  5
89B
102
{ACAD_REACTORS
330
898
102
}
330
898
100
AcDbScale
 70
     0
300
1/64" = 1'-0"
140
0.015625
141
12.0
290
     0
  0
SCALE
  5
89C
102
{ACAD_REACTORS
330
898
102
}
330
898
100
AcDbScale
 70
     0
300
1/32" = 1'-0"
140
0.03125
141
12.0
290
     0
  0
SCALE
  5
89D
102
{ACAD_REACTORS
330
898
102
}
330
898
100
AcDbScale
 70
     0
300
1/16" = 1'-0"
140
0.0625
141
12.0
290
     0
  0
SCALE
  5
89E
102
{ACAD_REACTORS
330
898
102
}
330
898
100
AcDbScale
 70
     0
300
3/32" = 1'-0"
140
0.09375
141
12.0
290
     0
  0
SCALE
  5
89F
102
{ACAD_REACTORS
330
898
102
}
330
898
100
AcDbScale
 70
     0
300
1/8" = 1'-0"
140
0.125
141
12.0
290
     0
  0
SCALE
  5
8A0
102
{ACAD_REACTORS
330
898
102
}
330
898
100
AcDbScale
 70
     0
300
3/16" = 1'-0"
140
0.1875
141
12.0
290
     0
  0
SCALE
  5
8A1
102
{ACAD_REACTORS
330
898
102
}
330
898
100
AcDbScale
 70
     0
300
1/4" = 1'-0"
140
0.25
141
12.0
290
     0
  0
SCALE
  5
8A2
102
{ACAD_REACTORS
330
898
102
}
330
898
100
AcDbScale
 70
     0
300
3/8" = 1'-0"
140
0.375
141
12.0
290
     0
  0
SCALE
  5
8A3
102
{ACAD_REACTORS
330
898
102
}
330
898
100
AcDbScale
 70
     0
300
1/2" = 1'-0"
140
0.5
141
12.0
290
     0
  0
SCALE
  5
8A4
102
{ACAD_REACTORS
330
898
102
}
330
898
100
AcDbScale
 70
     0
300
3/4" = 1'-0"
140
0.75
141
12.0
290
     0
  0
SCALE
  5
8A5
102
{ACAD_REACTORS
330
898
102
}
330
898
100
AcDbScale
 70
     0
300
1" = 1'-0"
140
1.0
141
12.0
290
     0
  0
SCALE
  5
8A6
102
{ACAD_REACTORS
330
898
102
}
330
898
100
AcDbScale
 70
     0
300
1-1/2" = 1'-0"
140
1.5
141
12.0
290
     0
  0
SCALE
  5
8A7
102
{ACAD_REACTORS
330
898
102
}
330
898
100
AcDbScale
 70
     0
300
3" = 1'-0"
140
3.0
141
12.0
290
     0
  0
SCALE
  5
8A8
102
{ACAD_REACTORS
330
898
102
}
330
898
100
AcDbScale
 70
     0
300
6" = 1'-0"
140
6.0
141
12.0
290
     0
  0
SCALE
  5
8A9
102
{ACAD_REACTORS
330
898
102
}
330
898
100
AcDbScale
 70
     0
300
1'-0" = 1'-0"
140
12.0
141
12.0
290
     0
  0
ACDBSECTIONVIEWSTYLE
  5
8BE
102
{ACAD_XDICTIONARY
360
3AF0
102
}
102
{ACAD_REACTORS
330
8BD
102
}
330
8BD
100
AcDbModelDocViewStyle
 70
     0
  3
Imperial24
290
     0
100
AcDbSectionViewStyle
 70
     0
 71
     0
 90
      102
 71
     1
340
8AB
 62
   256
 40
5.0
340
0
340
0
 62
   256
 40
5.0
300
I, O, Q, S, X, Z
 40
10.0
 90
        0
 40
2.5
 90
        0
 71
     2
340
8B2
 90
       25
 62
   256
340
8B2
 90
       50
 62
   256
 40
5.0
 40
2.5
 40
5.0
 71
     3
340
8AB
 62
   256
 40
5.0
 90
        0
 40
15.0
 90
        1
300
%<\AcVar ViewSectionStartId>%-%<\AcVar ViewSectionEndId>% (%<\AcVar ViewScale \f "%sn">%)
 71
     4
 62
   256
 62
   257
300
ANSI31
 40
1.0
 90
        0
290
     0
290
     0
 90
        6
 40
0.0
 40
1.57079633
 40
0.26179939
 40
1.30899694
 40
-0.26179939
 40
1.83259571
  0
ACDBSECTIONVIEWSTYLE
  5
9BD
102
{ACAD_XDICTIONARY
360
3AF4
102
}
102
{ACAD_REACTORS
330
8BD
102
}
330
8BD
100
AcDbModelDocViewStyle
 70
     0
  3
Metric50
290
     0
100
AcDbSectionViewStyle
 70
     0
 71
     0
 90
      102
 71
     1
340
8AB
 62
   256
 40
5.0
340
0
340
0
 62
   256
 40
5.0
300
I, O, Q, S, X, Z
 40
10.0
 90
        0
 40
2.5
 90
        0
 71
     2
340
8B2
 90
       25
 62
   256
340
8B2
 90
       50
 62
   256
 40
5.0
 40
2.5
 40
5.0
 71
     3
340
8AB
 62
   256
 40
5.0
 90
        0
 40
15.0
 90
        1
300
%<\AcVar ViewSectionStartId>%-%<\AcVar ViewSectionEndId>% (%<\AcVar ViewScale \f "%sn">%)
 71
     4
 62
   256
 62
   257
300
ANSI31
 40
1.0
 90
        0
290
     0
290
     0
 90
        6
 40
0.0
 40
1.57079633
 40
0.26179939
 40
1.30899694
 40
-0.26179939
 40
1.83259571
  0
TABLESTYLE
  5
8BA
102
{ACAD_XDICTIONARY
360
8DE
102
}
102
{ACAD_REACTORS
330
8B9
102
}
330
8B9
100
AcDbTableStyle
  3
Standard
 70
     0
 71
     0
 40
0.06
 41
0.06
280
     0
281
     0
  7
STANDARD
140
0.18
170
     2
 62
     0
 63
     7
283
     0
274
    -2
284
     1
 64
     0
275
    -2
285
     1
 65
     0
276
    -2
286
     1
 66
     0
277
    -2
287
     1
 67
     0
278
    -2
288
     1
 68
     0
279
    -2
289
     1
 69
     0
  7
STANDARD
140
0.25
170
     5
 62
     0
 63
     7
283
     0
274
    -2
284
     1
 64
     0
275
    -2
285
     1
 65
     0
276
    -2
286
     1
 66
     0
277
    -2
287
     1
 67
     0
278
    -2
288
     1
 68
     0
279
    -2
289
     1
 69
     0
  7
STANDARD
140
0.18
170
     5
 62
     0
 63
     7
283
     0
274
    -2
284
     1
 64
     0
275
    -2
285
     1
 65
     0
276
    -2
286
     1
 66
     0
277
    -2
287
     1
 67
     0
278
    -2
288
     1
 68
     0
279
    -2
289
     1
 69
     0
  0
VISUALSTYLE
  5
885
102
{ACAD_XDICTIONARY
360
3AC7
102
}
102
{ACAD_REACTORS
330
87F
102
}
330
87F
100
AcDbVisualStyle
  2
2dWireframe
 70
     4
 71
     0
 72
     2
 73
     0
 90
        0
 40
-0.6
 41
-30.0
 62
     5
 63
     7
421
 16777215
 74
     1
 91
        4
 64
     7
 65
   257
 75
     1
175
     1
 42
1.0
 92
        0
 66
   257
 43
1.0
 76
     1
 77
     6
 78
     2
 67
     7
 79
     5
170
     0
171
     0
290
     0
174
     0
 93
        1
 44
0.0
173
     0
291
     0
 45
0.0
1001
ACAD
1000
AcDbSavedByObjectVersion
1070
     0
  0
VISUALSTYLE
  5
884
102
{ACAD_XDICTIONARY
360
3AC5
102
}
102
{ACAD_REACTORS
330
87F
102
}
330
87F
100
AcDbVisualStyle
  2
Basic
 70
     7
 71
     1
 72
     0
 73
     1
 90
        0
 40
-0.6
 41
-30.0
 62
     5
 63
     7
421
 16777215
 74
     0
 91
        4
 64
     7
 65
   257
 75
     1
175
     1
 42
1.0
 92
        8
 66
     7
 43
1.0
 76
     1
 77
     6
 78
     2
 67
     7
 79
     5
170
     0
171
     0
290
     0
174
     0
 93
        1
 44
0.0
173
     0
291
     1
 45
0.0
1001
ACAD
1000
AcDbSavedByObjectVersion
1070
     0
  0
VISUALSTYLE
  5
88B
102
{ACAD_XDICTIONARY
360
3AD3
102
}
102
{ACAD_REACTORS
330
87F
102
}
330
87F
100
AcDbVisualStyle
  2
Brighten
 70
    12
 71
     2
 72
     2
 73
     0
 90
        0
 40
-0.6
 41
-30.0
 62
     5
 63
     7
421
 16777215
 74
     1
 91
        4
 64
     7
 65
   257
 75
     1
175
     1
 42
1.0
 92
        8
 66
     7
 43
1.0
 76
     1
 77
     6
 78
     2
 67
     7
 79
     5
170
     0
171
     0
290
     0
174
     0
 93
        1
 44
50.0
173
     0
291
     1
 45
0.0
1001
ACAD
1000
AcDbSavedByObjectVersion
1070
     0
  0
VISUALSTYLE
  5
88F
102
{ACAD_XDICTIONARY
360
3ADB
102
}
102
{ACAD_REACTORS
330
87F
102
}
330
87F
100
AcDbVisualStyle
  2
ColorChange
 70
    16
 71
     2
 72
     2
 73
     3
 90
        0
 40
-0.6
 41
-30.0
 62
     5
 63
     8
421
  8421504
 74
     1
 91
        4
 64
     7
 65
   257
 75
     1
175
     1
 42
1.0
 92
        8
 66
     8
424
  8421504
 43
1.0
 76
     1
 77
     6
 78
     2
 67
     7
 79
     5
170
     0
171
     0
290
     0
174
     0
 93
        1
 44
0.0
173
     0
291
     1
 45
0.0
1001
ACAD
1000
AcDbSavedByObjectVersion
1070
     0
  0
VISUALSTYLE
  5
888
102
{ACAD_XDICTIONARY
360
3ACD
102
}
102
{ACAD_REACTORS
330
87F
102
}
330
87F
100
AcDbVisualStyle
  2
Conceptual
 70
     9
 71
     3
 72
     2
 73
     0
 90
        0
 40
-0.6
 41
-30.0
 62
     5
 63
     7
421
 16777215
 74
     2
 91
        2
 64
     7
 65
   257
 75
     1
175
     1
 42
179.0
 92
        8
 66
     7
 43
1.0
 76
     1
 77
     6
 78
     2
 67
     7
 79
     3
170
     0
171
     0
290
     0
174
     0
 93
        1
 44
0.0
173
     0
291
     0
 45
0.0
1001
ACAD
1000
AcDbSavedByObjectVersion
1070
     0
  0
VISUALSTYLE
  5
88A
102
{ACAD_XDICTIONARY
360
3AD1
102
}
102
{ACAD_REACTORS
330
87F
102
}
330
87F
100
AcDbVisualStyle
  2
Dim
 70
    11
 71
     2
 72
     2
 73
     0
 90
        0
 40
-0.6
 41
-30.0
 62
     5
 63
     7
421
 16777215
 74
     1
 91
        4
 64
     7
 65
   257
 75
     1
175
     1
 42
1.0
 92
        8
 66
     7
 43
1.0
 76
     1
 77
     6
 78
     2
 67
     7
 79
     5
170
     0
171
     0
290
     0
174
     0
 93
        1
 44
-50.0
173
     0
291
     1
 45
0.0
1001
ACAD
1000
AcDbSavedByObjectVersion
1070
     0
  0
VISUALSTYLE
  5
897
102
{ACAD_XDICTIONARY
360
3AEB
102
}
102
{ACAD_REACTORS
330
87F
102
}
330
87F
100
AcDbVisualStyle
  2
EdgeColorOff
 70
    22
 71
     2
 72
     2
 73
     0
 90
        0
 40
-0.6
 41
-30.0
 62
     5
 63
     7
421
 16777215
 74
     1
 91
        4
 64
     7
 65
   257
 75
     1
175
     1
 42
1.0
 92
        8
 66
     7
 43
1.0
 76
     1
 77
     6
 78
     2
 67
     7
 79
     5
170
     0
171
     0
290
     0
174
     0
 93
        1
 44
0.0
173
     0
291
     1
 45
0.0
1001
ACAD
1000
AcDbSavedByObjectVersion
1070
     0
  0
VISUALSTYLE
  5
88E
102
{ACAD_XDICTIONARY
360
3AD9
102
}
102
{ACAD_REACTORS
330
87F
102
}
330
87F
100
AcDbVisualStyle
  2
Facepattern
 70
    15
 71
     2
 72
     2
 73
     0
 90
        0
 40
-0.6
 41
-30.0
 62
     5
 63
     7
421
 16777215
 74
     1
 91
        4
 64
     7
 65
   257
 75
     1
175
     1
 42
1.0
 92
        8
 66
     7
 43
1.0
 76
     1
 77
     6
 78
     2
 67
     7
 79
     5
170
     0
171
     0
290
     0
174
     0
 93
        1
 44
0.0
173
     0
291
     1
 45
0.0
1001
ACAD
1000
AcDbSavedByObjectVersion
1070
     0
  0
VISUALSTYLE
  5
880
102
{ACAD_XDICTIONARY
360
3ABD
102
}
102
{ACAD_REACTORS
330
87F
102
}
330
87F
100
AcDbVisualStyle
  2
Flat
 70
     0
 71
     2
 72
     1
 73
     1
 90
        2
 40
-0.6
 41
30.0
 62
     5
 63
     7
421
 16777215
 74
     0
 91
        0
 64
     7
 65
   257
 75
     1
175
     1
 42
1.0
 92
        8
 66
     7
 43
1.0
 76
     1
 77
     6
 78
     2
 67
     7
 79
     5
170
     0
171
     0
290
     0
174
     0
 93
       13
 44
0.0
173
     0
291
     1
 45
0.0
1001
ACAD
1000
AcDbSavedByObjectVersion
1070
     0
  0
VISUALSTYLE
  5
881
102
{ACAD_XDICTIONARY
360
3ABF
102
}
102
{ACAD_REACTORS
330
87F
102
}
330
87F
100
AcDbVisualStyle
  2
FlatWithEdges
 70
     1
 71
     2
 72
     1
 73
     1
 90
        2
 40
-0.6
 41
30.0
 62
     5
 63
     7
421
 16777215
 74
     1
 91
        0
 64
     7
 65
   257
 75
     1
175
     1
 42
1.0
 92
        0
 66
   257
 43
1.0
 76
     1
 77
     6
 78
     2
 67
     7
 79
     5
170
     0
171
     0
290
     0
174
     0
 93
       13
 44
0.0
173
     0
291
     1
 45
0.0
1001
ACAD
1000
AcDbSavedByObjectVersion
1070
     0
  0
VISUALSTYLE
  5
882
102
{ACAD_XDICTIONARY
360
3AC1
102
}
102
{ACAD_REACTORS
330
87F
102
}
330
87F
100
AcDbVisualStyle
  2
Gouraud
 70
     2
 71
     2
 72
     2
 73
     1
 90
        2
 40
-0.6
 41
30.0
 62
     5
 63
     7
421
 16777215
 74
     0
 91
        0
 64
     7
 65
   257
 75
     1
175
     1
 42
1.0
 92
        0
 66
     7
 43
1.0
 76
     1
 77
     6
 78
     2
 67
     7
 79
     5
170
     0
171
     0
290
     0
174
     0
 93
       13
 44
0.0
173
     0
291
     1
 45
0.0
1001
ACAD
1000
AcDbSavedByObjectVersion
1070
     0
  0
VISUALSTYLE
  5
883
102
{ACAD_XDICTIONARY
360
3AC3
102
}
102
{ACAD_REACTORS
330
87F
102
}
330
87F
100
AcDbVisualStyle
  2
GouraudWithEdges
 70
     3
 71
     2
 72
     2
 73
     1
 90
        2
 40
-0.6
 41
30.0
 62
     5
 63
     7
421
 16777215
 74
     1
 91
        0
 64
     7
 65
   257
 75
     1
175
     1
 42
1.0
 92
        0
 66
   257
 43
1.0
 76
     1
 77
     6
 78
     2
 67
     7
 79
     5
170
     0
171
     0
290
     0
174
     0
 93
       13
 44
0.0
173
     0
291
     1
 45
0.0
1001
ACAD
1000
AcDbSavedByObjectVersion
1070
     0
  0
VISUALSTYLE
  5
887
102
{ACAD_XDICTIONARY
360
3ACB
102
}
102
{ACAD_REACTORS
330
87F
102
}
330
87F
100
AcDbVisualStyle
  2
Hidden
 70
     6
 71
     1
 72
     2
 73
     2
 90
        0
 40
-0.6
 41
-30.0
 62
     5
 63
     7
421
 16777215
 74
     2
 91
        2
 64
     7
 65
   257
 75
     2
175
     1
 42
40.0
 92
        0
 66
   257
 43
1.0
 76
     1
 77
     6
 78
     2
 67
     7
 79
     3
170
     0
171
     0
290
     0
174
     0
 93
        1
 44
0.0
173
     0
291
     0
 45
0.0
1001
ACAD
1000
AcDbSavedByObjectVersion
1070
     0
  0
VISUALSTYLE
  5
895
102
{ACAD_XDICTIONARY
360
3AE7
102
}
102
{ACAD_REACTORS
330
87F
102
}
330
87F
100
AcDbVisualStyle
  2
JitterOff
 70
    20
 71
     2
 72
     2
 73
     0
 90
        0
 40
-0.6
 41
-30.0
 62
     5
 63
     7
421
 16777215
 74
     1
 91
        4
 64
     7
 65
   257
 75
     1
175
     1
 42
1.0
 92
       10
 66
     7
 43
1.0
 76
     1
 77
     6
 78
     2
 67
     7
 79
     5
170
     0
171
     0
290
     0
174
     0
 93
        1
 44
0.0
173
     0
291
     1
 45
0.0
1001
ACAD
1000
AcDbSavedByObjectVersion
1070
     0
  0
VISUALSTYLE
  5
88D
102
{ACAD_XDICTIONARY
360
3AD7
102
}
102
{ACAD_REACTORS
330
87F
102
}
330
87F
100
AcDbVisualStyle
  2
Linepattern
 70
    14
 71
     2
 72
     2
 73
     0
 90
        0
 40
-0.6
 41
-30.0
 62
     5
 63
     7
421
 16777215
 74
     1
 91
        4
 64
     7
 65
   257
 75
     7
175
     7
 42
1.0
 92
        8
 66
     7
 43
1.0
 76
     1
 77
     6
 78
     2
 67
     7
 79
     5
170
     0
171
     0
290
     0
174
     0
 93
        1
 44
0.0
173
     0
291
     1
 45
0.0
1001
ACAD
1000
AcDbSavedByObjectVersion
1070
     0
  0
VISUALSTYLE
  5
896
102
{ACAD_XDICTIONARY
360
3AE9
102
}
102
{ACAD_REACTORS
330
87F
102
}
330
87F
100
AcDbVisualStyle
  2
OverhangOff
 70
    21
 71
     2
 72
     2
 73
     0
 90
        0
 40
-0.6
 41
-30.0
 62
     5
 63
     7
421
 16777215
 74
     1
 91
        4
 64
     7
 65
   257
 75
     1
175
     1
 42
1.0
 92
        9
 66
     7
 43
1.0
 76
     1
 77
     6
 78
     2
 67
     7
 79
     5
170
     0
171
     0
290
     0
174
     0
 93
        1
 44
0.0
173
     0
291
     1
 45
0.0
1001
ACAD
1000
AcDbSavedByObjectVersion
1070
     0
  0
VISUALSTYLE
  5
889
102
{ACAD_XDICTIONARY
360
3ACF
102
}
102
{ACAD_REACTORS
330
87F
102
}
330
87F
100
AcDbVisualStyle
  2
Realistic
 70
     8
 71
     2
 72
     2
 73
     0
 90
        2
 40
-0.6
 41
30.0
 62
     5
 63
     7
421
 16777215
 74
     0
 91
        0
 64
     7
 65
   257
 75
     1
175
     1
 42
1.0
 92
        8
 66
   257
 43
1.0
 76
     1
 77
     6
 78
     2
 67
     7
 79
     3
170
     0
171
     0
290
     0
174
     0
 93
       13
 44
0.0
173
     0
291
     0
 45
0.0
1001
ACAD
1000
AcDbSavedByObjectVersion
1070
     0
  0
VISUALSTYLE
  5
894
102
{ACAD_XDICTIONARY
360
3AE5
102
}
102
{ACAD_REACTORS
330
87F
102
}
330
87F
100
AcDbVisualStyle
  2
Shaded
 70
    27
 71
     2
 72
     2
 73
     1
 90
        2
 40
-0.6
 41
30.0
 62
     5
 63
     7
421
 16777215
 74
     0
 91
        4
 64
     7
 65
   257
 75
     1
175
     1
 42
1.0
 92
        8
 66
   257
 43
1.0
 76
     1
 77
     6
 78
     2
 67
     8
425
  7895160
 79
     3
170
     0
171
     0
290
     0
174
     0
 93
        5
 44
0.0
173
     0
291
     0
 45
0.0
1001
ACAD
1000
AcDbSavedByObjectVersion
1070
     0
  0
VISUALSTYLE
  5
893
102
{ACAD_XDICTIONARY
360
3AE3
102
}
102
{ACAD_REACTORS
330
87F
102
}
330
87F
100
AcDbVisualStyle
  2
Shaded with edges
 70
    26
 71
     2
 72
     2
 73
     1
 90
        2
 40
-0.6
 41
30.0
 62
     5
 63
     7
421
 16777215
 74
     1
 91
       10
 64
     7
 65
   257
 75
     2
175
     1
 42
1.0
 92
        8
 66
   257
 43
1.0
 76
     1
 77
     6
 78
     2
 67
     7
 79
     3
170
     0
171
     0
290
     0
174
     0
 93
        5
 44
0.0
173
     0
291
     0
 45
0.0
1001
ACAD
1000
AcDbSavedByObjectVersion
1070
     0
  0
VISUALSTYLE
  5
890
102
{ACAD_XDICTIONARY
360
3ADD
102
}
102
{ACAD_REACTORS
330
87F
102
}
330
87F
100
AcDbVisualStyle
  2
Shades of Gray
 70
    23
 71
     2
 72
     2
 73
     3
 90
        0
 40
-0.6
 41
-30.0
 62
     5
 63
     7
421
 16777215
 74
     2
 91
        2
 64
     7
 65
     7
 75
     1
175
     1
 42
40.0
 92
        8
 66
     7
 43
1.0
 76
     1
 77
     6
 78
     2
 67
     7
 79
     3
170
     0
171
     0
290
     0
174
     0
 93
        1
 44
0.0
173
     0
291
     0
 45
0.0
1001
ACAD
1000
AcDbSavedByObjectVersion
1070
     0
  0
VISUALSTYLE
  5
891
102
{ACAD_XDICTIONARY
360
3ADF
102
}
102
{ACAD_REACTORS
330
87F
102
}
330
87F
100
AcDbVisualStyle
  2
Sketchy
 70
    24
 71
     1
 72
     2
 73
     2
 90
        0
 40
-0.6
 41
-30.0
 62
     5
 63
     7
421
 16777215
 74
     2
 91
        2
 64
     7
 65
     7
 75
     1
175
     1
 42
40.0
 92
       11
 66
     7
 43
1.0
 76
     1
 77
     6
 78
     2
 67
     7
 79
     6
170
     0
171
     0
290
     0
174
     0
 93
        1
 44
0.0
173
     0
291
     0
 45
0.0
1001
ACAD
1000
AcDbSavedByObjectVersion
1070
     0
  0
VISUALSTYLE
  5
88C
102
{ACAD_XDICTIONARY
360
3AD5
102
}
102
{ACAD_REACTORS
330
87F
102
}
330
87F
100
AcDbVisualStyle
  2
Thicken
 70
    13
 71
     2
 72
     2
 73
     0
 90
        0
 40
-0.6
 41
-30.0
 62
     5
 63
     7
421
 16777215
 74
     1
 91
        4
 64
     7
 65
   257
 75
     1
175
     1
 42
1.0
 92
       12
 66
     7
 43
1.0
 76
     1
 77
     6
 78
     2
 67
     7
 79
     5
170
     0
171
     0
290
     0
174
     0
 93
        1
 44
0.0
173
     0
291
     1
 45
0.0
1001
ACAD
1000
AcDbSavedByObjectVersion
1070
     0
  0
VISUALSTYLE
  5
886
102
{ACAD_XDICTIONARY
360
3AC9
102
}
102
{ACAD_REACTORS
330
87F
102
}
330
87F
100
AcDbVisualStyle
  2
Wireframe
 70
     5
 71
     0
 72
     2
 73
     0
 90
        0
 40
-0.6
 41
-30.0
 62
     5
 63
     7
421
 16777215
 74
     1
 91
        4
 64
     7
 65
   257
 75
     1
175
     1
 42
1.0
 92
        0
 66
   257
 43
1.0
 76
     1
 77
     6
 78
     2
 67
     7
 79
     3
170
     0
171
     0
290
     0
174
     0
 93
        1
 44
0.0
173
     0
291
     0
 45
0.0
1001
ACAD
1000
AcDbSavedByObjectVersion
1070
     0
  0
VISUALSTYLE
  5
892
102
{ACAD_XDICTIONARY
360
3AE1
102
}
102
{ACAD_REACTORS
330
87F
102
}
330
87F
100
AcDbVisualStyle
  2
X-Ray
 70
    25
 71
     2
 72
     2
 73
     1
 90
        1
 40
0.5
 41
-30.0
 62
     5
 63
     7
421
 16777215
 74
     1
 91
        0
 64
     7
 65
   257
 75
     1
175
     1
 42
1.0
 92
        8
 66
     7
 43
1.0
 76
     1
 77
     6
 78
     2
 67
     7
 79
     3
170
     0
171
     0
290
     0
174
     0
 93
       13
 44
0.0
173
     0
291
     0
 45
0.0
1001
ACAD
1000
AcDbSavedByObjectVersion
1070
     0
  0
DICTIONARYVAR
  5
921
102
{ACAD_REACTORS
330
91B
102
}
330
91B
100
DictionaryVariables
280
     0
  1
1:1
  0
DICTIONARYVAR
  5
91D
102
{ACAD_REACTORS
330
91B
102
}
330
91B
100
DictionaryVariables
280
     0
  1
STANDARD
  0
DICTIONARYVAR
  5
91C
102
{ACAD_REACTORS
330
91B
102
}
330
91B
100
DictionaryVariables
280
     0
  1
STANDARD
  0
DICTIONARYVAR
  5
91E
102
{ACAD_REACTORS
330
91B
102
}
330
91B
100
DictionaryVariables
280
     0
  1
Imperial24
  0
DICTIONARYVAR
  5
91F
102
{ACAD_REACTORS
330
91B
102
}
330
91B
100
DictionaryVariables
280
     0
  1
Imperial24
  0
DICTIONARYVAR
  5
923
102
{ACAD_REACTORS
330
91B
102
}
330
91B
100
DictionaryVariables
280
     0
  1
0
  0
DICTIONARYVAR
  5
924
102
{ACAD_REACTORS
330
91B
102
}
330
91B
100
DictionaryVariables
280
     0
  1
0
  0
DICTIONARYVAR
  5
922
102
{ACAD_REACTORS
330
91B
102
}
330
91B
100
DictionaryVariables
280
     0
  1
2
  0
DICTIONARYVAR
  5
920
102
{ACAD_REACTORS
330
91B
102
}
330
91B
100
DictionaryVariables
280
     0
  1
1
  0
DICTIONARYVAR
  5
3AB7
102
{ACAD_REACTORS
330
91B
102
}
330
91B
100
DictionaryVariables
280
     0
  1
2
  0
DICTIONARY
  5
3AF2
330
8C0
100
AcDbDictionary
280
     1
281
     1
  3
ACAD_XREC_ROUNDTRIP
360
3AF3
  0
DICTIONARY
  5
3AF6
330
9BE
100
AcDbDictionary
280
     1
281
     1
  3
ACAD_XREC_ROUNDTRIP
360
3AF7
  0
DICTIONARY
  5
9BA
330
8C8
100
AcDbDictionary
280
     1
281
     1
  3
ADSK_XREC_LAYOUTTHUMBNAIL
360
9BB
  0
DICTIONARY
  5
870
330
86F
100
AcDbDictionary
280
     1
281
     1
  3
ACAD_XREC_ROUNDTRIP
360
3ABB
  3
BUMPTILE
360
872
  3
DIFFUSETILE
360
871
  3
OPACITYTILE
360
875
  3
REFLECTIONTILE
360
874
  3
REFRACTIONTILE
360
876
  3
SPECULARTILE
360
873
  0
DICTIONARY
  5
868
330
867
100
AcDbDictionary
280
     1
281
     1
  3
ACAD_XREC_ROUNDTRIP
360
3ABA
  3
BUMPTILE
360
86A
  3
DIFFUSETILE
360
869
  3
OPACITYTILE
360
86D
  3
REFLECTIONTILE
360
86C
  3
REFRACTIONTILE
360
86E
  3
SPECULARTILE
360
86B
  0
DICTIONARY
  5
878
330
877
100
AcDbDictionary
280
     1
281
     1
  3
ACAD_XREC_ROUNDTRIP
360
3ABC
  3
BUMPTILE
360
87A
  3
DIFFUSETILE
360
879
  3
OPACITYTILE
360
87D
  3
REFLECTIONTILE
360
87C
  3
REFRACTIONTILE
360
87E
  3
SPECULARTILE
360
87B
  0
DICTIONARY
  5
3AEE
330
8BC
100
AcDbDictionary
280
     1
281
     1
  3
ACAD_XREC_ROUNDTRIP
360
3AEF
  0
DICTIONARY
  5
3AF0
330
8BE
100
AcDbDictionary
280
     1
281
     1
  3
ACAD_XREC_ROUNDTRIP
360
3AF1
  0
DICTIONARY
  5
3AF4
330
9BD
100
AcDbDictionary
280
     1
281
     1
  3
ACAD_XREC_ROUNDTRIP
360
3AF5
  0
DICTIONARY
  5
8DE
330
8BA
100
AcDbDictionary
280
     1
281
     1
  3
ACAD_ROUNDTRIP_2008_TABLESTYLE_CELLSTYLEMAP
360
3AB8
  3
ACAD_XREC_ROUNDTRIP
360
3AED
  0
DICTIONARY
  5
3AC7
330
885
100
AcDbDictionary
280
     1
281
     1
  3
ACAD_XREC_ROUNDTRIP
360
3AC8
  0
DICTIONARY
  5
3AC5
330
884
100
AcDbDictionary
280
     1
281
     1
  3
ACAD_XREC_ROUNDTRIP
360
3AC6
  0
DICTIONARY
  5
3AD3
330
88B
100
AcDbDictionary
280
     1
281
     1
  3
ACAD_XREC_ROUNDTRIP
360
3AD4
  0
DICTIONARY
  5
3ADB
330
88F
100
AcDbDictionary
280
     1
281
     1
  3
ACAD_XREC_ROUNDTRIP
360
3ADC
  0
DICTIONARY
  5
3ACD
330
888
100
AcDbDictionary
280
     1
281
     1
  3
ACAD_XREC_ROUNDTRIP
360
3ACE
  0
DICTIONARY
  5
3AD1
330
88A
100
AcDbDictionary
280
     1
281
     1
  3
ACAD_XREC_ROUNDTRIP
360
3AD2
  0
DICTIONARY
  5
3AEB
330
897
100
AcDbDictionary
280
     1
281
     1
  3
ACAD_XREC_ROUNDTRIP
360
3AEC
  0
DICTIONARY
  5
3AD9
330
88E
100
AcDbDictionary
280
     1
281
     1
  3
ACAD_XREC_ROUNDTRIP
360
3ADA
  0
DICTIONARY
  5
3ABD
330
880
100
AcDbDictionary
280
     1
281
     1
  3
ACAD_XREC_ROUNDTRIP
360
3ABE
  0
DICTIONARY
  5
3ABF
330
881
100
AcDbDictionary
280
     1
281
     1
  3
ACAD_XREC_ROUNDTRIP
360
3AC0
  0
DICTIONARY
  5
3AC1
330
882
100
AcDbDictionary
280
     1
281
     1
  3
ACAD_XREC_ROUNDTRIP
360
3AC2
  0
DICTIONARY
  5
3AC3
330
883
100
AcDbDictionary
280
     1
281
     1
  3
ACAD_XREC_ROUNDTRIP
360
3AC4
  0
DICTIONARY
  5
3ACB
330
887
100
AcDbDictionary
280
     1
281
     1
  3
ACAD_XREC_ROUNDTRIP
360
3ACC
  0
DICTIONARY
  5
3AE7
330
895
100
AcDbDictionary
280
     1
281
     1
  3
ACAD_XREC_ROUNDTRIP
360
3AE8
  0
DICTIONARY
  5
3AD7
330
88D
100
AcDbDictionary
280
     1
281
     1
  3
ACAD_XREC_ROUNDTRIP
360
3AD8
  0
DICTIONARY
  5
3AE9
330
896
100
AcDbDictionary
280
     1
281
     1
  3
ACAD_XREC_ROUNDTRIP
360
3AEA
  0
DICTIONARY
  5
3ACF
330
889
100
AcDbDictionary
280
     1
281
     1
  3
ACAD_XREC_ROUNDTRIP
360
3AD0
  0
DICTIONARY
  5
3AE5
330
894
100
AcDbDictionary
280
     1
281
     1
  3
ACAD_XREC_ROUNDTRIP
360
3AE6
  0
DICTIONARY
  5
3AE3
330
893
100
AcDbDictionary
280
     1
281
     1
  3
ACAD_XREC_ROUNDTRIP
360
3AE4
  0
DICTIONARY
  5
3ADD
330
890
100
AcDbDictionary
280
     1
281
     1
  3
ACAD_XREC_ROUNDTRIP
360
3ADE
  0
DICTIONARY
  5
3ADF
330
891
100
AcDbDictionary
280
     1
281
     1
  3
ACAD_XREC_ROUNDTRIP
360
3AE0
  0
DICTIONARY
  5
3AD5
330
88C
100
AcDbDictionary
280
     1
281
     1
  3
ACAD_XREC_ROUNDTRIP
360
3AD6
  0
DICTIONARY
  5
3AC9
330
886
100
AcDbDictionary
280
     1
281
     1
  3
ACAD_XREC_ROUNDTRIP
360
3ACA
  0
DICTIONARY
  5
3AE1
330
892
100
AcDbDictionary
280
     1
281
     1
  3
ACAD_XREC_ROUNDTRIP
360
3AE2
  0
XRECORD
  5
3AF3
102
{ACAD_REACTORS
330
3AF2
102
}
330
3AF2
100
AcDbXrecord
280
     1
102
DISPLAYNAME
  1
Imperial24
102
FLAGS
 90
        0
  0
XRECORD
  5
3AF7
102
{ACAD_REACTORS
330
3AF6
102
}
330
3AF6
100
AcDbXrecord
280
     1
102
DISPLAYNAME
  1
Metric50
102
FLAGS
 90
        0
  0
XRECORD
  5
9BB
102
{ACAD_REACTORS
330
9BA
102
}
330
9BA
100
AcDbXrecord
280
     1
310
28000000000100007100000001000800000000000071000001000000010000000001000000000000000000FF000000FFC8C8C8FF000000FF000000FF000000FF000000FF000000FF000000FF000000FF000000FF330000FF660000FF990000FFCC0000FFFF0000FF003300FF333300FF663300FF993300FFCC3300FFFF3300
310
FF006600FF336600FF666600FF996600FFCC6600FFFF6600FF009900FF339900FF669900FF999900FFCC9900FFFF9900FF00CC00FF33CC00FF66CC00FF99CC00FFCCCC00FFFFCC00FF00FF00FF33FF00FF66FF00FF99FF00FFCCFF00FFFFFF00FF000033FF330033FF660033FF990033FFCC0033FFFF0033FF003333FF3333
310
33FF663333FF993333FFCC3333FFFF3333FF006633FF336633FF666633FF996633FFCC6633FFFF6633FF009933FF339933FF669933FF999933FFCC9933FFFF9933FF00CC33FF33CC33FF66CC33FF99CC33FFCCCC33FFFFCC33FF00FF33FF33FF33FF66FF33FF99FF33FFCCFF33FFFFFF33FF000066FF330066FF660066FF99
310
0066FFCC0066FFFF0066FF003366FF333366FF663366FF993366FFCC3366FFFF3366FF006666FF336666FF666666FF996666FFCC6666FFFF6666FF009966FF339966FF669966FF999966FFCC9966FFFF9966FF00CC66FF33CC66FF66CC66FF99CC66FFCCCC66FFFFCC66FF00FF66FF33FF66FF66FF66FF99FF66FFCCFF66FF
310
FFFF66FF000099FF330099FF660099FF990099FFCC0099FFFF0099FF003399FF333399FF663399FF993399FFCC3399FFFF3399FF006699FF336699FF666699FF996699FFCC6699FFFF6699FF009999FF339999FF669999FF999999FFCC9999FFFF9999FF00CC99FF33CC99FF66CC99FF99CC99FFCCCC99FFFFCC99FF00FF99
310
FF33FF99FF66FF99FF99FF99FFCCFF99FFFFFF99FF0000CCFF3300CCFF6600CCFF9900CCFFCC00CCFFFF00CCFF0033CCFF3333CCFF6633CCFF9933CCFFCC33CCFFFF33CCFF0066CCFF3366CCFF6666CCFF9966CCFFCC66CCFFFF66CCFF0099CCFF3399CCFF6699CCFF9999CCFFCC99CCFFFF99CCFF00CCCCFF33CCCCFF66CC
310
CCFF99CCCCFFCCCCCCFFFFCCCCFF00FFCCFF33FFCCFF66FFCCFF99FFCCFFCCFFCCFFFFFFCCFF0000FFFF3300FFFF6600FFFF9900FFFFCC00FFFFFF00FFFF0033FFFF3333FFFF6633FFFF9933FFFFCC33FFFFFF33FFFF0066FFFF3366FFFF6666FFFF9966FFFFCC66FFFFFF66FFFF0099FFFF3399FFFF6699FFFF9999FFFFCC
310
99FFFFFF99FFFF00CCFFFF33CCFFFF66CCFFFF99CCFFFFCCCCFFFFFFCCFFFF00FFFFFF33FFFFFF66FFFFFF99FFFFFFCCFFFFFFFFFFFFFF000000FF0D0D0DFF1A1A1AFF282828FF353535FF434343FF505050FF5D5D5DFF6B6B6BFF787878FF868686FF939393FFA1A1A1FFAEAEAEFFBBBBBBFFC9C9C9FFD6D6D6FFE4E4E4FF
310
F1F1F1FFFFFFFFFF000000FF000000FF000000FF000000FF000000FF000000FF000000FF000000FF000000FF0000000000000000000000000000000000000000000000000000000000000000000000000000000000000000000000000000000000000FF5F5F5F5F5F5F5F5F5F5F5F5F5F5F5F5F5F5F5F5F5F5F5F5F5F5F5F5
310
F5F5F5F5F5F5F5F5F5F5F5F5F5F5F5F5F5F5F5F5F5F5F5F5F5F5F5F5F5F5F5F5F5F5F5F5F5F5F5F5F5F5F5F5F5F5F5F5F5F5F5F5F5F5F5F5F5F5F5F5F5F5F5F5F5F5F5F5F5F5F5F5F5F5F5F5F5F5F5F5F5F5F5F5F5F5F5F5F5F5F5F5F5F5F5F5F5F5F5F5F5F5F5F5F5F5F5F5F5F5F5F5F5F5F5F5F5F5F5F5F5F5F5F5F5F5F5
310
00000000000000000000000000000000000000000000000000000000000000000000000000000000000000000000000000000000000000000000000000000000000000000000000000000000000000000000000000000000000000000000000000000000F5000000000000000000000000000000000000000000000000F500
310
000000000000000000000000000000000000000000000000F5000000000000000000000000000000000000000000000000F5000000000000000000000000000000000000000000000000F500000000000000000000000000000000000000000000000000F5000000000000000000000000000000000000000000000000F500
310
00F500000000000000000000000000000000000000000000000000000000000000000000000000000000000000000000000000000000000000000000000000000000000000000000000000000000000000000000000000000000000000000000000000000000F5000000000000000000000000000000000000000000000000
310
F500000000000000000000000000000000000000000000000000F5000000000000000000000000000000000000000000000000F5000000000000000000000000000000000000000000000000F500000000000000000000000000000000000000000000000000F5000000000000000000000000000000000000000000000000
310
F50000F500000000000000000000000000000000000000000000000000000000000000000000000000000000000000000000000000000000000000000000000000000000000000000000000000000000000000000000000000000000000000000000000000000000F500000000000000000000000000000000000000000000
310
0000F500000000000000000000000000000000000000000000000000F5000000000000000000000000000000000000000000000000F5000000000000000000000000000000000000000000000000F500000000000000000000000000000000000000000000000000F500000000000000000000000000000000000000000000
310
0000F50000F500000000000000000000000000000000000000000000000000000000000000000000000000000000000000000000000000000000000000000000000000000000000000000000000000000000000000000000000000000000000000000000000000000000F50000000000000000000000000000000000000000
310
00000000F500000000000000000000000000000000000000000000000000F5000000000000000000000000000000000000000000000000F5000000000000000000000000000000000000000000000000F500000000000000000000000000000000000000000000000000F50000000000000000000000000000000000000000
310
00000000F50000F500000000000000000000000000000000000000000000000000000000000000000000000000000000000000000000000000000000000000000000000000000000000000000000000000000000000000000000000000000000000000000000000000000000F5000000000000000000000000000000000000
310
000000000000F500000000000000000000000000000000000000000000000000F5000000000000000000000000000000000000000000000000F5000000000000000000000000000000000000000000000000F500000000000000000000000000000000000000000000000000F5000000000000000000000000000000000000
310
000000000000F50000F500000000000000000000000000000000000000000000000000000000000000000000000000000000000000000000000000000000000000000000000000000000000000000000000000000000000000000000000000000000000000000000000000000000F500000000000000000000000000000000
310
0000000000000000F500000000000000000000000000000000000000000000000000F50000000000000000000000DCDC0000000000000000000000F5000000000000000000000000000000000000000000000000F500000000000000000000000000000000000000000000000000F500000000000000000000000000000000
310
0000000000000000F50000F500000000000000000000000000000000000000000000000000000000000000000000000000000000000000000000000000000000000000000000000000000000000000000000000000000000000000000000000000000000000000000000000000000000F50000000000000000000000000000
310
00000000000000000000F500000000000000000000000000000000000000000000000000F500000000000000000000DCBEDCDC00000000000000000000F5000000000000000000000000000000000000000000000000F500000000000000000000000000000000000000000000000000F50000000000000000000000000000
310
00000000000000000000F50000F500000000000000000000000000000000000000000000000000000000000000000000000000000000000000000000000000000000000000000000000000000000000000000000000000000000000000000000000000000000000000000000000000000000F5000000000000000000000000
310
000000000000000000000000F500000000000000000000000000000000000000000000000000F5000000000000000000002DBEBEDCDC000000000000000000F5000000000000000000000000000000000000000000000000F500000000000000000000000000000000000000000000000000F5000000000000000000000000
310
000000000000000000000000F50000F500000000000000000000000000000000000000000000000000000000000000000000000000000000000000000000000000000000000000000000000000000000000000000000000000000000000000000000000000000000000000000000000000000000F500000000000000000000
310
0000000000000000000000000000F500000000000000000000000000000000000000000000000000F5000000000000000000002D2D2DDCDC000000000000000000F5000000000000000000000000000000000000000000000000F500000000000000000000000000000000000000000000000000F500000000000000000000
310
0000000000000000000000000000F50000F500000000000000000000000000000000000000000000000000000000000000000000000000000000000000000000000000000000000000000000000000000000000000000000000000000000000000000000000000000000000000000000000000000000F50000000000000000
310
00000000000000000000000000000000F500000000000000000000000000000000000000000000000000F5000000000000000000002D2D2DDCDC000000000000000000F5000000000000000000000000000000000000000000000000F500000000000000000000000000000000000000000000000000F50000000000000000
310
00000000000000000000000000000000F50000F500000000000000000000000000000000000000000000000000000000000000000000000000000000000000000000000000000000000000000000000000000000000000000000000000000000000000000000000000000000000000000000000000000000F5000000000000
310
000000000000000000000000000000000000F500000000000000000000000000000000000000000000000000F5000000000000000000000000000000000000000000000000F5000000000000000000000000000000000000000000000000F500000000000000000000000000000000000000000000000000F5000000000000
310
000000000000000000000000000000000000F50000F500000000000000000000000000000000000000000000000000000000000000000000000000000000000000000000000000000000000000000000000000000000000000000000000000000000000000000000000000000000000000000000000000000000F500000000
310
0000000000000000000000000000000000000000F500000000000000000000000000000000000000000000000000F5000000000000000000000000000000000000000000000000F5000000000000000000000000000000000000000000000000F500000000000000000000000000000000000000000000000000F500000000
310
0000000000000000000000000000000000000000F50000F500000000000000000000000000000000000000000000000000000000000000000000000000000000000000000000000000000000000000000000000000000000000000000000000000000000000000000000000000000000000000000000000000000000F50000
310
00000000000000000000000000000000000000000000F500000000000000000000000000000000000000000000000000F5000000000000000000000000000000000000000000000000F5000000000000000000000000000000000000000000000000F500000000000000000000000000000000000000000000000000F50000
310
00000000000000000000000000000000000000000000F50000F500000000000000000000000000000000000000000000000000000000000000000000000000000000000000000000000000000000000000000000000000000000000000000000000000000000000000000000000000000000000000000000000000000000F5
310
000000000000000000000000000000000000000000000000F500000000000000000000000000000000000000000000000000F5000000000000000000000000000000000000000000000000F5000000000000000000000000000000000000000000000000F500000000000000000000000000000000000000000000000000F5
310
000000000000000000000000000000000000000000000000F50000F5000000000000000000000000000000000000000000000000000000000000000000000000000000000000000000000000000000000000000000000000000000000000000000000000000000000000000000000000000000000000000000000000000000
310
00F5000000000000000000000000000000000000000000000000F500000000000000000000000000000000000000000000000000F5000000000000000000000000000000000000000000000000F5000000000000000000000000000000000000000000000000F5000000000000000000000000000000000000000000000000
310
00F5000000000000000000000000000000000000000000000000F50000F500000000000000000000000000000000000000000000000000000000000000000000000000000000000000000000000000000000000000000000000000000000000000000000000000000000000000000000000000000000000000000000000000
310
000000F5000000000000000000000000000000000000000000000000F500000000000000000000000000000000000000000000000000F5000000000000000000000000000000000000000000000000F5000000000000000000000000000000000000000000000000F500000000000000000000000000000000000000000000
310
000000F5000000000000000000000000000000000000000000000000F50000F50000000000000000000000000000000000000000000000000000000000000000000000000000000000000000000000000000000000000000000000000000000000000000000000000000000000000000000000000000000000000000000000
310
0000000000F5F5F5F5F5F5F5F5F5F5F5F5F5F5F5F5F5F5F5F5F5F5F5F5F5F5F5F5F5F5F5F5F5F5F5F5F5F5F5F5F5F5F5F5F5F5F5F5F5F5F5F5F5F5F5F5F5F5F5F5F5F5F5F5F5F5F5F5F5F5F5F5F5F5F5F5F5F5F5F5F5F5F5F5F5F5F5F5F5F5F5F5F5F5F5F5F5F5F5F5F5F5F5F5F5F5F5F5F5F5F5F5F5F5F5F5F5F5F5F5F5F5
310
F5F5F5F5F5F5F5F5F5F5F5F5F5F5F5F5F5F5F5F5F5F5F5F5F5F5F5F5F5F5F50000F5000000000000000000000000000000000000000000000000000000000000000000000000000000000000000000000000000000000000000000000000000000000000000000000000000000000000000000000000000000000000000000
310
00000000000000F5000000000000000000000000000000000000000000000000F500000000000000000000000000000000000000000000000000F5F5F5F5F5F5F5F5F5F5F50000000000000000C3C3C3C3C3C3F5000000000000000000000000000000000000000000000000F5000000000000000000000000000000000000
310
00000000000000F5000000000000000000000000000000000000000000000000F50000F500000000000000000000000000000000000000000000000000000000000000000000000000000000000000000000000000000000000000000000000000000000000000000000000000000000000000000000000000000000000000
310
000000000000000000F5000000000000000000000000000000000000000000000000F500000000000000000000000000000000000000000000000000F5F500F5F5F5F500F5F5F50000000000000000C3C3C3C3C3C3F5000000000000000000000000000000000000000000000000F500000000000000000000000000000000
310
000000000000000000F5000000000000000000000000000000000000000000000000F50000F50000000000000000000000000000000000000000000000000000000000000000000000000000000000000000000000000000000000000000000000000000000000000000000000000000000000000000000000000000000000
310
0000000000000000000000F5F5F5F5F5F5F5F5F5F5F5F5F5F5F5F5F5F5F5F5F5F5F5F5F5F5F5F5F5F5F5F5F5F5F5F5F5F5F5F5F5F5F5F5F5F5F5F5F5F5F5F5F5F5F5F5F5F5F5F5F5F5F5F5F5F5F5F5F5F5F5F5F5F5F5F5F5F5F5F5F5F5F5F5F5F5F5F5F5F5F5F5F5F5F5F5F5F5F5F5F5F5F5F5F5F5F5F5F5F5F5F5F5F5F5F5
310
F5F5F5F5F5F5F5F5F5F5F5F5F5F5F5F5F5F5F5F5F5F5F5F5F5F5F5F5F5F5F5F5F5F5F5F5F50000F5000000000000000000000000000000000000000000000000000000000000000000000000000000000000000000000000000000000000000000000000000000000000000000000000000000000000000000000000000000
310
00000000000000000000000000F5000000000000000000000000000000000000000000000000F500000000000000000000000000000000000000000000000000F5F5F5F5F5F5F5F5F5F5F5F5F5F5F5F5F5F500000000000000F5000000000000000000000000000000000000000000000000F5000000000000000000000000
310
00000000000000000000000000F5000000000000000000000000000000000000000000000000F50000F500000000000000000000000000000000000000000000000000000000000000000000000000000000000000000000000000000000000000000000000000000000000000000000000000000000000000000000000000
310
000000000000000000000000000000F5F5F5F5F5F5F5F5F5F5F5F5F5F5F5F5F5F5F5F5F5F5F5F5F5F5F5F5F5F5F5F5F5F5F5F5F5F5F5F5F5F5F5F5F5F5F5F5F5F5F5F5F5F5F5F5F5F5F5F5F5F5F5F5F5F5F5F5F5F5F5F5F5F5F5F5F5F5F5F5F5F5F5F5F5F5F5F5F5F5F5F5F5F5F5F5F5F5F5F5F5F5F5F5F5F5F5F5F5F5F5F5
310
F5F5F5F5F5F5F5F5F5F5F5F5F5F5F5F5F5F5F5F5F5F5F5F5F5F5F5F5F5F5F5F5F5F5F5F5F5F5F5F5F50000F50000000000000000000000000000000000000000000000000000000000000000000000000000000000000000000000000000000000000000000000000000000000000000000000000000000000000000000000
310
0000000000000000000000000000000000F5000000000000000000000000000000000000000000000000F500000000000000000000000000000000000000000000000000F5000000000000000000000000000000000000000000000000F5000000000000000000000000000000000000000000000000F50000000000000000
310
0000000000000000000000000000000000F5000000000000000000000000000000000000000000000000F50000F5000000000000000000000000000000000000000000000000000000000000000000000000000000000000000000000000000000000000000000000000000000000000000000000000000000000000000000
310
00000000000000000000000000000000000000F5000000000000000000000000000000000000000000000000F500000000000000000000000000000000000000000000000000F5000000000000000000000000000000000000000000000000F5000000000000000000000000000000000000000000000000F5000000000000
310
00000000000000000000000000000000000000F5000000000000000000000000000000000000000000000000F50000F500000000000000000000000000000000000000000000000000000000000000000000000000000000000000000000000000000000000000000000000000000000000000000000000000000000000000
310
000000000000000000000000000000000000000000F5000000000000000000000000000000000000000000000000F500000000000000000000000000000000000000000000000000F5000000000000000000000000000000000000000000000000F5000000000000000000000000000000000000000000000000F500000000
310
000000000000000000000000000000000000000000F5000000000000000000000000000000000000000000000000F50000F50000000000000000000000000000000000000000000000000000000000000000000000000000000000000000000000000000000000000000000000000000000000000000000000000000000000
310
0000000000000000000000000000000000000000000000F5000000000000000000000000000000000000000000000000F500000000000000000000000000000000000000000000000000F5000000000000000000000000000000000000000000000000F5000000000000000000000000000000000000000000000000F50000
310
0000000000000000000000000000000000000000000000F5000000000000000000000000000000000000000000000000F50000F5000000000000000000000000000000000000000000000000000000000000000000000000000000000000000000000000000000000000000000000000000000000000000000000000000000
310
00000000000000000000000000000000000000000000000000F5000000000000000000000000000000000000000000000000F500000000000000000000000000000000000000000000000000F5000000000000000000000000000000000000000000000000F5000000000000000000000000000000000000000000000000F5
310
00000000000000000000000000000000000000000000000000F5000000000000000000000000000000000000000000000000F50000F500000000000000000000000000000000000000000000000000000000000000000000000000000000000000000000000000000000000000000000000000000000000000000000000000
310
000000000000000000000000000000000000000000000000000000F50000000000000000000000DCDCDC00000000000000000000F50000000000000000000000DCDCDC0000000000000000000000F50000000000000000000000DCDC0000000000000000000000F50000000000000000000000000000000000000000000000
310
00F500000000000000000000000000000000000000000000000000F5000000000000000000000000000000000000000000000000F50000F50000000000000000000000000000000000000000000000000000000000000000000000000000000000000000000000000000000000000000000000000000000000000000000000
310
0000000000000000000000000000000000000000000000000000000000F500000000000000000000DCDCDCDC00000000000000000000F500000000000000000000DCDCDCDCDC00000000000000000000F500000000000000000000DCDCDCDC00000000000000000000F5000000000000000000000000000000000000000000
310
000000F500000000000000000000000000000000000000000000000000F5000000000000000000000000000000000000000000000000F50000F5000000000000000000000000000000000000000000000000000000000000000000000000000000000000000000000000000000000000000000000000000000000000000000
310
00000000000000000000000000000000000000000000000000000000000000F50000000000000000000000DCDCDC00000000000000000000F50000000000000000000000DCDCDC0000000000000000000000F500000000000000000000DCDCDCDC00000000000000000000F500000000000000000000000000000000000000
310
0000000000F500000000000000000000000000000000000000000000000000F5000000000000000000000000000000000000000000000000F50000F500000000000000000000000000000000000000000000000000000000000000000000000000000000000000000000000000000000000000000000000000000000000000
310
000000000000000000000000000000000000000000000000000000000000000000F50000000000000000000000DCDCDCDCDC0000000000000000F50000000000000000000000DCDCDC00DC000000000000000000F500000000000000000000DCDCDCDCDCDC0000000000000000F50000000000000000000000000000000000
310
00000000000000F500000000000000000000000000000000000000000000000000F5000000000000000000000000000000000000000000000000F50000F50000000000000000000000000000000000000000000000000000000000000000000000000000000000000000000000000000000000000000000000000000000000
310
0000000000000000000000000000000000000000000000000000000000000000000000F500000000000000000000002D2D2DDCDC0000000000000000F500000000000000000000002D2D2D00DC000000000000000000F5000000000000000000002D2D2D2DDCDC0000000000000000F5000000000000000000000000000000
310
000000000000000000F500000000000000000000000000000000000000000000000000F5000000000000000000000000000000000000000000000000F50000F5000000000000000000000000000000000000000000000000000000000000000000000000000000000000000000000000000000000000000000000000000000
310
00000000000000000000000000000000000000000000000000000000000000000000000000F5000000000000000000000000DC00DCDC0000000000000000F5000000000000000000000000DC0000DC000000000000000000F5000000000000000000000000DC00DCDC0000000000000000F500000000000000000000000000
310
0000000000000000000000F500000000000000000000000000000000000000000000000000F5000000000000000000000000000000000000000000000000F50000F500000000000000000000000000000000000000000000000000000000000000000000000000000000000000000000000000000000000000000000000000
310
000000000000000000000000000000000000000000000000000000000000000000000000000000F5000000000000000000000000000000000000000000000000F500000000000000000000000000000000000000000000000000F5000000000000000000000000000000000000000000000000F50000000000000000000000
310
00000000000000000000000000F500000000000000000000000000000000000000000000000000F5000000000000000000000000000000000000000000000000F50000F50000000000000000000000000000000000000000000000000000000000000000000000000000000000000000000000000000000000000000000000
310
0000000000000000000000000000000000000000000000000000000000000000000000000000000000F5000000000000000000000000000000000000000000000000F500000000000000000000000000000000000000000000000000F5000000000000000000000000000000000000000000000000F5000000000000000000
310
000000000000000000000000000000F500000000000000000000000000000000000000000000000000F5000000000000000000000000000000000000000000000000F50000F5000000000000000000000000000000000000000000000000000000000000000000000000000000000000000000000000000000000000000000
310
00000000000000000000000000000000000000000000000000000000000000000000000000000000000000F5000000000000000000000000000000000000000000000000F500000000000000000000000000000000000000000000000000F5000000000000000000000000000000000000000000000000F500000000000000
310
0000000000000000000000000000000000F500000000000000000000000000000000000000000000000000F5000000000000000000000000000000000000000000000000F50000F500000000000000000000000000000000000000000000000000000000000000000000000000000000000000000000000000000000000000
310
000000000000000000000000000000000000000000000000000000000000000000000000000000000000000000F5000000000000000000000000000000000000000000000000F500000000000000000000000000000000000000000000000000F5000000000000000000000000000000000000000000000000F50000000000
310
00000000000000000000000000000000000000F500000000000000000000000000000000000000000000000000F5000000000000000000000000000000000000000000000000F50000F50000000000000000000000000000000000000000000000000000000000000000000000000000000000000000000000000000000000
310
0000000000000000000000000000000000000000000000000000000000000000000000000000000000000000000000F5000000000000000000000000000000000000000000000000F500000000000000000000000000000000000000000000000000F5000000000000000000000000000000000000000000000000F5000000
310
000000000000000000000000000000000000000000F500000000000000000000000000000000000000000000000000F5000000000000000000000000000000000000000000000000F50000F5000000000000000000000000000000000000000000000000000000000000000000000000000000000000000000000000000000
310
00000000000000000000000000000000000000000000000000000000000000000000000000000000000000000000000000F5F5F5F5F5F5F5F5F5F5F5F5F5F5F5F5F5F5F5F5F5F5F5F5F5F5F5F5F5F5F5F5F5F5F5F5F5F5F5F5F5F5F5F5F5F5F5F5F5F5F5F5F5F5F5F5F5F5F5F5F5F5F5F5F5F5F5F5F5F5F5F5F5F5F5F5F5F5
310
F5F5F5F5F5F5F5F5F5F5F5F5F5F5F5F5F5F5F5F5F5F5F5F5F5F5F5F5F5F5F5F5F5F5F5F5F5F5F5F5F5F5F5F5F5F5F5F5F5F5F5F5F5F5F5F5F5F5F5F5F5F5F5F5F5F5F5F5F5F5F5F5F5F5F50000F500000000000000000000000000000000000000000000000000000000000000000000000000000000000000000000000000
310
000000000000000000000000000000000000000000000000000000000000000000000000000000000000000000000000000000F5F5F5F5F5F500000000000000000000000000000000000000F5F5F5F5F5F5F500000000000000000000000000000000000000F5F5F5F5F5F500000000000000000000000000000000000000
310
F5000000000000000000000000000000000000000000000000F500000000000000000000000000000000000000000000000000F5000000000000000000000000000000000000000000000000F50000F50000000000000000000000000000000000000000000000000000000000000000000000000000000000000000000000
310
0000000000000000000000000000000000000000000000000000000000000000000000000000000000000000000000000000000000F5F5F5F5F5F5F5F5F5F5F5F5F5F5F5F5F5F5F5F5F5F5F5F5F5F5F5F5F5F5F5F5F5F5F5F5F5F5F5F5F5F5F5F5F5F5F5F5F5F5F5F5F5F5F5F5F5F5F5F5F5F5F5F5F5F5F5F5F5F5F5F5F5F5
310
F5F5F5F5F5F5F5F5F5F5F5F5F5F5F5F5F5F5F5F5F5F5F5F5F5F5F5F5F5F5F5F5F5F5F5F5F5F5F5F5F5F5F5F5F5F5F5F5F5F5F5F5F5F5F5F5F5F5F5F5F5F5F5F5F5F5F5F5F5F5F5F5F5F5F5F5F5F5F50000F5000000000000000000000000000000000000000000000000000000000000000000000000000000000000000000
310
00000000000000000000000000000000000000000000000000000000000000000000000000000000000000000000000000000000000000F5F5F5F500F5F5F5F5F5F5F5F5F5F5F500F500000000000000F5F5F5F500F5F5F5F5F5F500F5F500F5F5F5F500000000000000F5F5F500F5F5F5F5F5F5F5F5F5F5F5F500F5000000
310
00000000F5000000000000000000000000000000000000000000000000F500000000000000000000000000000000000000000000000000F5000000000000000000000000000000000000000000000000F50000F500000000000000000000000000000000000000000000000000000000000000000000000000000000000000
310
000000000000000000000000000000000000000000000000000000000000000000000000000000000000000000000000000000000000000000F5F5F5F5F5F5F5F5F5F5F5F5F5F5F5F5F5F500000000000000F5F5F5F5F5F5F5F5F5F5F5F5F5F5F5F5F5F5F500000000000000F5F5F5F5F5F5F5F5F5F5F5F5F5F5F5F5F5F500
310
000000000000F5000000000000000000000000000000000000000000000000F500000000000000000000000000000000000000000000000000F5000000000000000000000000000000000000000000000000F50000F50000000000000000000000000000000000000000000000000000000000000000000000000000000000
310
0000000000000000000000000000000000000000000000000000000000000000000000000000000000000000000000000000000000000000000000F5F5F5F5F5F5F5F5F5F5F5F5F5F5F5F5F5F5F5F5F5F5F5F5F5F5F5F5F5F5F5F5F5F5F5F5F5F5F5F5F5F5F5F5F5F5F5F5F5F5F5F5F5F5F5F5F5F5F5F5F5F5F5F5F5F5F5F5
310
F5F5F5F5F5F5F5F5F5F5F5F5F5F5F5F5F5F5F5F5F5F5F5F5F5F5F5F5F5F5F5F5F5F5F5F5F5F5F5F5F5F5F5F5F5F5F5F5F5F5F5F5F5F5F5F5F5F5F5F5F5F5F5F5F5F5F5F5F5F5F5F5F5F5F5F5F5F5F5F5F5F5F5F5F50000F5000000000000000000000000000000000000000000000000000000000000000000000000000000
310
00000000000000000000000000000000000000000000000000000000000000000000000000000000000000000000000000000000000000000000000000F5000000000000000000000000000000000000000000000000F500000000000000000000000000000000000000000000000000F50000000000000000000000000000
310
00000000000000000000F5000000000000000000000000000000000000000000000000F500000000000000000000000000000000000000000000000000F5000000000000000000000000000000000000000000000000F50000F500000000000000000000000000000000000000000000000000000000000000000000000000
310
000000000000000000000000000000000000000000000000000000000000000000000000000000000000000000000000000000000000000000000000000000F5000000000000000000000000000000000000000000000000F500000000000000000000000000000000000000000000000000F5000000000000000000000000
310
000000000000000000000000F5000000000000000000000000000000000000000000000000F500000000000000000000000000000000000000000000000000F5000000000000000000000000000000000000000000000000F50000F50000000000000000000000000000000000000000000000000000000000000000000000
310
0000000000000000000000000000000000000000000000000000000000000000000000000000000000000000000000000000000000000000000000000000000000F5000000000000000000000000000000000000000000000000F500000000000000000000000000000000000000000000000000F500000000000000000000
310
0000000000000000000000000000F5000000000000000000000000000000000000000000000000F500000000000000000000000000000000000000000000000000F5000000000000000000000000000000000000000000000000F50000F5000000000000000000000000000000000000000000000000000000000000000000
310
00000000000000000000000000000000000000000000000000000000000000000000000000000000000000000000000000000000000000000000000000000000000000F5000000000000000000000000000000000000000000000000F500000000000000000000000000000000000000000000000000F50000000000000000
310
00000000000000000000000000000000F5000000000000000000000000000000000000000000000000F500000000000000000000000000000000000000000000000000F5000000000000000000000000000000000000000000000000F50000F500000000000000000000000000000000000000000000000000000000000000
310
000000000000000000000000000000000000000000000000000000000000000000000000000000000000000000000000000000000000000000000000000000000000000000F5000000000000000000000000000000000000000000000000F500000000000000000000000000000000000000000000000000F5000000000000
310
000000000000000000000000000000000000F5000000000000000000DCDCDC000000000000000000000000F500000000000000000000000000000000000000000000000000F5000000000000000000000000000000000000000000000000F50000F50000000000000000000000000000000000000000000000000000000000
310
0000000000000000000000000000000000000000000000000000000000000000000000000000000000000000000000000000000000000000000000000000000000000000000000F5000000000000000000000000000000000000000000000000F500000000000000000000000000000000000000000000000000F500000000
310
000000000000DCDCDCDC00000000000000000000F500000000000000000000000000DC00000000000000000000F500000000000000000000000000000000000000000000000000F5000000000000000000000000000000000000000000000000F50000F5000000000000000000000000000000000000000000000000000000
310
00000000000000000000000000000000000000000000000000000000000000000000000000000000000000000000000000000000000000000000000000000000000000000000000000F5000000000000000000000000000000000000000000000000F500000000000000000000000000000000000000000000000000F50000
310
00000000000000002DBE2DDCDC000000000000000000F5000000000000000000002DBEDCDCDC000000000000000000F500000000000000000000000000000000000000000000000000F5000000000000000000000000000000000000000000000000F50000F500000000000000000000000000000000000000000000000000
310
000000000000000000000000000000000000000000000000000000000000000000000000000000000000000000000000000000000000000000000000000000000000000000000000000000F5000000000000000000000000000000000000000000000000F500000000000000000000000000000000000000000000000000F5
310
000000000000000000002D2D2D2DDC000000000000000000F500000000000000000000DCDCDCDCDC000000000000000000F500000000000000000000000000000000000000000000000000F5000000000000000000000000000000000000000000000000F50000F50000000000000000000000000000000000000000000000
310
0000000000000000000000000000000000000000000000000000000000000000000000000000000000000000000000000000000000000000000000000000000000000000000000000000000000F5000000000000000000000000000000000000000000000000F5000000000000000000000000000000000000000000000000
310
00F5000000000000000000002D2D2D2DDC000000000000000000F5000000000000000000002D2DDCDCDC000000000000000000F500000000000000000000000000000000000000000000000000F5000000000000000000000000000000000000000000000000F50000F5000000000000000000000000000000000000000000
310
00000000000000000000000000000000000000000000000000000000000000000000000000000000000000000000000000000000000000000000000000000000000000000000000000000000000000F5000000000000000000000000000000000000000000000000F500000000000000000000000000000000000000000000
310
000000F5000000000000000000000000000000000000000000000000F500000000000000000000000000DC00000000000000000000F500000000000000000000000000000000000000000000000000F5000000000000000000000000000000000000000000000000F50000F500000000000000000000000000000000000000
310
000000000000000000000000000000000000000000000000000000000000000000000000000000000000000000000000000000000000000000000000000000000000000000000000000000000000000000F5000000000000000000000000000000000000000000000000F50000000000000000000000000000000000000000
310
0000000000F5000000000000000000000000000000000000000000000000F5000000000000000000000000000000000000000000000000F500000000000000000000000000000000000000000000000000F5000000000000000000000000000000000000000000000000F50000F50000000000000000000000000000000000
310
0000000000000000000000000000000000000000000000000000000000000000000000000000000000000000000000000000000000000000000000000000000000000000000000000000000000000000000000F5000000000000000000000000000000000000000000000000F5000000000000000000000000000000000000
310
00000000000000F5000000000000000000000000000000000000000000000000F5000000000000000000000000000000000000000000000000F500000000000000000000000000000000000000000000000000F5000000000000000000000000000000000000000000000000F50000F5000000000000000000000000000000
310
00000000000000000000000000000000000000000000000000000000000000000000000000000000000000000000000000000000000000000000000000000000000000000000000000000000000000000000000000F5000000000000000000000000000000000000000000000000F500000000000000000000000000000000
310
000000000000000000F5000000000000000000000000000000000000000000000000F5000000000000000000000000000000000000000000000000F500000000000000000000000000000000000000000000000000F5000000000000000000000000000000000000000000000000F50000F500000000000000000000000000
310
000000000000000000000000000000000000000000000000000000000000000000000000000000000000000000000000000000000000000000000000000000000000000000000000000000000000000000000000000000F5000000000000000000000000000000000000000000000000F50000000000000000000000000000
310
0000000000000000000000F5000000000000000000000000000000000000000000000000F5000000000000000000000000000000000000000000000000F500000000000000000000000000000000000000000000000000F5000000000000000000000000000000000000000000000000F50000F50000000000000000000000
310
0000000000000000000000000000000000000000000000000000000000000000000000000000000000000000000000000000000000000000000000000000000000000000000000000000000000000000000000000000000000F5000000000000000000000000000000000000000000000000F5000000000000000000000000
310
00000000000000000000000000F5000000000000000000000000000000000000000000000000F5000000000000000000000000000000000000000000000000F500000000000000000000000000000000000000000000000000F5000000000000000000000000000000000000000000000000F50000F5000000000000000000
310
00000000000000000000000000000000000000000000000000000000000000000000000000000000000000000000000000000000000000000000000000000000000000000000000000000000000000000000000000000000000000F5F5F5F5F5F5F5F5F5F5F5F5F5F5F5F5F5F5F5F5F5F5F5F5F5F5F5F5F5F5F5F5F5F5F5F5
310
F5F5F5F5F5F5F5F5F5F5F5F5F5F5F5F5F5F5F5F5F5F5F5F5F5F5F5F5F5F5F5F5F5F5F5F5F5F5F5F5F5F5F5F5F5F5F5F5F5F5F5F5F5F5F5F5F5F5F5F5F5F5F5F5F5F5F5F5F5F5F5F5F5F5F5F5F5F5F5F5F5F5F5F5F5F5F5F5F5F5F5F5F5F5F5F5F5F5F5F5F5F5F5F5F5F5F5F5F5F5F5F5F5F5F5F5F50000F500000000000000
310
000000000000000000000000000000000000000000000000000000000000000000000000000000000000000000000000000000000000000000000000000000000000000000000000000000000000000000000000000000000000000000F5000000000000000000000000000000000000000000000000F50000000000000000
310
0000000000000000000000000000000000F5F500F5F5F5F500F5F5F50000000000000000000000000000F5F500F5F5F500000000000000000000000000000000000000F500000000000000000000000000000000000000000000000000F5000000000000000000000000000000000000000000000000F50000F50000000000
310
0000000000000000000000000000000000000000000000000000000000000000000000000000000000000000000000000000000000000000000000000000000000000000000000000000000000000000000000000000000000000000000000F5000000000000000000000000000000000000000000000000F5000000000000
310
00000000000000000000000000000000000000F5F5F5F5F5F5F5F5F5F5F50000000000000000000000000000F5F5F5F5F5F500000000000000000000000000000000000000F500000000000000000000000000000000000000000000000000F5000000000000000000000000000000000000000000000000F50000F5000000
310
00000000000000000000000000000000000000000000000000000000000000000000000000000000000000000000000000000000000000000000000000000000000000000000000000000000000000000000000000000000000000000000000000F5F5F5F5F5F5F5F5F5F5F5F5F5F5F5F5F5F5F5F5F5F5F5F5F5F5F5F5F5F5
310
F5F5F5F5F5F5F5F5F5F5F5F5F5F5F5F5F5F5F5F5F5F5F5F5F5F5F5F5F5F5F5F5F5F5F5F5F5F5F5F5F5F5F5F5F5F5F5F5F5F5F5F5F5F5F5F5F5F5F5F5F5F5F5F5F5F5F5F5F5F5F5F5F5F5F5F5F5F5F5F5F5F5F5F5F5F5F5F5F5F5F5F5F5F5F5F5F5F5F5F5F5F5F5F5F5F5F5F5F5F5F5F5F5F5F5F5F5F5F5F5F5F5F50000F500
310
000000000000000000000000000000000000000000000000000000000000000000000000000000000000000000000000000000000000000000000000000000000000000000000000000000000000000000000000000000000000000000000000000000F5000000000000000000000000000000000000000000000000F50000
310
0000000000000000000000000000000000000000000000F5F5F5F5F5F5F5F5F5F5F5F5F5F5F5F5F5F500000000000000F5F5F5F5F5F5F5F5F5F5F5F5F5F5F5F5F5F5F5000000000000F500000000000000000000000000000000000000000000000000F5000000000000000000000000000000000000000000000000F50000
310
F500000000000000000000000000000000000000000000000000000000000000000000000000000000000000000000000000000000000000000000000000000000000000000000000000000000000000000000000000000000000000000000000000000000F5F5F5F5F5F5F5F5F5F5F5F5F5F5F5F5F5F5F5F5F5F5F5F5F5F5
310
F5F5F5F5F5F5F5F5F5F5F5F5F5F5F5F5F5F5F5F5F5F5F5F5F5F5F5F5F5F5F5F5F5F5F5F5F5F5F5F5F5F5F5F5F5F5F5F5F5F5F5F5F5F5F5F5F5F5F5F5F5F5F5F5F5F5F5F5F5F5F5F5F5F5F5F5F5F5F5F5F5F5F5F5F5F5F5F5F5F5F5F5F5F5F5F5F5F5F5F5F5F5F5F5F5F5F5F5F5F5F5F5F5F5F5F5F5F5F5F5F5F5F5F5F5F5F5
310
0000F500000000000000000000000000000000000000000000000000000000000000000000000000000000000000000000000000000000000000000000000000000000000000000000000000000000000000000000000000000000000000000000000000000000F50000000000000000000000000000000000000000000000
310
00F500000000000000000000000000000000000000000000000000F5000000000000000000000000000000000000000000000000F5000000000000000000000000000000000000000000000000F500000000000000000000000000000000000000000000000000F50000000000000000000000000000000000000000000000
310
00F50000F500000000000000000000000000000000000000000000000000000000000000000000000000000000000000000000000000000000000000000000000000000000000000000000000000000000000000000000000000000000000000000000000000000000F5000000000000000000000000000000000000000000
310
000000F500000000000000000000000000000000000000000000000000F5000000000000000000000000000000000000000000000000F5000000000000000000000000000000000000000000000000F500000000000000000000000000000000000000000000000000F5000000000000000000000000000000000000000000
310
000000F50000F500000000000000000000000000000000000000000000000000000000000000000000000000000000000000000000000000000000000000000000000000000000000000000000000000000000000000000000000000000000000000000000000000000000F500000000000000000000000000000000000000
310
0000000000F500000000000000000000000000000000000000000000000000F5000000000000000000000000000000000000000000000000F5000000000000000000000000000000000000000000000000F500000000000000000000000000000000000000000000000000F500000000000000000000000000000000000000
310
0000000000F50000F500000000000000000000000000000000000000000000000000000000000000000000000000000000000000000000000000000000000000000000000000000000000000000000000000000000000000000000000000000000000000000000000000000000F50000000000000000000000000000000000
310
00000000000000F500000000000000000000000000000000000000000000000000F5000000000000000000000000000000000000000000000000F5000000000000000000000000000000000000000000000000F500000000000000000000000000000000000000000000000000F50000000000000000000000000000000000
310
00000000000000F50000F500000000000000000000000000000000000000000000000000000000000000000000000000000000000000000000000000000000000000000000000000000000000000000000000000000000000000000000000000000000000000000000000000000000F5000000000000000000000000000000
310
000000000000000000F500000000000000000000000000000000000000000000000000F5000000000000000000000000000000000000000000000000F5000000000000000000000000000000000000000000000000F500000000000000000000000000000000000000000000000000F5000000000000000000000000000000
310
000000000000000000F50000F500000000000000000000000000000000000000000000000000000000000000000000000000000000000000000000000000000000000000000000000000000000000000000000000000000000000000000000000000000000000000000000000000000000F500000000000000000000000000
310
0000000000000000000000F50000000000000000000000DCDCDC0000000000000000000000F5000000000000000000000000000000000000000000000000F5000000000000000000DCDCDC000000000000000000000000F500000000000000000000000000000000000000000000000000F500000000000000000000000000
310
0000000000000000000000F50000F500000000000000000000000000000000000000000000000000000000000000000000000000000000000000000000000000000000000000000000000000000000000000000000000000000000000000000000000000000000000000000000000000000000F50000000000000000000000
310
00000000000000000000000000F50000000000000000000000DCDCDC0000000000000000000000F5000000000000000000000000000000000000000000000000F500000000000000000000000000DC00000000000000000000F500000000000000000000000000000000000000000000000000F50000000000000000000000
310
00000000000000000000000000F50000F500000000000000000000000000000000000000000000000000000000000000000000000000000000000000000000000000000000000000000000000000000000000000000000000000000000000000000000000000000000000000000000000000000000F5000000000000000000
310
000000000000000000000000000000F500000000000000000000002D2D2DDCDC000000000000000000F5000000000000000000000000000000000000000000000000F5000000000000000000002DBEDCDCDC000000000000000000F500000000000000000000000000000000000000000000000000F5000000000000000000
310
000000000000000000000000000000F50000F500000000000000000000000000000000000000000000000000000000000000000000000000000000000000000000000000000000000000000000000000000000000000000000000000000000000000000000000000000000000000000000000000000000F500000000000000
310
0000000000000000000000000000000000F500000000000000000000002D2D2DDCDC000000000000000000F5000000000000000000000000000000000000000000000000F5000000000000000000002DDCDCDCDC000000000000000000F500000000000000000000000000000000000000000000000000F500000000000000
310
0000000000000000000000000000000000F50000F500000000000000000000000000000000000000000000000000000000000000000000000000000000000000000000000000000000000000000000000000000000000000000000000000000000000000000000000000000000000000000000000000000000F50000000000
310
00000000000000000000000000000000000000F500000000000000000000002D2D2DDC00000000000000000000F5000000000000000000000000000000000000000000000000F5000000000000000000002D2DDCDCDC000000000000000000F500000000000000000000000000000000000000000000000000F50000000000
310
00000000000000000000000000000000000000F50000F500000000000000000000000000000000000000000000000000000000000000000000000000000000000000000000000000000000000000000000000000000000000000000000000000000000000000000000000000000000000000000000000000000000F5000000
310
000000000000000000000000000000000000000000F500000000000000000000000000000000000000000000000000F5000000000000000000000000000000000000000000000000F5000000000000000000000000000000000000000000000000F500000000000000000000000000000000000000000000000000F5000000
310
000000000000000000000000000000000000000000F50000F500000000000000000000000000000000000000000000000000000000000000000000000000000000000000000000000000000000000000000000000000000000000000000000000000000000000000000000000000000000000000000000000000000000F500
310
0000000000000000000000000000000000000000000000F500000000000000000000000000000000000000000000000000F5000000000000000000000000000000000000000000000000F5000000000000000000000000000000000000000000000000F500000000000000000000000000000000000000000000000000F500
310
0000000000000000000000000000000000000000000000F50000F500000000000000000000000000000000000000000000000000000000000000000000000000000000000000000000000000000000000000000000000000000000000000000000000000000000000000000000000000000000000000000000000000000000
310
F5000000000000000000000000000000000000000000000000F500000000000000000000000000000000000000000000000000F5000000000000000000000000000000000000000000000000F5000000000000000000000000000000000000000000000000F500000000000000000000000000000000000000000000000000
310
F5000000000000000000000000000000000000000000000000F50000F50000000000000000000000000000000000000000000000000000000000000000000000000000000000000000000000000000000000000000000000000000000000000000000000000000000000000000000000000000000000000000000000000000
310
0000F5000000000000000000000000000000000000000000000000F500000000000000000000000000000000000000000000000000F5000000000000000000000000000000000000000000000000F5000000000000000000000000000000000000000000000000F50000000000000000000000000000000000000000000000
310
0000F5000000000000000000000000000000000000000000000000F50000F5000000000000000000000000000000000000000000000000000000000000000000000000000000000000000000000000000000000000000000000000000000000000000000000000000000000000000000000000000000000000000000000000
310
00000000F5000000000000000000000000000000000000000000000000F500000000000000000000000000000000000000000000000000F5000000000000000000000000000000000000000000000000F5000000000000000000000000000000000000000000000000F5000000000000000000000000000000000000000000
310
00000000F5000000000000000000000000000000000000000000000000F50000F500000000000000000000000000000000000000000000000000000000000000000000000000000000000000000000000000000000000000000000000000000000000000000000000000000000000000000000000000000000000000000000
310
000000000000F5000000000000000000000000000000000000000000000000F500000000000000000000000000000000000000000000000000F5000000000000000000000000000000000000000000000000F5000000000000000000000000000000000000000000000000F500000000000000000000000000000000000000
310
000000000000F5000000000000000000000000000000000000000000000000F50000F50000000000000000000000000000000000000000000000000000000000000000000000000000000000000000000000000000000000000000000000000000000000000000000000000000000000000000000000000000000000000000
310
0000000000000000F5F5F5F5F5F5F5F5F5F5F5F5F5F5F5F5F5F5F5F5F5F5F5F5F5F5F5F5F5F5F5F5F5F5F5F5F5F5F5F5F5F5F5F5F5F5F5F5F5F5F5F5F5F5F5F5F5F5F5F5F5F5F5F5F5F5F5F5F5F5F5F5F5F5F5F5F5F5F5F5F5F5F5F5F5F5F5F5F5F5F5F5F5F5F5F5F5F5F5F5F5F5F5F5F5F5F5F5F5F5F5F5F5F5F5F5F5F5F5
310
F5F5F5F5F5F5F5F5F5F5F5F5F5F5F5F5F5F5F5F5F5F5F5F5F5F5F5F5F5F5F5F5F5F50000F5000000000000000000000000000000000000000000000000000000000000000000000000000000000000000000000000000000000000000000000000000000000000000000000000000000000000000000000000000000000000
310
00000000000000000000F5000000000000000000000000000000000000000000000000F5F5F5F5F5F5F5F5F5F5F5F50000000000000000000000000000F5000000000000000000000000000000000000000000000000F5F5F5F5F5F500000000000000000000000000000000000000F5000000000000000000000000000000
310
00000000000000000000F5000000000000000000000000000000000000000000000000F50000F500000000000000000000000000000000000000000000000000000000000000000000000000000000000000000000000000000000000000000000000000000000000000000000000000000000000000000000000000000000
310
000000000000000000000000F5000000000000000000000000000000000000000000000000F5F5F5F5F5F5F5F5F5F5F5F50000000000000000000000000000F5000000000000000000000000000000000000000000000000F5F5F5F5F5F500000000000000000000000000000000000000F500000000000000000000000000
310
000000000000000000000000F5000000000000000000000000000000000000000000000000F50000F50000000000000000000000000000000000000000000000000000000000000000000000000000000000000000000000000000000000000000000000000000000000000000000000000000000000000000000000000000
310
0000000000000000000000000000F5F5F5F5F5F5F5F5F5F5F5F5F5F5F5F5F5F5F5F5F5F5F5F5F5F5F5F5F5F5F5F5F5F5F5F5F5F5F5F5F5F5F5F5F5F5F5F5F5F5F5F5F5F5F5F5F5F5F5F5F5F5F5F5F5F5F5F5F5F5F5F5F5F5F5F5F5F5F5F5F5F5F5F5F5F5F5F5F5F5F5F5F5F5F5F5F5F5F5F5F5F5F5F5F5F5F5F5F5F5F5F5F5
310
F5F5F5F5F5F5F5F5F5F5F5F5F5F5F5F5F5F5F5F5F5F5F5F5F5F5F5F5F5F5F5F5F5F5F5F5F5F5F5F50000F5000000000000000000000000000000000000000000000000000000000000000000000000000000000000000000000000000000000000000000000000000000000000000000000000000000000000000000000000
310
00000000000000000000000000000000F5000000000000000000000000000000000000000000000000F5F5F5F5F5F5F5F5F5F5F5F5F5F5F5F5F5F5F500000000000000F5000000000000000000000000000000000000000000000000F5F5F5F5F5F5F5F5F5F5F5F5F5F5F5F5F5F5F5000000000000F5000000000000000000
310
00000000000000000000000000000000F5000000000000000000000000000000000000000000000000F50000F500000000000000000000000000000000000000000000000000000000000000000000000000000000000000000000000000000000000000000000000000000000000000000000000000000000000000000000
310
000000000000000000000000000000000000F5F5F5F5F5F5F5F5F5F5F5F5F5F5F5F5F5F5F5F5F5F5F5F5F5F5F5F5F5F5F5F5F5F5F5F5F5F5F5F5F5F5F5F5F5F5F5F5F5F5F5F5F5F5F5F5F5F5F5F5F5F5F5F5F5F5F5F5F5F5F5F5F5F5F5F5F5F5F5F5F5F5F5F5F5F5F5F5F5F5F5F5F5F5F5F5F5F5F5F5F5F5F5F5F5F5F5F5F5
310
F5F5F5F5F5F5F5F5F5F5F5F5F5F5F5F5F5F5F5F5F5F5F5F5F5F5F5F5F5F5F5F5F5F5F5F5F5F5F5F5F5F5F5F50000F50000000000000000000000000000000000000000000000000000000000000000000000000000000000000000000000000000000000000000000000000000000000000000000000000000000000000000
310
0000000000000000000000000000000000000000F5000000000000000000000000000000000000000000000000F500000000000000000000000000000000000000000000000000F5000000000000000000000000000000000000000000000000F5000000000000000000000000000000000000000000000000F50000000000
310
0000000000000000000000000000000000000000F5000000000000000000000000000000000000000000000000F50000F5000000000000000000000000000000000000000000000000000000000000000000000000000000000000000000000000000000000000000000000000000000000000000000000000000000000000
310
00000000000000000000000000000000000000000000F5000000000000000000000000000000000000000000000000F500000000000000000000000000000000000000000000000000F5000000000000000000000000000000000000000000000000F5000000000000000000000000000000000000000000000000F5000000
310
00000000000000000000000000000000000000000000F5000000000000000000000000000000000000000000000000F50000F500000000000000000000000000000000000000000000000000000000000000000000000000000000000000000000000000000000000000000000000000000000000000000000000000000000
310
000000000000000000000000000000000000000000000000F5000000000000000000000000000000000000000000000000F500000000000000000000000000000000000000000000000000F5000000000000000000000000000000000000000000000000F5000000000000000000000000000000000000000000000000F500
310
000000000000000000000000000000000000000000000000F5000000000000000000000000000000000000000000000000F50000F50000000000000000000000000000000000000000000000000000000000000000000000000000000000000000000000000000000000000000000000000000000000000000000000000000
310
0000000000000000000000000000000000000000000000000000F5000000000000000000000000000000000000000000000000F500000000000000000000000000000000000000000000000000F5000000000000000000000000000000000000000000000000F5000000000000000000000000000000000000000000000000
310
F500000000000000000000000000000000000000000000000000F5000000000000000000000000000000000000000000000000F50000F5000000000000000000000000000000000000000000000000000000000000000000000000000000000000000000000000000000000000000000000000000000000000000000000000
310
00000000000000000000000000000000000000000000000000000000F5000000000000000000000000000000000000000000000000F500000000000000000000000000000000000000000000000000F5000000000000000000000000000000000000000000000000F500000000000000000000000000000000000000000000
310
0000F500000000000000000000000000000000000000000000000000F5000000000000000000000000000000000000000000000000F50000F500000000000000000000000000000000000000000000000000000000000000000000000000000000000000000000000000000000000000000000000000000000000000000000
310
000000000000000000000000000000000000000000000000000000000000F50000000000000000000000DCDCDC00000000000000000000F500000000000000000000000000000000000000000000000000F5000000000000000000000000000000000000000000000000F5000000000000000000DCDCDC0000000000000000
310
00000000F500000000000000000000000000000000000000000000000000F5000000000000000000000000000000000000000000000000F50000F50000000000000000000000000000000000000000000000000000000000000000000000000000000000000000000000000000000000000000000000000000000000000000
310
0000000000000000000000000000000000000000000000000000000000000000F50000000000000000000000DCDC0000000000000000000000F500000000000000000000000000000000000000000000000000F5000000000000000000000000000000000000000000000000F500000000000000000000000000DC00000000
310
000000000000F500000000000000000000000000000000000000000000000000F5000000000000000000000000000000000000000000000000F50000F5000000000000000000000000000000000000000000000000000000000000000000000000000000000000000000000000000000000000000000000000000000000000
310
00000000000000000000000000000000000000000000000000000000000000000000F500000000000000000000002D2DDCDC000000000000000000F500000000000000000000000000000000000000000000000000F5000000000000000000000000000000000000000000000000F5000000000000000000002DDCDCDCDC00
310
0000000000000000F500000000000000000000000000000000000000000000000000F5000000000000000000000000000000000000000000000000F50000F500000000000000000000000000000000000000000000000000000000000000000000000000000000000000000000000000000000000000000000000000000000
310
000000000000000000000000000000000000000000000000000000000000000000000000F500000000000000000000002D2DDCDC000000000000000000F500000000000000000000000000000000000000000000000000F5000000000000000000000000000000000000000000000000F5000000000000000000002D2DDCDC
310
DC000000000000000000F500000000000000000000000000000000000000000000000000F5000000000000000000000000000000000000000000000000F50000F50000000000000000000000000000000000000000000000000000000000000000000000000000000000000000000000000000000000000000000000000000
310
0000000000000000000000000000000000000000000000000000000000000000000000000000F5000000000000000000000000000000000000000000000000F500000000000000000000000000000000000000000000000000F5000000000000000000000000000000000000000000000000F5000000000000000000000000
310
00DC00000000000000000000F500000000000000000000000000000000000000000000000000F5000000000000000000000000000000000000000000000000F50000F5000000000000000000000000000000000000000000000000000000000000000000000000000000000000000000000000000000000000000000000000
310
00000000000000000000000000000000000000000000000000000000000000000000000000000000F5000000000000000000000000000000000000000000000000F500000000000000000000000000000000000000000000000000F5000000000000000000000000000000000000000000000000F500000000000000000000
310
0000000000000000000000000000F500000000000000000000000000000000000000000000000000F5000000000000000000000000000000000000000000000000F50000F500000000000000000000000000000000000000000000000000000000000000000000000000000000000000000000000000000000000000000000
310
000000000000000000000000000000000000000000000000000000000000000000000000000000000000F5000000000000000000000000000000000000000000000000F500000000000000000000000000000000000000000000000000F5000000000000000000000000000000000000000000000000F50000000000000000
310
00000000000000000000000000000000F500000000000000000000000000000000000000000000000000F5000000000000000000000000000000000000000000000000F50000F50000000000000000000000000000000000000000000000000000000000000000000000000000000000000000000000000000000000000000
310
0000000000000000000000000000000000000000000000000000000000000000000000000000000000000000F5000000000000000000000000000000000000000000000000F500000000000000000000000000000000000000000000000000F5000000000000000000000000000000000000000000000000F5000000000000
310
000000000000000000000000000000000000F500000000000000000000000000000000000000000000000000F5000000000000000000000000000000000000000000000000F50000F5000000000000000000000000000000000000000000000000000000000000000000000000000000000000000000000000000000000000
310
00000000000000000000000000000000000000000000000000000000000000000000000000000000000000000000F5000000000000000000000000000000000000000000000000F500000000000000000000000000000000000000000000000000F5000000000000000000000000000000000000000000000000F500000000
310
0000000000000000000000000000000000000000F500000000000000000000000000000000000000000000000000F5000000000000000000000000000000000000000000000000F50000F500000000000000000000000000000000000000000000000000000000000000000000000000000000000000000000000000000000
310
000000000000000000000000000000000000000000000000000000000000000000000000000000000000000000000000F5000000000000000000000000000000000000000000000000F500000000000000000000000000000000000000000000000000F5000000000000000000000000000000000000000000000000F50000
310
00000000000000000000000000000000000000000000F500000000000000000000000000000000000000000000000000F5000000000000000000000000000000000000000000000000F50000F50000000000000000000000000000000000000000000000000000000000000000000000000000000000000000000000000000
310
0000000000000000000000000000000000000000000000000000000000000000000000000000000000000000000000000000F5000000000000000000000000000000000000000000000000F500000000000000000000000000000000000000000000000000F5000000000000000000000000000000000000000000000000F5
310
000000000000000000000000000000000000000000000000F500000000000000000000000000000000000000000000000000F5000000000000000000000000000000000000000000000000F50000F5000000000000000000000000000000000000000000000000000000000000000000000000000000000000000000000000
310
00000000000000000000000000000000000000000000000000000000000000000000000000000000000000000000000000000000F5F5F5F5F5F5F5F5F5F5F5F5F5F5F5F5F5F5F5F5F5F5F5F5F5F5F5F5F5F5F5F5F5F5F5F5F5F5F5F5F5F5F5F5F5F5F5F5F5F5F5F5F5F5F5F5F5F5F5F5F5F5F5F5F5F5F5F5F5F5F5F5F5F5F5
310
F5F5F5F5F5F5F5F5F5F5F5F5F5F5F5F5F5F5F5F5F5F5F5F5F5F5F5F5F5F5F5F5F5F5F5F5F5F5F5F5F5F5F5F5F5F5F5F5F5F5F5F5F5F5F5F5F5F5F5F5F5F5F5F5F5F5F5F5F5F5F5F5F5F5F5F5F5F50000F500000000000000000000000000000000000000000000000000000000000000000000000000000000000000000000
310
000000000000000000000000000000000000000000000000000000000000000000000000000000000000000000000000000000000000F5F5F5F5F5F5F5F5F5F5F5F500000000000000000000000000F500000000000000000000000000000000000000000000000000F5000000000000000000000000000000000000000000
310
000000F5F5F5F5F5F500000000000000000000000000000000000000F500000000000000000000000000000000000000000000000000F5000000000000000000000000000000000000000000000000F50000F50000000000000000000000000000000000000000000000000000000000000000000000000000000000000000
310
0000000000000000000000000000000000000000000000000000000000000000000000000000000000000000000000000000000000000000F5F5F5F5F5F5F5F5F5F5F5F5F5F5F5F5F5F5F5F5F5F5F5F5F5F5F5F5F5F5F5F5F5F5F5F5F5F5F5F5F5F5F5F5F5F5F5F5F5F5F5F5F5F5F5F5F5F5F5F5F5F5F5F5F5F5F5F5F5F5F5
310
F5F5F5F5F5F5F5F5F5F5F5F5F5F5F5F5F5F5F5F5F5F5F5F5F5F5F5F5F5F5F5F5F5F5F5F5F5F5F5F5F5F5F5F5F5F5F5F5F5F5F5F5F5F5F5F5F5F5F5F5F5F5F5F5F5F5F5F5F5F5F5F5F5F5F5F5F5F5F5F5F5F50000F5000000000000000000000000000000000000000000000000000000000000000000000000000000000000
310
00000000000000000000000000000000000000000000000000000000000000000000000000000000000000000000000000000000000000000000F5F5F5F500F5F5F5F5F500F5F5F5F5F5F5F500000000000000F500000000000000000000000000000000000000000000000000F50000000000000000000000000000000000
310
00000000000000F5F5F5F500F5F5F5F5F5F5F5F5F5F5F500F500000000000000F500000000000000000000000000000000000000000000000000F5000000000000000000000000000000000000000000000000F50000F500000000000000000000000000000000000000000000000000000000000000000000000000000000
310
000000000000000000000000000000000000000000000000000000000000000000000000000000000000000000000000000000000000000000000000F5F5F5F5F5F5F5F5F5F5F5F5F5F5F5F5F5F500000000000000F500000000000000000000000000000000000000000000000000F5000000000000000000000000000000
310
000000000000000000F5F5F5F5F5F5F5F5F5F5F5F5F5F5F5F5F5F500000000000000F500000000000000000000000000000000000000000000000000F5000000000000000000000000000000000000000000000000F50000F50000000000000000000000000000000000000000000000000000000000000000000000000000
310
0000000000000000000000000000000000000000000000000000000000000000000000000000000000000000000000000000000000000000000000000000F5F5F5F5F5F5F5F5F5F5F5F5F5F5F5F5F5F5F5F5F5F5F5F5F5F5F5F5F5F5F5F5F5F5F5F5F5F5F5F5F5F5F5F5F5F5F5F5F5F5F5F5F5F5F5F5F5F5F5F5F5F5F5F5F5
310
F5F5F5F5F5F5F5F5F5F5F5F5F5F5F5F5F5F5F5F5F5F5F5F5F5F5F5F5F5F5F5F5F5F5F5F5F5F5F5F5F5F5F5F5F5F5F5F5F5F5F5F5F5F5F5F5F5F5F5F5F5F5F5F5F5F5F5F5F5F5F5F5F5F5F5F5F5F5F5F5F5F5F5F5F5F5F5F50000F5000000000000000000000000000000000000000000000000000000000000000000000000
310
00000000000000000000000000000000000000000000000000000000000000000000000000000000000000000000000000000000000000000000000000000000F50000F5F5F5F5F5F5F5F5F5F5F5F5F500F5F5F5F5F500F5F5F5F5F5F5F5F5F5F500F5F5F5F5F5F5F5F5F5F5F5F5F5F5F5F5F5F5F5F5F5F5F5F5F5F500F500
310
F5F5F5F5F5F5F5F5F5F5F5F5F500000000000000000000000000000000000000000000000000000000000000000000000000000000000000000000000000000000000000000000000000000000000000000000000000000000000000F500000000000000000000000000000000000000000000000000000000000000000000
310
000000000000000000000000000000000000000000000000000000000000000000000000000000000000000000000000000000000000000000000000000000000000F50000F5F5F5F5F5F5F5F5F500F5F5F500F5F5F5F500F5F5F5F5F5F500F5F5F5F500F5F500F5F5F5F5F5F500F5F5F5F500F5F5F5F5F5F5F5F5F5F5F500
310
F500F5F5F5F5F5F5F5F5F5F5F5F5F500000000000000000000000000000000000000000000000000000000000000000000000000000000000000000000000000000000000000000000000000000000000000000000000000000000000000F50000000000000000000000000000000000000000000000000000000000000000
310
0000000000000000000000000000000000000000000000000000000000000000000000000000000000000000000000000000000000000000000000000000000000000000F5F5F5F5F5F5F5F5F5F5F5F5F5F5F5F5F5F5F5F5F5F5F5F5F5F5F5F5F5F5F5F5F5F5F5F5F5F5F5F5F5F5F5F5F5F5F5F5F5F5F5F5F5F5F5F5F5F5F5
310
F5F5F5F5F5F5F5F5F5F5F5F5F5F5F5F5F5F5F5F5F5F5F5F5F5F5F5F5F5F5F5F5F5F5F5F5F5F5F5F5F5F5F5F5F5F5F5F5F5F5F5F5F5F5F5F5F5F5F5F5F5F5F5F5F5F5F5F5F5F5F5F5F5F5F5F5F5F5F5F5F5F5F5F5F5F5F5F5F5F5F5F5F5F5F5F5F5000000000000000000000000000000000000000000000000000000000000
310
0000000000000000000000000000000000000000
  0
XRECORD
  5
3ABB
102
{ACAD_REACTORS
330
870
102
}
330
870
100
AcDbXrecord
280
     1
102
MATERIAL
148
0.0
149
0.0
149
0.0
 93
        0
 94
      127
282
     0
 72
     0
 77
     0
171
     0
175
     0
179
     0
273
     0
  0
XRECORD
  5
872
102
{ACAD_REACTORS
330
870
102
}
330
870
100
AcDbXrecord
280
     1
270
     1
271
     1
  0
XRECORD
  5
871
102
{ACAD_REACTORS
330
870
102
}
330
870
100
AcDbXrecord
280
     1
270
     1
271
     1
  0
XRECORD
  5
875
102
{ACAD_REACTORS
330
870
102
}
330
870
100
AcDbXrecord
280
     1
270
     1
271
     1
  0
XRECORD
  5
874
102
{ACAD_REACTORS
330
870
102
}
330
870
100
AcDbXrecord
280
     1
270
     1
271
     1
  0
XRECORD
  5
876
102
{ACAD_REACTORS
330
870
102
}
330
870
100
AcDbXrecord
280
     1
270
     1
271
     1
  0
XRECORD
  5
873
102
{ACAD_REACTORS
330
870
102
}
330
870
100
AcDbXrecord
280
     1
270
     1
271
     1
  0
XRECORD
  5
3ABA
102
{ACAD_REACTORS
330
868
102
}
330
868
100
AcDbXrecord
280
     1
102
MATERIAL
148
0.0
149
0.0
149
0.0
 93
        0
 94
      127
282
     0
 72
     0
 77
     0
171
     0
175
     0
179
     0
273
     0
  0
XRECORD
  5
86A
102
{ACAD_REACTORS
330
868
102
}
330
868
100
AcDbXrecord
280
     1
270
     1
271
     1
  0
XRECORD
  5
869
102
{ACAD_REACTORS
330
868
102
}
330
868
100
AcDbXrecord
280
     1
270
     1
271
     1
  0
XRECORD
  5
86D
102
{ACAD_REACTORS
330
868
102
}
330
868
100
AcDbXrecord
280
     1
270
     1
271
     1
  0
XRECORD
  5
86C
102
{ACAD_REACTORS
330
868
102
}
330
868
100
AcDbXrecord
280
     1
270
     1
271
     1
  0
XRECORD
  5
86E
102
{ACAD_REACTORS
330
868
102
}
330
868
100
AcDbXrecord
280
     1
270
     1
271
     1
  0
XRECORD
  5
86B
102
{ACAD_REACTORS
330
868
102
}
330
868
100
AcDbXrecord
280
     1
270
     1
271
     1
  0
XRECORD
  5
3ABC
102
{ACAD_REACTORS
330
878
102
}
330
878
100
AcDbXrecord
280
     1
102
MATERIAL
148
0.0
149
0.0
149
0.0
 93
        0
 94
      127
282
     0
 72
     0
 77
     0
171
     0
175
     0
179
     0
273
     0
  0
XRECORD
  5
87A
102
{ACAD_REACTORS
330
878
102
}
330
878
100
AcDbXrecord
280
     1
270
     1
271
     1
  0
XRECORD
  5
879
102
{ACAD_REACTORS
330
878
102
}
330
878
100
AcDbXrecord
280
     1
270
     1
271
     1
  0
XRECORD
  5
87D
102
{ACAD_REACTORS
330
878
102
}
330
878
100
AcDbXrecord
280
     1
270
     1
271
     1
  0
XRECORD
  5
87C
102
{ACAD_REACTORS
330
878
102
}
330
878
100
AcDbXrecord
280
     1
270
     1
271
     1
  0
XRECORD
  5
87E
102
{ACAD_REACTORS
330
878
102
}
330
878
100
AcDbXrecord
280
     1
270
     1
271
     1
  0
XRECORD
  5
87B
102
{ACAD_REACTORS
330
878
102
}
330
878
100
AcDbXrecord
280
     1
270
     1
271
     1
  0
XRECORD
  5
3AEF
102
{ACAD_REACTORS
330
3AEE
102
}
330
3AEE
100
AcDbXrecord
280
     1
102
ACAD_ROUNDTRIP_2012_MLEADER_STYLE
298
     1
  0
XRECORD
  5
3AF1
102
{ACAD_REACTORS
330
3AF0
102
}
330
3AF0
100
AcDbXrecord
280
     1
102
DISPLAYNAME
  1
Imperial24
102
FLAGS
 90
        0
  0
XRECORD
  5
3AF5
102
{ACAD_REACTORS
330
3AF4
102
}
330
3AF4
100
AcDbXrecord
280
     1
102
DISPLAYNAME
  1
Metric50
102
FLAGS
 90
        0
  0
CELLSTYLEMAP
  5
3AB8
102
{ACAD_REACTORS
330
8DE
102
}
330
8DE
100
AcDbCellStyleMap
 90
        3
300
CELLSTYLE
  1
TABLEFORMAT_BEGIN
 90
        5
170
     1
 91
        0
 92
    32768
 62
   257
 93
        1
300
CONTENTFORMAT
  1
CONTENTFORMAT_BEGIN
 90
        0
 91
        0
 92
      512
 93
        0
300

 40
0.0
140
1.0
 94
        5
 62
     0
340
8AB
144
0.25
309
CONTENTFORMAT_END
171
     0
 94
        0
309
TABLEFORMAT_END
  1
CELLSTYLE_BEGIN
 90
        1
 91
        1
300
_TITLE
309
CELLSTYLE_END
300
CELLSTYLE
  1
TABLEFORMAT_BEGIN
 90
        5
170
     1
 91
        0
 92
        0
 62
   257
 93
        1
300
CONTENTFORMAT
  1
CONTENTFORMAT_BEGIN
 90
        0
 91
        0
 92
      512
 93
        0
300

 40
0.0
140
1.0
 94
        5
 62
     0
340
8AB
144
0.18
309
CONTENTFORMAT_END
171
     0
 94
        0
309
TABLEFORMAT_END
  1
CELLSTYLE_BEGIN
 90
        2
 91
        1
300
_HEADER
309
CELLSTYLE_END
300
CELLSTYLE
  1
TABLEFORMAT_BEGIN
 90
        5
170
     1
 91
        0
 92
        0
 62
   257
 93
        1
300
CONTENTFORMAT
  1
CONTENTFORMAT_BEGIN
 90
        0
 91
        0
 92
      512
 93
        0
300

 40
0.0
140
1.0
 94
        2
 62
     0
340
8AB
144
0.18
309
CONTENTFORMAT_END
171
     0
 94
        0
309
TABLEFORMAT_END
  1
CELLSTYLE_BEGIN
 90
        3
 91
        2
300
_DATA
309
CELLSTYLE_END
  0
XRECORD
  5
3AED
102
{ACAD_REACTORS
330
8DE
102
}
330
8DE
100
AcDbXrecord
280
     1
102
ACAD_ROUNDTRIP_PRE2007_TABLESTYLE
 90
      512
 91
        0
  1

 92
      512
 93
        0
  2

 94
      512
 95
        0
  3

  0
XRECORD
  5
3AC8
102
{ACAD_REACTORS
330
3AC7
102
}
330
3AC7
100
AcDbXrecord
280
     1
102
RTVSPost2010Prop28
280
     1
102
RTVSPost2010PropOp28
 70
     1
102
RTVSPost2010Prop29
280
     1
102
RTVSPost2010PropOp29
 70
     1
102
RTVSPost2010Prop30
280
     0
102
RTVSPost2010PropOp30
 70
     1
102
RTVSPost2010Prop31
280
     0
102
RTVSPost2010PropOp31
 70
     1
102
RTVSPost2010Prop32
280
     0
102
RTVSPost2010PropOp32
 70
     1
102
RTVSPost2010Prop33
280
     0
102
RTVSPost2010PropOp33
 70
     1
102
RTVSPost2010Prop34
280
     0
102
RTVSPost2010PropOp34
 70
     1
102
RTVSPost2010Prop35
280
     0
102
RTVSPost2010PropOp35
 70
     1
102
RTVSPost2010Prop36
280
     0
102
RTVSPost2010PropOp36
 70
     1
102
RTVSPost2010Prop37
 90
       50
102
RTVSPost2010PropOp37
 70
     1
102
RTVSPost2010Prop38
140
0.0
102
RTVSPost2010PropOp38
 70
     1
102
RTVSPost2010Prop39
140
1.0
102
RTVSPost2010PropOp39
 70
     1
102
RTVSPost2010Prop40
 90
        0
102
RTVSPost2010PropOp40
 70
     1
102
RTVSPost2010Prop41ColorIndex
 90
       18
102
RTVSPost2010Prop41ColorRGB
 90
        0
102
RTVSPost2010PropOp41
 70
     1
102
RTVSPost2010Prop42
 90
       50
102
RTVSPost2010PropOp42
 70
     1
102
RTVSPost2010Prop43
 90
        3
102
RTVSPost2010PropOp43
 70
     1
102
RTVSPost2010Prop44ColorIndex
 90
        5
102
RTVSPost2010Prop44ColorRGB
 90
      255
102
RTVSPost2010PropOp44
 70
     1
102
RTVSPost2010Prop45
280
     0
102
RTVSPost2010PropOp45
 70
     1
102
RTVSPost2010Prop46
 90
       50
102
RTVSPost2010PropOp46
 70
     1
102
RTVSPost2010Prop47
 90
       50
102
RTVSPost2010PropOp47
 70
     1
102
RTVSPost2010Prop48
 90
       50
102
RTVSPost2010PropOp48
 70
     1
102
RTVSPost2010Prop49
280
     0
102
RTVSPost2010PropOp49
 70
     1
102
RTVSPost2010Prop50
 90
       50
102
RTVSPost2010PropOp50
 70
     1
102
RTVSPost2010Prop51ColorIndex
 90
      256
102
RTVSPost2010Prop51ColorRGB
 90
-16777216
102
RTVSPost2010PropOp51
 70
     0
102
RTVSPost2010Prop52
140
1.0
102
RTVSPost2010PropOp52
 70
     0
102
RTVSPost2010Prop53
 90
        2
102
RTVSPost2010PropOp53
 70
     1
102
RTVSPost2010Prop54
  1
strokes_ogs.tif
102
RTVSPost2010PropOp54
 70
     1
102
RTVSPost2010Prop55
280
     0
102
RTVSPost2010PropOp55
 70
     1
102
RTVSPost2010Prop56
140
1.0
102
RTVSPost2010PropOp56
 70
     1
102
RTVSPost2010Prop57
140
1.0
102
RTVSPost2010PropOp57
 70
     1
102
RTVSPropertyOp0
 70
     1
102
RTVSPropertyOp1
 70
     1
102
RTVSPropertyOp2
 70
     1
102
RTVSPropertyOp3
 70
     1
102
RTVSPropertyOp4
 70
     1
102
RTVSPropertyOp5
 70
     1
102
RTVSPropertyOp6
 70
     1
102
RTVSPropertyOp7
 70
     1
102
RTVSPropertyOp8
 70
     1
102
RTVSPropertyOp9
 70
     1
102
RTVSPropertyOp10
 70
     1
102
RTVSPropertyOp11
 70
     1
102
RTVSPropertyOp12
 70
     1
102
RTVSPropertyOp13
 70
     1
102
RTVSPropertyOp14
 70
     1
102
RTVSPropertyOp15
 70
     1
102
RTVSPropertyOp16
 70
     1
102
RTVSPropertyOp17
 70
     1
102
RTVSPropertyOp18
 70
     1
102
RTVSPropertyOp19
 70
     1
102
RTVSPropertyOp20
 70
     1
102
RTVSPropertyOp21
 70
     1
102
RTVSPropertyOp22
 70
     1
102
RTVSPropertyOp23
 70
     1
102
RTVSPropertyOp24
 70
     1
102
RTVSPropertyOp25
 70
     1
102
RTVSPropertyOp26
 70
     1
102
RTVSPropertyOp27
 70
     1
102
RTVSPropertyOp28
 70
     1
102
RTVSPropertyOp29
 70
     1
102
RTVSPropertyOp30
 70
     1
102
RTVSPropertyOp31
 70
     1
102
RTVSPropertyOp32
 70
     1
102
RTVSPropertyOp33
 70
     1
102
RTVSPropertyOp34
 70
     1
102
RTVSPropertyOp35
 70
     1
102
RTVSPropertyOp36
 70
     1
102
RTVSPropertyOp37
 70
     1
102
RTVSPropertyOp38
 70
     1
102
RTVSPropertyOp39
 70
     1
102
RTVSPropertyOp40
 70
     1
102
RTVSPropertyOp41
 70
     1
102
RTVSPropertyOp42
 70
     1
102
RTVSPropertyOp43
 70
     1
102
RTVSPropertyOp44
 70
     1
102
RTVSPropertyOp45
 70
     1
102
RTVSPropertyOp46
 70
     1
102
RTVSPropertyOp47
 70
     1
102
RTVSPropertyOp48
 70
     1
102
RTVSPropertyOp49
 70
     1
102
RTVSPropertyOp50
 70
     1
102
RTVSPropertyOp51
 70
     0
102
RTVSPropertyOp52
 70
     0
102
RTVSPropertyOp53
 70
     1
102
RTVSPropertyOp54
 70
     1
102
RTVSPropertyOp55
 70
     1
102
RTVSPropertyOp56
 70
     1
102
RTVSPropertyOp57
 70
     1
102
RTVSPropertyOp58
 70
     1
102
RTVSPropertyOp59
 70
     1
102
RTVSPropertyOp60
 70
     1
102
RTVSPropertyOp61
 70
     1
102
RTVSPropertyOp62
 70
     1
  0
XRECORD
  5
3AC6
102
{ACAD_REACTORS
330
3AC5
102
}
330
3AC5
100
AcDbXrecord
280
     1
102
RTVSPost2010Prop28
280
     0
102
RTVSPost2010PropOp28
 70
     1
102
RTVSPost2010Prop29
280
     1
102
RTVSPost2010PropOp29
 70
     1
102
RTVSPost2010Prop30
280
     1
102
RTVSPost2010PropOp30
 70
     1
102
RTVSPost2010Prop31
280
     0
102
RTVSPost2010PropOp31
 70
     1
102
RTVSPost2010Prop32
280
     0
102
RTVSPost2010PropOp32
 70
     1
102
RTVSPost2010Prop33
280
     0
102
RTVSPost2010PropOp33
 70
     1
102
RTVSPost2010Prop34
280
     0
102
RTVSPost2010PropOp34
 70
     1
102
RTVSPost2010Prop35
280
     0
102
RTVSPost2010PropOp35
 70
     1
102
RTVSPost2010Prop36
280
     0
102
RTVSPost2010PropOp36
 70
     1
102
RTVSPost2010Prop37
 90
       50
102
RTVSPost2010PropOp37
 70
     1
102
RTVSPost2010Prop38
140
0.0
102
RTVSPost2010PropOp38
 70
     1
102
RTVSPost2010Prop39
140
1.0
102
RTVSPost2010PropOp39
 70
     1
102
RTVSPost2010Prop40
 90
        0
102
RTVSPost2010PropOp40
 70
     1
102
RTVSPost2010Prop41ColorIndex
 90
       18
102
RTVSPost2010Prop41ColorRGB
 90
        0
102
RTVSPost2010PropOp41
 70
     1
102
RTVSPost2010Prop42
 90
       50
102
RTVSPost2010PropOp42
 70
     1
102
RTVSPost2010Prop43
 90
        3
102
RTVSPost2010PropOp43
 70
     1
102
RTVSPost2010Prop44ColorIndex
 90
        5
102
RTVSPost2010Prop44ColorRGB
 90
      255
102
RTVSPost2010PropOp44
 70
     1
102
RTVSPost2010Prop45
280
     0
102
RTVSPost2010PropOp45
 70
     1
102
RTVSPost2010Prop46
 90
       50
102
RTVSPost2010PropOp46
 70
     1
102
RTVSPost2010Prop47
 90
       50
102
RTVSPost2010PropOp47
 70
     1
102
RTVSPost2010Prop48
 90
       50
102
RTVSPost2010PropOp48
 70
     1
102
RTVSPost2010Prop49
280
     0
102
RTVSPost2010PropOp49
 70
     1
102
RTVSPost2010Prop50
 90
       50
102
RTVSPost2010PropOp50
 70
     1
102
RTVSPost2010Prop51ColorIndex
 90
      256
102
RTVSPost2010Prop51ColorRGB
 90
-16777216
102
RTVSPost2010PropOp51
 70
     0
102
RTVSPost2010Prop52
140
1.0
102
RTVSPost2010PropOp52
 70
     0
102
RTVSPost2010Prop53
 90
        2
102
RTVSPost2010PropOp53
 70
     1
102
RTVSPost2010Prop54
  1
strokes_ogs.tif
102
RTVSPost2010PropOp54
 70
     1
102
RTVSPost2010Prop55
280
     0
102
RTVSPost2010PropOp55
 70
     1
102
RTVSPost2010Prop56
140
1.0
102
RTVSPost2010PropOp56
 70
     1
102
RTVSPost2010Prop57
140
1.0
102
RTVSPost2010PropOp57
 70
     1
102
RTVSPropertyOp0
 70
     1
102
RTVSPropertyOp1
 70
     1
102
RTVSPropertyOp2
 70
     1
102
RTVSPropertyOp3
 70
     1
102
RTVSPropertyOp4
 70
     1
102
RTVSPropertyOp5
 70
     1
102
RTVSPropertyOp6
 70
     1
102
RTVSPropertyOp7
 70
     1
102
RTVSPropertyOp8
 70
     1
102
RTVSPropertyOp9
 70
     1
102
RTVSPropertyOp10
 70
     1
102
RTVSPropertyOp11
 70
     1
102
RTVSPropertyOp12
 70
     1
102
RTVSPropertyOp13
 70
     1
102
RTVSPropertyOp14
 70
     1
102
RTVSPropertyOp15
 70
     1
102
RTVSPropertyOp16
 70
     1
102
RTVSPropertyOp17
 70
     1
102
RTVSPropertyOp18
 70
     1
102
RTVSPropertyOp19
 70
     1
102
RTVSPropertyOp20
 70
     1
102
RTVSPropertyOp21
 70
     1
102
RTVSPropertyOp22
 70
     1
102
RTVSPropertyOp23
 70
     1
102
RTVSPropertyOp24
 70
     1
102
RTVSPropertyOp25
 70
     1
102
RTVSPropertyOp26
 70
     1
102
RTVSPropertyOp27
 70
     1
102
RTVSPropertyOp28
 70
     1
102
RTVSPropertyOp29
 70
     1
102
RTVSPropertyOp30
 70
     1
102
RTVSPropertyOp31
 70
     1
102
RTVSPropertyOp32
 70
     1
102
RTVSPropertyOp33
 70
     1
102
RTVSPropertyOp34
 70
     1
102
RTVSPropertyOp35
 70
     1
102
RTVSPropertyOp36
 70
     1
102
RTVSPropertyOp37
 70
     1
102
RTVSPropertyOp38
 70
     1
102
RTVSPropertyOp39
 70
     1
102
RTVSPropertyOp40
 70
     1
102
RTVSPropertyOp41
 70
     1
102
RTVSPropertyOp42
 70
     1
102
RTVSPropertyOp43
 70
     1
102
RTVSPropertyOp44
 70
     1
102
RTVSPropertyOp45
 70
     1
102
RTVSPropertyOp46
 70
     1
102
RTVSPropertyOp47
 70
     1
102
RTVSPropertyOp48
 70
     1
102
RTVSPropertyOp49
 70
     1
102
RTVSPropertyOp50
 70
     1
102
RTVSPropertyOp51
 70
     0
102
RTVSPropertyOp52
 70
     0
102
RTVSPropertyOp53
 70
     1
102
RTVSPropertyOp54
 70
     1
102
RTVSPropertyOp55
 70
     1
102
RTVSPropertyOp56
 70
     1
102
RTVSPropertyOp57
 70
     1
102
RTVSPropertyOp58
 70
     1
102
RTVSPropertyOp59
 70
     1
102
RTVSPropertyOp60
 70
     1
102
RTVSPropertyOp61
 70
     1
102
RTVSPropertyOp62
 70
     1
  0
XRECORD
  5
3AD4
102
{ACAD_REACTORS
330
3AD3
102
}
330
3AD3
100
AcDbXrecord
280
     1
102
RTVSPost2010Prop28
280
     0
102
RTVSPost2010PropOp28
 70
     1
102
RTVSPost2010Prop29
280
     1
102
RTVSPost2010PropOp29
 70
     1
102
RTVSPost2010Prop30
280
     1
102
RTVSPost2010PropOp30
 70
     1
102
RTVSPost2010Prop31
280
     0
102
RTVSPost2010PropOp31
 70
     1
102
RTVSPost2010Prop32
280
     0
102
RTVSPost2010PropOp32
 70
     1
102
RTVSPost2010Prop33
280
     0
102
RTVSPost2010PropOp33
 70
     1
102
RTVSPost2010Prop34
280
     0
102
RTVSPost2010PropOp34
 70
     1
102
RTVSPost2010Prop35
280
     0
102
RTVSPost2010PropOp35
 70
     1
102
RTVSPost2010Prop36
280
     0
102
RTVSPost2010PropOp36
 70
     1
102
RTVSPost2010Prop37
 90
       50
102
RTVSPost2010PropOp37
 70
     1
102
RTVSPost2010Prop38
140
0.0
102
RTVSPost2010PropOp38
 70
     1
102
RTVSPost2010Prop39
140
1.0
102
RTVSPost2010PropOp39
 70
     1
102
RTVSPost2010Prop40
 90
        0
102
RTVSPost2010PropOp40
 70
     1
102
RTVSPost2010Prop41ColorIndex
 90
       18
102
RTVSPost2010Prop41ColorRGB
 90
        0
102
RTVSPost2010PropOp41
 70
     1
102
RTVSPost2010Prop42
 90
       50
102
RTVSPost2010PropOp42
 70
     1
102
RTVSPost2010Prop43
 90
        3
102
RTVSPost2010PropOp43
 70
     1
102
RTVSPost2010Prop44ColorIndex
 90
        5
102
RTVSPost2010Prop44ColorRGB
 90
      255
102
RTVSPost2010PropOp44
 70
     1
102
RTVSPost2010Prop45
280
     0
102
RTVSPost2010PropOp45
 70
     1
102
RTVSPost2010Prop46
 90
       50
102
RTVSPost2010PropOp46
 70
     1
102
RTVSPost2010Prop47
 90
       50
102
RTVSPost2010PropOp47
 70
     1
102
RTVSPost2010Prop48
 90
       50
102
RTVSPost2010PropOp48
 70
     1
102
RTVSPost2010Prop49
280
     0
102
RTVSPost2010PropOp49
 70
     1
102
RTVSPost2010Prop50
 90
       50
102
RTVSPost2010PropOp50
 70
     1
102
RTVSPost2010Prop51ColorIndex
 90
      256
102
RTVSPost2010Prop51ColorRGB
 90
-16777216
102
RTVSPost2010PropOp51
 70
     0
102
RTVSPost2010Prop52
140
1.0
102
RTVSPost2010PropOp52
 70
     0
102
RTVSPost2010Prop53
 90
        2
102
RTVSPost2010PropOp53
 70
     1
102
RTVSPost2010Prop54
  1
strokes_ogs.tif
102
RTVSPost2010PropOp54
 70
     1
102
RTVSPost2010Prop55
280
     0
102
RTVSPost2010PropOp55
 70
     1
102
RTVSPost2010Prop56
140
1.0
102
RTVSPost2010PropOp56
 70
     1
102
RTVSPost2010Prop57
140
1.0
102
RTVSPost2010PropOp57
 70
     1
102
RTVSPropertyOp0
 70
     1
102
RTVSPropertyOp1
 70
     1
102
RTVSPropertyOp2
 70
     1
102
RTVSPropertyOp3
 70
     1
102
RTVSPropertyOp4
 70
     1
102
RTVSPropertyOp5
 70
     1
102
RTVSPropertyOp6
 70
     1
102
RTVSPropertyOp7
 70
     1
102
RTVSPropertyOp8
 70
     1
102
RTVSPropertyOp9
 70
     1
102
RTVSPropertyOp10
 70
     1
102
RTVSPropertyOp11
 70
     1
102
RTVSPropertyOp12
 70
     1
102
RTVSPropertyOp13
 70
     1
102
RTVSPropertyOp14
 70
     1
102
RTVSPropertyOp15
 70
     1
102
RTVSPropertyOp16
 70
     1
102
RTVSPropertyOp17
 70
     1
102
RTVSPropertyOp18
 70
     1
102
RTVSPropertyOp19
 70
     1
102
RTVSPropertyOp20
 70
     1
102
RTVSPropertyOp21
 70
     1
102
RTVSPropertyOp22
 70
     1
102
RTVSPropertyOp23
 70
     1
102
RTVSPropertyOp24
 70
     1
102
RTVSPropertyOp25
 70
     1
102
RTVSPropertyOp26
 70
     1
102
RTVSPropertyOp27
 70
     1
102
RTVSPropertyOp28
 70
     1
102
RTVSPropertyOp29
 70
     1
102
RTVSPropertyOp30
 70
     1
102
RTVSPropertyOp31
 70
     1
102
RTVSPropertyOp32
 70
     1
102
RTVSPropertyOp33
 70
     1
102
RTVSPropertyOp34
 70
     1
102
RTVSPropertyOp35
 70
     1
102
RTVSPropertyOp36
 70
     1
102
RTVSPropertyOp37
 70
     1
102
RTVSPropertyOp38
 70
     1
102
RTVSPropertyOp39
 70
     1
102
RTVSPropertyOp40
 70
     1
102
RTVSPropertyOp41
 70
     1
102
RTVSPropertyOp42
 70
     1
102
RTVSPropertyOp43
 70
     1
102
RTVSPropertyOp44
 70
     1
102
RTVSPropertyOp45
 70
     1
102
RTVSPropertyOp46
 70
     1
102
RTVSPropertyOp47
 70
     1
102
RTVSPropertyOp48
 70
     1
102
RTVSPropertyOp49
 70
     1
102
RTVSPropertyOp50
 70
     1
102
RTVSPropertyOp51
 70
     0
102
RTVSPropertyOp52
 70
     0
102
RTVSPropertyOp53
 70
     1
102
RTVSPropertyOp54
 70
     1
102
RTVSPropertyOp55
 70
     1
102
RTVSPropertyOp56
 70
     1
102
RTVSPropertyOp57
 70
     1
102
RTVSPropertyOp58
 70
     1
102
RTVSPropertyOp59
 70
     1
102
RTVSPropertyOp60
 70
     1
102
RTVSPropertyOp61
 70
     1
102
RTVSPropertyOp62
 70
     1
  0
XRECORD
  5
3ADC
102
{ACAD_REACTORS
330
3ADB
102
}
330
3ADB
100
AcDbXrecord
280
     1
102
RTVSPost2010Prop28
280
     0
102
RTVSPost2010PropOp28
 70
     1
102
RTVSPost2010Prop29
280
     1
102
RTVSPost2010PropOp29
 70
     1
102
RTVSPost2010Prop30
280
     1
102
RTVSPost2010PropOp30
 70
     1
102
RTVSPost2010Prop31
280
     0
102
RTVSPost2010PropOp31
 70
     1
102
RTVSPost2010Prop32
280
     0
102
RTVSPost2010PropOp32
 70
     1
102
RTVSPost2010Prop33
280
     0
102
RTVSPost2010PropOp33
 70
     1
102
RTVSPost2010Prop34
280
     0
102
RTVSPost2010PropOp34
 70
     1
102
RTVSPost2010Prop35
280
     0
102
RTVSPost2010PropOp35
 70
     1
102
RTVSPost2010Prop36
280
     0
102
RTVSPost2010PropOp36
 70
     1
102
RTVSPost2010Prop37
 90
       50
102
RTVSPost2010PropOp37
 70
     1
102
RTVSPost2010Prop38
140
0.0
102
RTVSPost2010PropOp38
 70
     1
102
RTVSPost2010Prop39
140
1.0
102
RTVSPost2010PropOp39
 70
     1
102
RTVSPost2010Prop40
 90
        0
102
RTVSPost2010PropOp40
 70
     1
102
RTVSPost2010Prop41ColorIndex
 90
       18
102
RTVSPost2010Prop41ColorRGB
 90
        0
102
RTVSPost2010PropOp41
 70
     1
102
RTVSPost2010Prop42
 90
       50
102
RTVSPost2010PropOp42
 70
     1
102
RTVSPost2010Prop43
 90
        3
102
RTVSPost2010PropOp43
 70
     1
102
RTVSPost2010Prop44ColorIndex
 90
        5
102
RTVSPost2010Prop44ColorRGB
 90
      255
102
RTVSPost2010PropOp44
 70
     1
102
RTVSPost2010Prop45
280
     0
102
RTVSPost2010PropOp45
 70
     1
102
RTVSPost2010Prop46
 90
       50
102
RTVSPost2010PropOp46
 70
     1
102
RTVSPost2010Prop47
 90
       50
102
RTVSPost2010PropOp47
 70
     1
102
RTVSPost2010Prop48
 90
       50
102
RTVSPost2010PropOp48
 70
     1
102
RTVSPost2010Prop49
280
     0
102
RTVSPost2010PropOp49
 70
     1
102
RTVSPost2010Prop50
 90
       50
102
RTVSPost2010PropOp50
 70
     1
102
RTVSPost2010Prop51ColorIndex
 90
      256
102
RTVSPost2010Prop51ColorRGB
 90
-16777216
102
RTVSPost2010PropOp51
 70
     0
102
RTVSPost2010Prop52
140
1.0
102
RTVSPost2010PropOp52
 70
     0
102
RTVSPost2010Prop53
 90
        2
102
RTVSPost2010PropOp53
 70
     1
102
RTVSPost2010Prop54
  1
strokes_ogs.tif
102
RTVSPost2010PropOp54
 70
     1
102
RTVSPost2010Prop55
280
     0
102
RTVSPost2010PropOp55
 70
     1
102
RTVSPost2010Prop56
140
1.0
102
RTVSPost2010PropOp56
 70
     1
102
RTVSPost2010Prop57
140
1.0
102
RTVSPost2010PropOp57
 70
     1
102
RTVSPropertyOp0
 70
     1
102
RTVSPropertyOp1
 70
     1
102
RTVSPropertyOp2
 70
     1
102
RTVSPropertyOp3
 70
     1
102
RTVSPropertyOp4
 70
     1
102
RTVSPropertyOp5
 70
     1
102
RTVSPropertyOp6
 70
     1
102
RTVSPropertyOp7
 70
     1
102
RTVSPropertyOp8
 70
     1
102
RTVSPropertyOp9
 70
     1
102
RTVSPropertyOp10
 70
     1
102
RTVSPropertyOp11
 70
     1
102
RTVSPropertyOp12
 70
     1
102
RTVSPropertyOp13
 70
     1
102
RTVSPropertyOp14
 70
     1
102
RTVSPropertyOp15
 70
     1
102
RTVSPropertyOp16
 70
     1
102
RTVSPropertyOp17
 70
     1
102
RTVSPropertyOp18
 70
     1
102
RTVSPropertyOp19
 70
     1
102
RTVSPropertyOp20
 70
     1
102
RTVSPropertyOp21
 70
     1
102
RTVSPropertyOp22
 70
     1
102
RTVSPropertyOp23
 70
     1
102
RTVSPropertyOp24
 70
     1
102
RTVSPropertyOp25
 70
     1
102
RTVSPropertyOp26
 70
     1
102
RTVSPropertyOp27
 70
     1
102
RTVSPropertyOp28
 70
     1
102
RTVSPropertyOp29
 70
     1
102
RTVSPropertyOp30
 70
     1
102
RTVSPropertyOp31
 70
     1
102
RTVSPropertyOp32
 70
     1
102
RTVSPropertyOp33
 70
     1
102
RTVSPropertyOp34
 70
     1
102
RTVSPropertyOp35
 70
     1
102
RTVSPropertyOp36
 70
     1
102
RTVSPropertyOp37
 70
     1
102
RTVSPropertyOp38
 70
     1
102
RTVSPropertyOp39
 70
     1
102
RTVSPropertyOp40
 70
     1
102
RTVSPropertyOp41
 70
     1
102
RTVSPropertyOp42
 70
     1
102
RTVSPropertyOp43
 70
     1
102
RTVSPropertyOp44
 70
     1
102
RTVSPropertyOp45
 70
     1
102
RTVSPropertyOp46
 70
     1
102
RTVSPropertyOp47
 70
     1
102
RTVSPropertyOp48
 70
     1
102
RTVSPropertyOp49
 70
     1
102
RTVSPropertyOp50
 70
     1
102
RTVSPropertyOp51
 70
     0
102
RTVSPropertyOp52
 70
     0
102
RTVSPropertyOp53
 70
     1
102
RTVSPropertyOp54
 70
     1
102
RTVSPropertyOp55
 70
     1
102
RTVSPropertyOp56
 70
     1
102
RTVSPropertyOp57
 70
     1
102
RTVSPropertyOp58
 70
     1
102
RTVSPropertyOp59
 70
     1
102
RTVSPropertyOp60
 70
     1
102
RTVSPropertyOp61
 70
     1
102
RTVSPropertyOp62
 70
     1
  0
XRECORD
  5
3ACE
102
{ACAD_REACTORS
330
3ACD
102
}
330
3ACD
100
AcDbXrecord
280
     1
102
RTVSPost2010Prop28
280
     0
102
RTVSPost2010PropOp28
 70
     1
102
RTVSPost2010Prop29
280
     1
102
RTVSPost2010PropOp29
 70
     1
102
RTVSPost2010Prop30
280
     1
102
RTVSPost2010PropOp30
 70
     1
102
RTVSPost2010Prop31
280
     0
102
RTVSPost2010PropOp31
 70
     1
102
RTVSPost2010Prop32
280
     0
102
RTVSPost2010PropOp32
 70
     1
102
RTVSPost2010Prop33
280
     0
102
RTVSPost2010PropOp33
 70
     1
102
RTVSPost2010Prop34
280
     0
102
RTVSPost2010PropOp34
 70
     1
102
RTVSPost2010Prop35
280
     0
102
RTVSPost2010PropOp35
 70
     1
102
RTVSPost2010Prop36
280
     0
102
RTVSPost2010PropOp36
 70
     1
102
RTVSPost2010Prop37
 90
       50
102
RTVSPost2010PropOp37
 70
     1
102
RTVSPost2010Prop38
140
0.0
102
RTVSPost2010PropOp38
 70
     1
102
RTVSPost2010Prop39
140
1.0
102
RTVSPost2010PropOp39
 70
     1
102
RTVSPost2010Prop40
 90
        0
102
RTVSPost2010PropOp40
 70
     1
102
RTVSPost2010Prop41ColorIndex
 90
       18
102
RTVSPost2010Prop41ColorRGB
 90
        0
102
RTVSPost2010PropOp41
 70
     1
102
RTVSPost2010Prop42
 90
       50
102
RTVSPost2010PropOp42
 70
     1
102
RTVSPost2010Prop43
 90
        3
102
RTVSPost2010PropOp43
 70
     1
102
RTVSPost2010Prop44ColorIndex
 90
        5
102
RTVSPost2010Prop44ColorRGB
 90
      255
102
RTVSPost2010PropOp44
 70
     1
102
RTVSPost2010Prop45
280
     0
102
RTVSPost2010PropOp45
 70
     1
102
RTVSPost2010Prop46
 90
       50
102
RTVSPost2010PropOp46
 70
     1
102
RTVSPost2010Prop47
 90
       50
102
RTVSPost2010PropOp47
 70
     1
102
RTVSPost2010Prop48
 90
       50
102
RTVSPost2010PropOp48
 70
     1
102
RTVSPost2010Prop49
280
     0
102
RTVSPost2010PropOp49
 70
     1
102
RTVSPost2010Prop50
 90
       50
102
RTVSPost2010PropOp50
 70
     1
102
RTVSPost2010Prop51ColorIndex
 90
      256
102
RTVSPost2010Prop51ColorRGB
 90
-16777216
102
RTVSPost2010PropOp51
 70
     0
102
RTVSPost2010Prop52
140
1.0
102
RTVSPost2010PropOp52
 70
     0
102
RTVSPost2010Prop53
 90
        2
102
RTVSPost2010PropOp53
 70
     1
102
RTVSPost2010Prop54
  1
strokes_ogs.tif
102
RTVSPost2010PropOp54
 70
     1
102
RTVSPost2010Prop55
280
     0
102
RTVSPost2010PropOp55
 70
     1
102
RTVSPost2010Prop56
140
1.0
102
RTVSPost2010PropOp56
 70
     1
102
RTVSPost2010Prop57
140
1.0
102
RTVSPost2010PropOp57
 70
     1
102
RTVSPropertyOp0
 70
     1
102
RTVSPropertyOp1
 70
     1
102
RTVSPropertyOp2
 70
     1
102
RTVSPropertyOp3
 70
     1
102
RTVSPropertyOp4
 70
     1
102
RTVSPropertyOp5
 70
     1
102
RTVSPropertyOp6
 70
     1
102
RTVSPropertyOp7
 70
     1
102
RTVSPropertyOp8
 70
     1
102
RTVSPropertyOp9
 70
     1
102
RTVSPropertyOp10
 70
     1
102
RTVSPropertyOp11
 70
     1
102
RTVSPropertyOp12
 70
     1
102
RTVSPropertyOp13
 70
     1
102
RTVSPropertyOp14
 70
     1
102
RTVSPropertyOp15
 70
     1
102
RTVSPropertyOp16
 70
     1
102
RTVSPropertyOp17
 70
     1
102
RTVSPropertyOp18
 70
     1
102
RTVSPropertyOp19
 70
     1
102
RTVSPropertyOp20
 70
     1
102
RTVSPropertyOp21
 70
     1
102
RTVSPropertyOp22
 70
     1
102
RTVSPropertyOp23
 70
     1
102
RTVSPropertyOp24
 70
     1
102
RTVSPropertyOp25
 70
     1
102
RTVSPropertyOp26
 70
     1
102
RTVSPropertyOp27
 70
     1
102
RTVSPropertyOp28
 70
     1
102
RTVSPropertyOp29
 70
     1
102
RTVSPropertyOp30
 70
     1
102
RTVSPropertyOp31
 70
     1
102
RTVSPropertyOp32
 70
     1
102
RTVSPropertyOp33
 70
     1
102
RTVSPropertyOp34
 70
     1
102
RTVSPropertyOp35
 70
     1
102
RTVSPropertyOp36
 70
     1
102
RTVSPropertyOp37
 70
     1
102
RTVSPropertyOp38
 70
     1
102
RTVSPropertyOp39
 70
     1
102
RTVSPropertyOp40
 70
     1
102
RTVSPropertyOp41
 70
     1
102
RTVSPropertyOp42
 70
     1
102
RTVSPropertyOp43
 70
     1
102
RTVSPropertyOp44
 70
     1
102
RTVSPropertyOp45
 70
     1
102
RTVSPropertyOp46
 70
     1
102
RTVSPropertyOp47
 70
     1
102
RTVSPropertyOp48
 70
     1
102
RTVSPropertyOp49
 70
     1
102
RTVSPropertyOp50
 70
     1
102
RTVSPropertyOp51
 70
     0
102
RTVSPropertyOp52
 70
     0
102
RTVSPropertyOp53
 70
     1
102
RTVSPropertyOp54
 70
     1
102
RTVSPropertyOp55
 70
     1
102
RTVSPropertyOp56
 70
     1
102
RTVSPropertyOp57
 70
     1
102
RTVSPropertyOp58
 70
     1
102
RTVSPropertyOp59
 70
     1
102
RTVSPropertyOp60
 70
     1
102
RTVSPropertyOp61
 70
     1
102
RTVSPropertyOp62
 70
     1
  0
XRECORD
  5
3AD2
102
{ACAD_REACTORS
330
3AD1
102
}
330
3AD1
100
AcDbXrecord
280
     1
102
RTVSPost2010Prop28
280
     0
102
RTVSPost2010PropOp28
 70
     1
102
RTVSPost2010Prop29
280
     1
102
RTVSPost2010PropOp29
 70
     1
102
RTVSPost2010Prop30
280
     1
102
RTVSPost2010PropOp30
 70
     1
102
RTVSPost2010Prop31
280
     0
102
RTVSPost2010PropOp31
 70
     1
102
RTVSPost2010Prop32
280
     0
102
RTVSPost2010PropOp32
 70
     1
102
RTVSPost2010Prop33
280
     0
102
RTVSPost2010PropOp33
 70
     1
102
RTVSPost2010Prop34
280
     0
102
RTVSPost2010PropOp34
 70
     1
102
RTVSPost2010Prop35
280
     0
102
RTVSPost2010PropOp35
 70
     1
102
RTVSPost2010Prop36
280
     0
102
RTVSPost2010PropOp36
 70
     1
102
RTVSPost2010Prop37
 90
       50
102
RTVSPost2010PropOp37
 70
     1
102
RTVSPost2010Prop38
140
0.0
102
RTVSPost2010PropOp38
 70
     1
102
RTVSPost2010Prop39
140
1.0
102
RTVSPost2010PropOp39
 70
     1
102
RTVSPost2010Prop40
 90
        0
102
RTVSPost2010PropOp40
 70
     1
102
RTVSPost2010Prop41ColorIndex
 90
       18
102
RTVSPost2010Prop41ColorRGB
 90
        0
102
RTVSPost2010PropOp41
 70
     1
102
RTVSPost2010Prop42
 90
       50
102
RTVSPost2010PropOp42
 70
     1
102
RTVSPost2010Prop43
 90
        3
102
RTVSPost2010PropOp43
 70
     1
102
RTVSPost2010Prop44ColorIndex
 90
        5
102
RTVSPost2010Prop44ColorRGB
 90
      255
102
RTVSPost2010PropOp44
 70
     1
102
RTVSPost2010Prop45
280
     0
102
RTVSPost2010PropOp45
 70
     1
102
RTVSPost2010Prop46
 90
       50
102
RTVSPost2010PropOp46
 70
     1
102
RTVSPost2010Prop47
 90
       50
102
RTVSPost2010PropOp47
 70
     1
102
RTVSPost2010Prop48
 90
       50
102
RTVSPost2010PropOp48
 70
     1
102
RTVSPost2010Prop49
280
     0
102
RTVSPost2010PropOp49
 70
     1
102
RTVSPost2010Prop50
 90
       50
102
RTVSPost2010PropOp50
 70
     1
102
RTVSPost2010Prop51ColorIndex
 90
      256
102
RTVSPost2010Prop51ColorRGB
 90
-16777216
102
RTVSPost2010PropOp51
 70
     0
102
RTVSPost2010Prop52
140
1.0
102
RTVSPost2010PropOp52
 70
     0
102
RTVSPost2010Prop53
 90
        2
102
RTVSPost2010PropOp53
 70
     1
102
RTVSPost2010Prop54
  1
strokes_ogs.tif
102
RTVSPost2010PropOp54
 70
     1
102
RTVSPost2010Prop55
280
     0
102
RTVSPost2010PropOp55
 70
     1
102
RTVSPost2010Prop56
140
1.0
102
RTVSPost2010PropOp56
 70
     1
102
RTVSPost2010Prop57
140
1.0
102
RTVSPost2010PropOp57
 70
     1
102
RTVSPropertyOp0
 70
     1
102
RTVSPropertyOp1
 70
     1
102
RTVSPropertyOp2
 70
     1
102
RTVSPropertyOp3
 70
     1
102
RTVSPropertyOp4
 70
     1
102
RTVSPropertyOp5
 70
     1
102
RTVSPropertyOp6
 70
     1
102
RTVSPropertyOp7
 70
     1
102
RTVSPropertyOp8
 70
     1
102
RTVSPropertyOp9
 70
     1
102
RTVSPropertyOp10
 70
     1
102
RTVSPropertyOp11
 70
     1
102
RTVSPropertyOp12
 70
     1
102
RTVSPropertyOp13
 70
     1
102
RTVSPropertyOp14
 70
     1
102
RTVSPropertyOp15
 70
     1
102
RTVSPropertyOp16
 70
     1
102
RTVSPropertyOp17
 70
     1
102
RTVSPropertyOp18
 70
     1
102
RTVSPropertyOp19
 70
     1
102
RTVSPropertyOp20
 70
     1
102
RTVSPropertyOp21
 70
     1
102
RTVSPropertyOp22
 70
     1
102
RTVSPropertyOp23
 70
     1
102
RTVSPropertyOp24
 70
     1
102
RTVSPropertyOp25
 70
     1
102
RTVSPropertyOp26
 70
     1
102
RTVSPropertyOp27
 70
     1
102
RTVSPropertyOp28
 70
     1
102
RTVSPropertyOp29
 70
     1
102
RTVSPropertyOp30
 70
     1
102
RTVSPropertyOp31
 70
     1
102
RTVSPropertyOp32
 70
     1
102
RTVSPropertyOp33
 70
     1
102
RTVSPropertyOp34
 70
     1
102
RTVSPropertyOp35
 70
     1
102
RTVSPropertyOp36
 70
     1
102
RTVSPropertyOp37
 70
     1
102
RTVSPropertyOp38
 70
     1
102
RTVSPropertyOp39
 70
     1
102
RTVSPropertyOp40
 70
     1
102
RTVSPropertyOp41
 70
     1
102
RTVSPropertyOp42
 70
     1
102
RTVSPropertyOp43
 70
     1
102
RTVSPropertyOp44
 70
     1
102
RTVSPropertyOp45
 70
     1
102
RTVSPropertyOp46
 70
     1
102
RTVSPropertyOp47
 70
     1
102
RTVSPropertyOp48
 70
     1
102
RTVSPropertyOp49
 70
     1
102
RTVSPropertyOp50
 70
     1
102
RTVSPropertyOp51
 70
     0
102
RTVSPropertyOp52
 70
     0
102
RTVSPropertyOp53
 70
     1
102
RTVSPropertyOp54
 70
     1
102
RTVSPropertyOp55
 70
     1
102
RTVSPropertyOp56
 70
     1
102
RTVSPropertyOp57
 70
     1
102
RTVSPropertyOp58
 70
     1
102
RTVSPropertyOp59
 70
     1
102
RTVSPropertyOp60
 70
     1
102
RTVSPropertyOp61
 70
     1
102
RTVSPropertyOp62
 70
     1
  0
XRECORD
  5
3AEC
102
{ACAD_REACTORS
330
3AEB
102
}
330
3AEB
100
AcDbXrecord
280
     1
102
RTVSPost2010Prop28
280
     0
102
RTVSPost2010PropOp28
 70
     0
102
RTVSPost2010Prop29
280
     1
102
RTVSPost2010PropOp29
 70
     0
102
RTVSPost2010Prop30
280
     1
102
RTVSPost2010PropOp30
 70
     0
102
RTVSPost2010Prop31
280
     0
102
RTVSPost2010PropOp31
 70
     0
102
RTVSPost2010Prop32
280
     0
102
RTVSPost2010PropOp32
 70
     0
102
RTVSPost2010Prop33
280
     0
102
RTVSPost2010PropOp33
 70
     0
102
RTVSPost2010Prop34
280
     0
102
RTVSPost2010PropOp34
 70
     0
102
RTVSPost2010Prop35
280
     0
102
RTVSPost2010PropOp35
 70
     0
102
RTVSPost2010Prop36
280
     0
102
RTVSPost2010PropOp36
 70
     0
102
RTVSPost2010Prop37
 90
       50
102
RTVSPost2010PropOp37
 70
     0
102
RTVSPost2010Prop38
140
0.0
102
RTVSPost2010PropOp38
 70
     0
102
RTVSPost2010Prop39
140
1.0
102
RTVSPost2010PropOp39
 70
     0
102
RTVSPost2010Prop40
 90
        0
102
RTVSPost2010PropOp40
 70
     0
102
RTVSPost2010Prop41ColorIndex
 90
       18
102
RTVSPost2010Prop41ColorRGB
 90
        0
102
RTVSPost2010PropOp41
 70
     0
102
RTVSPost2010Prop42
 90
       50
102
RTVSPost2010PropOp42
 70
     0
102
RTVSPost2010Prop43
 90
        3
102
RTVSPost2010PropOp43
 70
     0
102
RTVSPost2010Prop44ColorIndex
 90
        5
102
RTVSPost2010Prop44ColorRGB
 90
      255
102
RTVSPost2010PropOp44
 70
     0
102
RTVSPost2010Prop45
280
     0
102
RTVSPost2010PropOp45
 70
     0
102
RTVSPost2010Prop46
 90
       50
102
RTVSPost2010PropOp46
 70
     0
102
RTVSPost2010Prop47
 90
       50
102
RTVSPost2010PropOp47
 70
     0
102
RTVSPost2010Prop48
 90
       50
102
RTVSPost2010PropOp48
 70
     0
102
RTVSPost2010Prop49
280
     0
102
RTVSPost2010PropOp49
 70
     0
102
RTVSPost2010Prop50
 90
       50
102
RTVSPost2010PropOp50
 70
     0
102
RTVSPost2010Prop51ColorIndex
 90
      256
102
RTVSPost2010Prop51ColorRGB
 90
-16777216
102
RTVSPost2010PropOp51
 70
     0
102
RTVSPost2010Prop52
140
1.0
102
RTVSPost2010PropOp52
 70
     0
102
RTVSPost2010Prop53
 90
        2
102
RTVSPost2010PropOp53
 70
     0
102
RTVSPost2010Prop54
  1
strokes_ogs.tif
102
RTVSPost2010PropOp54
 70
     0
102
RTVSPost2010Prop55
280
     0
102
RTVSPost2010PropOp55
 70
     0
102
RTVSPost2010Prop56
140
1.0
102
RTVSPost2010PropOp56
 70
     0
102
RTVSPost2010Prop57
140
1.0
102
RTVSPost2010PropOp57
 70
     0
102
RTVSPropertyOp0
 70
     0
102
RTVSPropertyOp1
 70
     0
102
RTVSPropertyOp2
 70
     0
102
RTVSPropertyOp3
 70
     0
102
RTVSPropertyOp4
 70
     0
102
RTVSPropertyOp5
 70
     0
102
RTVSPropertyOp6
 70
     0
102
RTVSPropertyOp7
 70
     0
102
RTVSPropertyOp8
 70
     0
102
RTVSPropertyOp9
 70
     0
102
RTVSPropertyOp10
 70
     0
102
RTVSPropertyOp11
 70
     0
102
RTVSPropertyOp12
 70
     0
102
RTVSPropertyOp13
 70
     0
102
RTVSPropertyOp14
 70
     2
102
RTVSPropertyOp15
 70
     0
102
RTVSPropertyOp16
 70
     0
102
RTVSPropertyOp17
 70
     0
102
RTVSPropertyOp18
 70
     0
102
RTVSPropertyOp19
 70
     0
102
RTVSPropertyOp20
 70
     0
102
RTVSPropertyOp21
 70
     0
102
RTVSPropertyOp22
 70
     0
102
RTVSPropertyOp23
 70
     0
102
RTVSPropertyOp24
 70
     0
102
RTVSPropertyOp25
 70
     0
102
RTVSPropertyOp26
 70
     0
102
RTVSPropertyOp27
 70
     0
102
RTVSPropertyOp28
 70
     0
102
RTVSPropertyOp29
 70
     0
102
RTVSPropertyOp30
 70
     0
102
RTVSPropertyOp31
 70
     0
102
RTVSPropertyOp32
 70
     0
102
RTVSPropertyOp33
 70
     0
102
RTVSPropertyOp34
 70
     0
102
RTVSPropertyOp35
 70
     0
102
RTVSPropertyOp36
 70
     0
102
RTVSPropertyOp37
 70
     0
102
RTVSPropertyOp38
 70
     0
102
RTVSPropertyOp39
 70
     0
102
RTVSPropertyOp40
 70
     0
102
RTVSPropertyOp41
 70
     0
102
RTVSPropertyOp42
 70
     0
102
RTVSPropertyOp43
 70
     0
102
RTVSPropertyOp44
 70
     0
102
RTVSPropertyOp45
 70
     0
102
RTVSPropertyOp46
 70
     0
102
RTVSPropertyOp47
 70
     0
102
RTVSPropertyOp48
 70
     0
102
RTVSPropertyOp49
 70
     0
102
RTVSPropertyOp50
 70
     0
102
RTVSPropertyOp51
 70
     0
102
RTVSPropertyOp52
 70
     0
102
RTVSPropertyOp53
 70
     0
102
RTVSPropertyOp54
 70
     0
102
RTVSPropertyOp55
 70
     0
102
RTVSPropertyOp56
 70
     0
102
RTVSPropertyOp57
 70
     0
102
RTVSPropertyOp58
 70
     0
102
RTVSPropertyOp59
 70
     0
102
RTVSPropertyOp60
 70
     0
102
RTVSPropertyOp61
 70
     0
102
RTVSPropertyOp62
 70
     0
  0
XRECORD
  5
3ADA
102
{ACAD_REACTORS
330
3AD9
102
}
330
3AD9
100
AcDbXrecord
280
     1
102
RTVSPost2010Prop28
280
     0
102
RTVSPost2010PropOp28
 70
     1
102
RTVSPost2010Prop29
280
     1
102
RTVSPost2010PropOp29
 70
     1
102
RTVSPost2010Prop30
280
     1
102
RTVSPost2010PropOp30
 70
     1
102
RTVSPost2010Prop31
280
     0
102
RTVSPost2010PropOp31
 70
     1
102
RTVSPost2010Prop32
280
     0
102
RTVSPost2010PropOp32
 70
     1
102
RTVSPost2010Prop33
280
     0
102
RTVSPost2010PropOp33
 70
     1
102
RTVSPost2010Prop34
280
     0
102
RTVSPost2010PropOp34
 70
     1
102
RTVSPost2010Prop35
280
     0
102
RTVSPost2010PropOp35
 70
     1
102
RTVSPost2010Prop36
280
     0
102
RTVSPost2010PropOp36
 70
     1
102
RTVSPost2010Prop37
 90
       50
102
RTVSPost2010PropOp37
 70
     1
102
RTVSPost2010Prop38
140
0.0
102
RTVSPost2010PropOp38
 70
     1
102
RTVSPost2010Prop39
140
1.0
102
RTVSPost2010PropOp39
 70
     1
102
RTVSPost2010Prop40
 90
        0
102
RTVSPost2010PropOp40
 70
     1
102
RTVSPost2010Prop41ColorIndex
 90
       18
102
RTVSPost2010Prop41ColorRGB
 90
        0
102
RTVSPost2010PropOp41
 70
     1
102
RTVSPost2010Prop42
 90
       50
102
RTVSPost2010PropOp42
 70
     1
102
RTVSPost2010Prop43
 90
        3
102
RTVSPost2010PropOp43
 70
     1
102
RTVSPost2010Prop44ColorIndex
 90
        5
102
RTVSPost2010Prop44ColorRGB
 90
      255
102
RTVSPost2010PropOp44
 70
     1
102
RTVSPost2010Prop45
280
     0
102
RTVSPost2010PropOp45
 70
     1
102
RTVSPost2010Prop46
 90
       50
102
RTVSPost2010PropOp46
 70
     1
102
RTVSPost2010Prop47
 90
       50
102
RTVSPost2010PropOp47
 70
     1
102
RTVSPost2010Prop48
 90
       50
102
RTVSPost2010PropOp48
 70
     1
102
RTVSPost2010Prop49
280
     0
102
RTVSPost2010PropOp49
 70
     1
102
RTVSPost2010Prop50
 90
       50
102
RTVSPost2010PropOp50
 70
     1
102
RTVSPost2010Prop51ColorIndex
 90
      256
102
RTVSPost2010Prop51ColorRGB
 90
-16777216
102
RTVSPost2010PropOp51
 70
     0
102
RTVSPost2010Prop52
140
1.0
102
RTVSPost2010PropOp52
 70
     0
102
RTVSPost2010Prop53
 90
        2
102
RTVSPost2010PropOp53
 70
     1
102
RTVSPost2010Prop54
  1
strokes_ogs.tif
102
RTVSPost2010PropOp54
 70
     1
102
RTVSPost2010Prop55
280
     0
102
RTVSPost2010PropOp55
 70
     1
102
RTVSPost2010Prop56
140
1.0
102
RTVSPost2010PropOp56
 70
     1
102
RTVSPost2010Prop57
140
1.0
102
RTVSPost2010PropOp57
 70
     1
102
RTVSPropertyOp0
 70
     1
102
RTVSPropertyOp1
 70
     1
102
RTVSPropertyOp2
 70
     1
102
RTVSPropertyOp3
 70
     1
102
RTVSPropertyOp4
 70
     1
102
RTVSPropertyOp5
 70
     1
102
RTVSPropertyOp6
 70
     1
102
RTVSPropertyOp7
 70
     1
102
RTVSPropertyOp8
 70
     1
102
RTVSPropertyOp9
 70
     1
102
RTVSPropertyOp10
 70
     1
102
RTVSPropertyOp11
 70
     1
102
RTVSPropertyOp12
 70
     1
102
RTVSPropertyOp13
 70
     1
102
RTVSPropertyOp14
 70
     1
102
RTVSPropertyOp15
 70
     1
102
RTVSPropertyOp16
 70
     1
102
RTVSPropertyOp17
 70
     1
102
RTVSPropertyOp18
 70
     1
102
RTVSPropertyOp19
 70
     1
102
RTVSPropertyOp20
 70
     1
102
RTVSPropertyOp21
 70
     1
102
RTVSPropertyOp22
 70
     1
102
RTVSPropertyOp23
 70
     1
102
RTVSPropertyOp24
 70
     1
102
RTVSPropertyOp25
 70
     1
102
RTVSPropertyOp26
 70
     1
102
RTVSPropertyOp27
 70
     1
102
RTVSPropertyOp28
 70
     1
102
RTVSPropertyOp29
 70
     1
102
RTVSPropertyOp30
 70
     1
102
RTVSPropertyOp31
 70
     1
102
RTVSPropertyOp32
 70
     1
102
RTVSPropertyOp33
 70
     1
102
RTVSPropertyOp34
 70
     1
102
RTVSPropertyOp35
 70
     1
102
RTVSPropertyOp36
 70
     1
102
RTVSPropertyOp37
 70
     1
102
RTVSPropertyOp38
 70
     1
102
RTVSPropertyOp39
 70
     1
102
RTVSPropertyOp40
 70
     1
102
RTVSPropertyOp41
 70
     1
102
RTVSPropertyOp42
 70
     1
102
RTVSPropertyOp43
 70
     1
102
RTVSPropertyOp44
 70
     1
102
RTVSPropertyOp45
 70
     1
102
RTVSPropertyOp46
 70
     1
102
RTVSPropertyOp47
 70
     1
102
RTVSPropertyOp48
 70
     1
102
RTVSPropertyOp49
 70
     1
102
RTVSPropertyOp50
 70
     1
102
RTVSPropertyOp51
 70
     0
102
RTVSPropertyOp52
 70
     0
102
RTVSPropertyOp53
 70
     1
102
RTVSPropertyOp54
 70
     1
102
RTVSPropertyOp55
 70
     1
102
RTVSPropertyOp56
 70
     1
102
RTVSPropertyOp57
 70
     1
102
RTVSPropertyOp58
 70
     1
102
RTVSPropertyOp59
 70
     1
102
RTVSPropertyOp60
 70
     1
102
RTVSPropertyOp61
 70
     1
102
RTVSPropertyOp62
 70
     1
  0
XRECORD
  5
3ABE
102
{ACAD_REACTORS
330
3ABD
102
}
330
3ABD
100
AcDbXrecord
280
     1
102
RTVSPost2010Prop28
280
     0
102
RTVSPost2010PropOp28
 70
     1
102
RTVSPost2010Prop29
280
     1
102
RTVSPost2010PropOp29
 70
     1
102
RTVSPost2010Prop30
280
     1
102
RTVSPost2010PropOp30
 70
     1
102
RTVSPost2010Prop31
280
     0
102
RTVSPost2010PropOp31
 70
     1
102
RTVSPost2010Prop32
280
     0
102
RTVSPost2010PropOp32
 70
     1
102
RTVSPost2010Prop33
280
     0
102
RTVSPost2010PropOp33
 70
     1
102
RTVSPost2010Prop34
280
     0
102
RTVSPost2010PropOp34
 70
     1
102
RTVSPost2010Prop35
280
     0
102
RTVSPost2010PropOp35
 70
     1
102
RTVSPost2010Prop36
280
     0
102
RTVSPost2010PropOp36
 70
     1
102
RTVSPost2010Prop37
 90
       50
102
RTVSPost2010PropOp37
 70
     1
102
RTVSPost2010Prop38
140
0.0
102
RTVSPost2010PropOp38
 70
     1
102
RTVSPost2010Prop39
140
1.0
102
RTVSPost2010PropOp39
 70
     1
102
RTVSPost2010Prop40
 90
        0
102
RTVSPost2010PropOp40
 70
     1
102
RTVSPost2010Prop41ColorIndex
 90
       18
102
RTVSPost2010Prop41ColorRGB
 90
        0
102
RTVSPost2010PropOp41
 70
     1
102
RTVSPost2010Prop42
 90
       50
102
RTVSPost2010PropOp42
 70
     1
102
RTVSPost2010Prop43
 90
        3
102
RTVSPost2010PropOp43
 70
     1
102
RTVSPost2010Prop44ColorIndex
 90
        5
102
RTVSPost2010Prop44ColorRGB
 90
      255
102
RTVSPost2010PropOp44
 70
     1
102
RTVSPost2010Prop45
280
     0
102
RTVSPost2010PropOp45
 70
     1
102
RTVSPost2010Prop46
 90
       50
102
RTVSPost2010PropOp46
 70
     1
102
RTVSPost2010Prop47
 90
       50
102
RTVSPost2010PropOp47
 70
     1
102
RTVSPost2010Prop48
 90
       50
102
RTVSPost2010PropOp48
 70
     1
102
RTVSPost2010Prop49
280
     0
102
RTVSPost2010PropOp49
 70
     1
102
RTVSPost2010Prop50
 90
       50
102
RTVSPost2010PropOp50
 70
     1
102
RTVSPost2010Prop51ColorIndex
 90
      256
102
RTVSPost2010Prop51ColorRGB
 90
-16777216
102
RTVSPost2010PropOp51
 70
     0
102
RTVSPost2010Prop52
140
1.0
102
RTVSPost2010PropOp52
 70
     0
102
RTVSPost2010Prop53
 90
        2
102
RTVSPost2010PropOp53
 70
     1
102
RTVSPost2010Prop54
  1
strokes_ogs.tif
102
RTVSPost2010PropOp54
 70
     1
102
RTVSPost2010Prop55
280
     0
102
RTVSPost2010PropOp55
 70
     1
102
RTVSPost2010Prop56
140
1.0
102
RTVSPost2010PropOp56
 70
     1
102
RTVSPost2010Prop57
140
1.0
102
RTVSPost2010PropOp57
 70
     1
102
RTVSPropertyOp0
 70
     1
102
RTVSPropertyOp1
 70
     1
102
RTVSPropertyOp2
 70
     1
102
RTVSPropertyOp3
 70
     1
102
RTVSPropertyOp4
 70
     1
102
RTVSPropertyOp5
 70
     1
102
RTVSPropertyOp6
 70
     1
102
RTVSPropertyOp7
 70
     1
102
RTVSPropertyOp8
 70
     1
102
RTVSPropertyOp9
 70
     1
102
RTVSPropertyOp10
 70
     1
102
RTVSPropertyOp11
 70
     1
102
RTVSPropertyOp12
 70
     1
102
RTVSPropertyOp13
 70
     1
102
RTVSPropertyOp14
 70
     1
102
RTVSPropertyOp15
 70
     1
102
RTVSPropertyOp16
 70
     1
102
RTVSPropertyOp17
 70
     1
102
RTVSPropertyOp18
 70
     1
102
RTVSPropertyOp19
 70
     1
102
RTVSPropertyOp20
 70
     1
102
RTVSPropertyOp21
 70
     1
102
RTVSPropertyOp22
 70
     1
102
RTVSPropertyOp23
 70
     1
102
RTVSPropertyOp24
 70
     1
102
RTVSPropertyOp25
 70
     1
102
RTVSPropertyOp26
 70
     1
102
RTVSPropertyOp27
 70
     1
102
RTVSPropertyOp28
 70
     1
102
RTVSPropertyOp29
 70
     1
102
RTVSPropertyOp30
 70
     1
102
RTVSPropertyOp31
 70
     1
102
RTVSPropertyOp32
 70
     1
102
RTVSPropertyOp33
 70
     1
102
RTVSPropertyOp34
 70
     1
102
RTVSPropertyOp35
 70
     1
102
RTVSPropertyOp36
 70
     1
102
RTVSPropertyOp37
 70
     1
102
RTVSPropertyOp38
 70
     1
102
RTVSPropertyOp39
 70
     1
102
RTVSPropertyOp40
 70
     1
102
RTVSPropertyOp41
 70
     1
102
RTVSPropertyOp42
 70
     1
102
RTVSPropertyOp43
 70
     1
102
RTVSPropertyOp44
 70
     1
102
RTVSPropertyOp45
 70
     1
102
RTVSPropertyOp46
 70
     1
102
RTVSPropertyOp47
 70
     1
102
RTVSPropertyOp48
 70
     1
102
RTVSPropertyOp49
 70
     1
102
RTVSPropertyOp50
 70
     1
102
RTVSPropertyOp51
 70
     0
102
RTVSPropertyOp52
 70
     0
102
RTVSPropertyOp53
 70
     1
102
RTVSPropertyOp54
 70
     1
102
RTVSPropertyOp55
 70
     1
102
RTVSPropertyOp56
 70
     1
102
RTVSPropertyOp57
 70
     1
102
RTVSPropertyOp58
 70
     1
102
RTVSPropertyOp59
 70
     1
102
RTVSPropertyOp60
 70
     1
102
RTVSPropertyOp61
 70
     1
102
RTVSPropertyOp62
 70
     1
  0
XRECORD
  5
3AC0
102
{ACAD_REACTORS
330
3ABF
102
}
330
3ABF
100
AcDbXrecord
280
     1
102
RTVSPost2010Prop28
280
     0
102
RTVSPost2010PropOp28
 70
     1
102
RTVSPost2010Prop29
280
     1
102
RTVSPost2010PropOp29
 70
     1
102
RTVSPost2010Prop30
280
     1
102
RTVSPost2010PropOp30
 70
     1
102
RTVSPost2010Prop31
280
     0
102
RTVSPost2010PropOp31
 70
     1
102
RTVSPost2010Prop32
280
     0
102
RTVSPost2010PropOp32
 70
     1
102
RTVSPost2010Prop33
280
     0
102
RTVSPost2010PropOp33
 70
     1
102
RTVSPost2010Prop34
280
     0
102
RTVSPost2010PropOp34
 70
     1
102
RTVSPost2010Prop35
280
     0
102
RTVSPost2010PropOp35
 70
     1
102
RTVSPost2010Prop36
280
     0
102
RTVSPost2010PropOp36
 70
     1
102
RTVSPost2010Prop37
 90
       50
102
RTVSPost2010PropOp37
 70
     1
102
RTVSPost2010Prop38
140
0.0
102
RTVSPost2010PropOp38
 70
     1
102
RTVSPost2010Prop39
140
1.0
102
RTVSPost2010PropOp39
 70
     1
102
RTVSPost2010Prop40
 90
        0
102
RTVSPost2010PropOp40
 70
     1
102
RTVSPost2010Prop41ColorIndex
 90
       18
102
RTVSPost2010Prop41ColorRGB
 90
        0
102
RTVSPost2010PropOp41
 70
     1
102
RTVSPost2010Prop42
 90
       50
102
RTVSPost2010PropOp42
 70
     1
102
RTVSPost2010Prop43
 90
        3
102
RTVSPost2010PropOp43
 70
     1
102
RTVSPost2010Prop44ColorIndex
 90
        5
102
RTVSPost2010Prop44ColorRGB
 90
      255
102
RTVSPost2010PropOp44
 70
     1
102
RTVSPost2010Prop45
280
     0
102
RTVSPost2010PropOp45
 70
     1
102
RTVSPost2010Prop46
 90
       50
102
RTVSPost2010PropOp46
 70
     1
102
RTVSPost2010Prop47
 90
       50
102
RTVSPost2010PropOp47
 70
     1
102
RTVSPost2010Prop48
 90
       50
102
RTVSPost2010PropOp48
 70
     1
102
RTVSPost2010Prop49
280
     0
102
RTVSPost2010PropOp49
 70
     1
102
RTVSPost2010Prop50
 90
       50
102
RTVSPost2010PropOp50
 70
     1
102
RTVSPost2010Prop51ColorIndex
 90
      256
102
RTVSPost2010Prop51ColorRGB
 90
-16777216
102
RTVSPost2010PropOp51
 70
     0
102
RTVSPost2010Prop52
140
1.0
102
RTVSPost2010PropOp52
 70
     0
102
RTVSPost2010Prop53
 90
        2
102
RTVSPost2010PropOp53
 70
     1
102
RTVSPost2010Prop54
  1
strokes_ogs.tif
102
RTVSPost2010PropOp54
 70
     1
102
RTVSPost2010Prop55
280
     0
102
RTVSPost2010PropOp55
 70
     1
102
RTVSPost2010Prop56
140
1.0
102
RTVSPost2010PropOp56
 70
     1
102
RTVSPost2010Prop57
140
1.0
102
RTVSPost2010PropOp57
 70
     1
102
RTVSPropertyOp0
 70
     1
102
RTVSPropertyOp1
 70
     1
102
RTVSPropertyOp2
 70
     1
102
RTVSPropertyOp3
 70
     1
102
RTVSPropertyOp4
 70
     1
102
RTVSPropertyOp5
 70
     1
102
RTVSPropertyOp6
 70
     1
102
RTVSPropertyOp7
 70
     1
102
RTVSPropertyOp8
 70
     1
102
RTVSPropertyOp9
 70
     1
102
RTVSPropertyOp10
 70
     1
102
RTVSPropertyOp11
 70
     1
102
RTVSPropertyOp12
 70
     1
102
RTVSPropertyOp13
 70
     1
102
RTVSPropertyOp14
 70
     1
102
RTVSPropertyOp15
 70
     1
102
RTVSPropertyOp16
 70
     1
102
RTVSPropertyOp17
 70
     1
102
RTVSPropertyOp18
 70
     1
102
RTVSPropertyOp19
 70
     1
102
RTVSPropertyOp20
 70
     1
102
RTVSPropertyOp21
 70
     1
102
RTVSPropertyOp22
 70
     1
102
RTVSPropertyOp23
 70
     1
102
RTVSPropertyOp24
 70
     1
102
RTVSPropertyOp25
 70
     1
102
RTVSPropertyOp26
 70
     1
102
RTVSPropertyOp27
 70
     1
102
RTVSPropertyOp28
 70
     1
102
RTVSPropertyOp29
 70
     1
102
RTVSPropertyOp30
 70
     1
102
RTVSPropertyOp31
 70
     1
102
RTVSPropertyOp32
 70
     1
102
RTVSPropertyOp33
 70
     1
102
RTVSPropertyOp34
 70
     1
102
RTVSPropertyOp35
 70
     1
102
RTVSPropertyOp36
 70
     1
102
RTVSPropertyOp37
 70
     1
102
RTVSPropertyOp38
 70
     1
102
RTVSPropertyOp39
 70
     1
102
RTVSPropertyOp40
 70
     1
102
RTVSPropertyOp41
 70
     1
102
RTVSPropertyOp42
 70
     1
102
RTVSPropertyOp43
 70
     1
102
RTVSPropertyOp44
 70
     1
102
RTVSPropertyOp45
 70
     1
102
RTVSPropertyOp46
 70
     1
102
RTVSPropertyOp47
 70
     1
102
RTVSPropertyOp48
 70
     1
102
RTVSPropertyOp49
 70
     1
102
RTVSPropertyOp50
 70
     1
102
RTVSPropertyOp51
 70
     0
102
RTVSPropertyOp52
 70
     0
102
RTVSPropertyOp53
 70
     1
102
RTVSPropertyOp54
 70
     1
102
RTVSPropertyOp55
 70
     1
102
RTVSPropertyOp56
 70
     1
102
RTVSPropertyOp57
 70
     1
102
RTVSPropertyOp58
 70
     1
102
RTVSPropertyOp59
 70
     1
102
RTVSPropertyOp60
 70
     1
102
RTVSPropertyOp61
 70
     1
102
RTVSPropertyOp62
 70
     1
  0
XRECORD
  5
3AC2
102
{ACAD_REACTORS
330
3AC1
102
}
330
3AC1
100
AcDbXrecord
280
     1
102
RTVSPost2010Prop28
280
     0
102
RTVSPost2010PropOp28
 70
     1
102
RTVSPost2010Prop29
280
     1
102
RTVSPost2010PropOp29
 70
     1
102
RTVSPost2010Prop30
280
     1
102
RTVSPost2010PropOp30
 70
     1
102
RTVSPost2010Prop31
280
     0
102
RTVSPost2010PropOp31
 70
     1
102
RTVSPost2010Prop32
280
     0
102
RTVSPost2010PropOp32
 70
     1
102
RTVSPost2010Prop33
280
     0
102
RTVSPost2010PropOp33
 70
     1
102
RTVSPost2010Prop34
280
     0
102
RTVSPost2010PropOp34
 70
     1
102
RTVSPost2010Prop35
280
     0
102
RTVSPost2010PropOp35
 70
     1
102
RTVSPost2010Prop36
280
     0
102
RTVSPost2010PropOp36
 70
     1
102
RTVSPost2010Prop37
 90
       50
102
RTVSPost2010PropOp37
 70
     1
102
RTVSPost2010Prop38
140
0.0
102
RTVSPost2010PropOp38
 70
     1
102
RTVSPost2010Prop39
140
1.0
102
RTVSPost2010PropOp39
 70
     1
102
RTVSPost2010Prop40
 90
        0
102
RTVSPost2010PropOp40
 70
     1
102
RTVSPost2010Prop41ColorIndex
 90
       18
102
RTVSPost2010Prop41ColorRGB
 90
        0
102
RTVSPost2010PropOp41
 70
     1
102
RTVSPost2010Prop42
 90
       50
102
RTVSPost2010PropOp42
 70
     1
102
RTVSPost2010Prop43
 90
        3
102
RTVSPost2010PropOp43
 70
     1
102
RTVSPost2010Prop44ColorIndex
 90
        5
102
RTVSPost2010Prop44ColorRGB
 90
      255
102
RTVSPost2010PropOp44
 70
     1
102
RTVSPost2010Prop45
280
     0
102
RTVSPost2010PropOp45
 70
     1
102
RTVSPost2010Prop46
 90
       50
102
RTVSPost2010PropOp46
 70
     1
102
RTVSPost2010Prop47
 90
       50
102
RTVSPost2010PropOp47
 70
     1
102
RTVSPost2010Prop48
 90
       50
102
RTVSPost2010PropOp48
 70
     1
102
RTVSPost2010Prop49
280
     0
102
RTVSPost2010PropOp49
 70
     1
102
RTVSPost2010Prop50
 90
       50
102
RTVSPost2010PropOp50
 70
     1
102
RTVSPost2010Prop51ColorIndex
 90
      256
102
RTVSPost2010Prop51ColorRGB
 90
-16777216
102
RTVSPost2010PropOp51
 70
     0
102
RTVSPost2010Prop52
140
1.0
102
RTVSPost2010PropOp52
 70
     0
102
RTVSPost2010Prop53
 90
        2
102
RTVSPost2010PropOp53
 70
     1
102
RTVSPost2010Prop54
  1
strokes_ogs.tif
102
RTVSPost2010PropOp54
 70
     1
102
RTVSPost2010Prop55
280
     0
102
RTVSPost2010PropOp55
 70
     1
102
RTVSPost2010Prop56
140
1.0
102
RTVSPost2010PropOp56
 70
     1
102
RTVSPost2010Prop57
140
1.0
102
RTVSPost2010PropOp57
 70
     1
102
RTVSPropertyOp0
 70
     1
102
RTVSPropertyOp1
 70
     1
102
RTVSPropertyOp2
 70
     1
102
RTVSPropertyOp3
 70
     1
102
RTVSPropertyOp4
 70
     1
102
RTVSPropertyOp5
 70
     1
102
RTVSPropertyOp6
 70
     1
102
RTVSPropertyOp7
 70
     1
102
RTVSPropertyOp8
 70
     1
102
RTVSPropertyOp9
 70
     1
102
RTVSPropertyOp10
 70
     1
102
RTVSPropertyOp11
 70
     1
102
RTVSPropertyOp12
 70
     1
102
RTVSPropertyOp13
 70
     1
102
RTVSPropertyOp14
 70
     1
102
RTVSPropertyOp15
 70
     1
102
RTVSPropertyOp16
 70
     1
102
RTVSPropertyOp17
 70
     1
102
RTVSPropertyOp18
 70
     1
102
RTVSPropertyOp19
 70
     1
102
RTVSPropertyOp20
 70
     1
102
RTVSPropertyOp21
 70
     1
102
RTVSPropertyOp22
 70
     1
102
RTVSPropertyOp23
 70
     1
102
RTVSPropertyOp24
 70
     1
102
RTVSPropertyOp25
 70
     1
102
RTVSPropertyOp26
 70
     1
102
RTVSPropertyOp27
 70
     1
102
RTVSPropertyOp28
 70
     1
102
RTVSPropertyOp29
 70
     1
102
RTVSPropertyOp30
 70
     1
102
RTVSPropertyOp31
 70
     1
102
RTVSPropertyOp32
 70
     1
102
RTVSPropertyOp33
 70
     1
102
RTVSPropertyOp34
 70
     1
102
RTVSPropertyOp35
 70
     1
102
RTVSPropertyOp36
 70
     1
102
RTVSPropertyOp37
 70
     1
102
RTVSPropertyOp38
 70
     1
102
RTVSPropertyOp39
 70
     1
102
RTVSPropertyOp40
 70
     1
102
RTVSPropertyOp41
 70
     1
102
RTVSPropertyOp42
 70
     1
102
RTVSPropertyOp43
 70
     1
102
RTVSPropertyOp44
 70
     1
102
RTVSPropertyOp45
 70
     1
102
RTVSPropertyOp46
 70
     1
102
RTVSPropertyOp47
 70
     1
102
RTVSPropertyOp48
 70
     1
102
RTVSPropertyOp49
 70
     1
102
RTVSPropertyOp50
 70
     1
102
RTVSPropertyOp51
 70
     0
102
RTVSPropertyOp52
 70
     0
102
RTVSPropertyOp53
 70
     1
102
RTVSPropertyOp54
 70
     1
102
RTVSPropertyOp55
 70
     1
102
RTVSPropertyOp56
 70
     1
102
RTVSPropertyOp57
 70
     1
102
RTVSPropertyOp58
 70
     1
102
RTVSPropertyOp59
 70
     1
102
RTVSPropertyOp60
 70
     1
102
RTVSPropertyOp61
 70
     1
102
RTVSPropertyOp62
 70
     1
  0
XRECORD
  5
3AC4
102
{ACAD_REACTORS
330
3AC3
102
}
330
3AC3
100
AcDbXrecord
280
     1
102
RTVSPost2010Prop28
280
     0
102
RTVSPost2010PropOp28
 70
     1
102
RTVSPost2010Prop29
280
     1
102
RTVSPost2010PropOp29
 70
     1
102
RTVSPost2010Prop30
280
     1
102
RTVSPost2010PropOp30
 70
     1
102
RTVSPost2010Prop31
280
     0
102
RTVSPost2010PropOp31
 70
     1
102
RTVSPost2010Prop32
280
     0
102
RTVSPost2010PropOp32
 70
     1
102
RTVSPost2010Prop33
280
     0
102
RTVSPost2010PropOp33
 70
     1
102
RTVSPost2010Prop34
280
     0
102
RTVSPost2010PropOp34
 70
     1
102
RTVSPost2010Prop35
280
     0
102
RTVSPost2010PropOp35
 70
     1
102
RTVSPost2010Prop36
280
     0
102
RTVSPost2010PropOp36
 70
     1
102
RTVSPost2010Prop37
 90
       50
102
RTVSPost2010PropOp37
 70
     1
102
RTVSPost2010Prop38
140
0.0
102
RTVSPost2010PropOp38
 70
     1
102
RTVSPost2010Prop39
140
1.0
102
RTVSPost2010PropOp39
 70
     1
102
RTVSPost2010Prop40
 90
        0
102
RTVSPost2010PropOp40
 70
     1
102
RTVSPost2010Prop41ColorIndex
 90
       18
102
RTVSPost2010Prop41ColorRGB
 90
        0
102
RTVSPost2010PropOp41
 70
     1
102
RTVSPost2010Prop42
 90
       50
102
RTVSPost2010PropOp42
 70
     1
102
RTVSPost2010Prop43
 90
        3
102
RTVSPost2010PropOp43
 70
     1
102
RTVSPost2010Prop44ColorIndex
 90
        5
102
RTVSPost2010Prop44ColorRGB
 90
      255
102
RTVSPost2010PropOp44
 70
     1
102
RTVSPost2010Prop45
280
     0
102
RTVSPost2010PropOp45
 70
     1
102
RTVSPost2010Prop46
 90
       50
102
RTVSPost2010PropOp46
 70
     1
102
RTVSPost2010Prop47
 90
       50
102
RTVSPost2010PropOp47
 70
     1
102
RTVSPost2010Prop48
 90
       50
102
RTVSPost2010PropOp48
 70
     1
102
RTVSPost2010Prop49
280
     0
102
RTVSPost2010PropOp49
 70
     1
102
RTVSPost2010Prop50
 90
       50
102
RTVSPost2010PropOp50
 70
     1
102
RTVSPost2010Prop51ColorIndex
 90
      256
102
RTVSPost2010Prop51ColorRGB
 90
-16777216
102
RTVSPost2010PropOp51
 70
     0
102
RTVSPost2010Prop52
140
1.0
102
RTVSPost2010PropOp52
 70
     0
102
RTVSPost2010Prop53
 90
        2
102
RTVSPost2010PropOp53
 70
     1
102
RTVSPost2010Prop54
  1
strokes_ogs.tif
102
RTVSPost2010PropOp54
 70
     1
102
RTVSPost2010Prop55
280
     0
102
RTVSPost2010PropOp55
 70
     1
102
RTVSPost2010Prop56
140
1.0
102
RTVSPost2010PropOp56
 70
     1
102
RTVSPost2010Prop57
140
1.0
102
RTVSPost2010PropOp57
 70
     1
102
RTVSPropertyOp0
 70
     1
102
RTVSPropertyOp1
 70
     1
102
RTVSPropertyOp2
 70
     1
102
RTVSPropertyOp3
 70
     1
102
RTVSPropertyOp4
 70
     1
102
RTVSPropertyOp5
 70
     1
102
RTVSPropertyOp6
 70
     1
102
RTVSPropertyOp7
 70
     1
102
RTVSPropertyOp8
 70
     1
102
RTVSPropertyOp9
 70
     1
102
RTVSPropertyOp10
 70
     1
102
RTVSPropertyOp11
 70
     1
102
RTVSPropertyOp12
 70
     1
102
RTVSPropertyOp13
 70
     1
102
RTVSPropertyOp14
 70
     1
102
RTVSPropertyOp15
 70
     1
102
RTVSPropertyOp16
 70
     1
102
RTVSPropertyOp17
 70
     1
102
RTVSPropertyOp18
 70
     1
102
RTVSPropertyOp19
 70
     1
102
RTVSPropertyOp20
 70
     1
102
RTVSPropertyOp21
 70
     1
102
RTVSPropertyOp22
 70
     1
102
RTVSPropertyOp23
 70
     1
102
RTVSPropertyOp24
 70
     1
102
RTVSPropertyOp25
 70
     1
102
RTVSPropertyOp26
 70
     1
102
RTVSPropertyOp27
 70
     1
102
RTVSPropertyOp28
 70
     1
102
RTVSPropertyOp29
 70
     1
102
RTVSPropertyOp30
 70
     1
102
RTVSPropertyOp31
 70
     1
102
RTVSPropertyOp32
 70
     1
102
RTVSPropertyOp33
 70
     1
102
RTVSPropertyOp34
 70
     1
102
RTVSPropertyOp35
 70
     1
102
RTVSPropertyOp36
 70
     1
102
RTVSPropertyOp37
 70
     1
102
RTVSPropertyOp38
 70
     1
102
RTVSPropertyOp39
 70
     1
102
RTVSPropertyOp40
 70
     1
102
RTVSPropertyOp41
 70
     1
102
RTVSPropertyOp42
 70
     1
102
RTVSPropertyOp43
 70
     1
102
RTVSPropertyOp44
 70
     1
102
RTVSPropertyOp45
 70
     1
102
RTVSPropertyOp46
 70
     1
102
RTVSPropertyOp47
 70
     1
102
RTVSPropertyOp48
 70
     1
102
RTVSPropertyOp49
 70
     1
102
RTVSPropertyOp50
 70
     1
102
RTVSPropertyOp51
 70
     0
102
RTVSPropertyOp52
 70
     0
102
RTVSPropertyOp53
 70
     1
102
RTVSPropertyOp54
 70
     1
102
RTVSPropertyOp55
 70
     1
102
RTVSPropertyOp56
 70
     1
102
RTVSPropertyOp57
 70
     1
102
RTVSPropertyOp58
 70
     1
102
RTVSPropertyOp59
 70
     1
102
RTVSPropertyOp60
 70
     1
102
RTVSPropertyOp61
 70
     1
102
RTVSPropertyOp62
 70
     1
  0
XRECORD
  5
3ACC
102
{ACAD_REACTORS
330
3ACB
102
}
330
3ACB
100
AcDbXrecord
280
     1
102
RTVSPost2010Prop28
280
     0
102
RTVSPost2010PropOp28
 70
     1
102
RTVSPost2010Prop29
280
     1
102
RTVSPost2010PropOp29
 70
     1
102
RTVSPost2010Prop30
280
     1
102
RTVSPost2010PropOp30
 70
     1
102
RTVSPost2010Prop31
280
     0
102
RTVSPost2010PropOp31
 70
     1
102
RTVSPost2010Prop32
280
     0
102
RTVSPost2010PropOp32
 70
     1
102
RTVSPost2010Prop33
280
     0
102
RTVSPost2010PropOp33
 70
     1
102
RTVSPost2010Prop34
280
     0
102
RTVSPost2010PropOp34
 70
     1
102
RTVSPost2010Prop35
280
     0
102
RTVSPost2010PropOp35
 70
     1
102
RTVSPost2010Prop36
280
     0
102
RTVSPost2010PropOp36
 70
     1
102
RTVSPost2010Prop37
 90
       50
102
RTVSPost2010PropOp37
 70
     1
102
RTVSPost2010Prop38
140
0.0
102
RTVSPost2010PropOp38
 70
     1
102
RTVSPost2010Prop39
140
1.0
102
RTVSPost2010PropOp39
 70
     1
102
RTVSPost2010Prop40
 90
        0
102
RTVSPost2010PropOp40
 70
     1
102
RTVSPost2010Prop41ColorIndex
 90
       18
102
RTVSPost2010Prop41ColorRGB
 90
        0
102
RTVSPost2010PropOp41
 70
     1
102
RTVSPost2010Prop42
 90
       50
102
RTVSPost2010PropOp42
 70
     1
102
RTVSPost2010Prop43
 90
        3
102
RTVSPost2010PropOp43
 70
     1
102
RTVSPost2010Prop44ColorIndex
 90
        5
102
RTVSPost2010Prop44ColorRGB
 90
      255
102
RTVSPost2010PropOp44
 70
     1
102
RTVSPost2010Prop45
280
     0
102
RTVSPost2010PropOp45
 70
     1
102
RTVSPost2010Prop46
 90
       50
102
RTVSPost2010PropOp46
 70
     1
102
RTVSPost2010Prop47
 90
       50
102
RTVSPost2010PropOp47
 70
     1
102
RTVSPost2010Prop48
 90
       50
102
RTVSPost2010PropOp48
 70
     1
102
RTVSPost2010Prop49
280
     0
102
RTVSPost2010PropOp49
 70
     1
102
RTVSPost2010Prop50
 90
       50
102
RTVSPost2010PropOp50
 70
     1
102
RTVSPost2010Prop51ColorIndex
 90
      256
102
RTVSPost2010Prop51ColorRGB
 90
-16777216
102
RTVSPost2010PropOp51
 70
     0
102
RTVSPost2010Prop52
140
1.0
102
RTVSPost2010PropOp52
 70
     0
102
RTVSPost2010Prop53
 90
        2
102
RTVSPost2010PropOp53
 70
     1
102
RTVSPost2010Prop54
  1
strokes_ogs.tif
102
RTVSPost2010PropOp54
 70
     1
102
RTVSPost2010Prop55
280
     0
102
RTVSPost2010PropOp55
 70
     1
102
RTVSPost2010Prop56
140
1.0
102
RTVSPost2010PropOp56
 70
     1
102
RTVSPost2010Prop57
140
1.0
102
RTVSPost2010PropOp57
 70
     1
102
RTVSPropertyOp0
 70
     1
102
RTVSPropertyOp1
 70
     1
102
RTVSPropertyOp2
 70
     1
102
RTVSPropertyOp3
 70
     1
102
RTVSPropertyOp4
 70
     1
102
RTVSPropertyOp5
 70
     1
102
RTVSPropertyOp6
 70
     1
102
RTVSPropertyOp7
 70
     1
102
RTVSPropertyOp8
 70
     1
102
RTVSPropertyOp9
 70
     1
102
RTVSPropertyOp10
 70
     1
102
RTVSPropertyOp11
 70
     1
102
RTVSPropertyOp12
 70
     1
102
RTVSPropertyOp13
 70
     1
102
RTVSPropertyOp14
 70
     1
102
RTVSPropertyOp15
 70
     1
102
RTVSPropertyOp16
 70
     1
102
RTVSPropertyOp17
 70
     1
102
RTVSPropertyOp18
 70
     1
102
RTVSPropertyOp19
 70
     1
102
RTVSPropertyOp20
 70
     1
102
RTVSPropertyOp21
 70
     1
102
RTVSPropertyOp22
 70
     1
102
RTVSPropertyOp23
 70
     1
102
RTVSPropertyOp24
 70
     1
102
RTVSPropertyOp25
 70
     1
102
RTVSPropertyOp26
 70
     1
102
RTVSPropertyOp27
 70
     1
102
RTVSPropertyOp28
 70
     1
102
RTVSPropertyOp29
 70
     1
102
RTVSPropertyOp30
 70
     1
102
RTVSPropertyOp31
 70
     1
102
RTVSPropertyOp32
 70
     1
102
RTVSPropertyOp33
 70
     1
102
RTVSPropertyOp34
 70
     1
102
RTVSPropertyOp35
 70
     1
102
RTVSPropertyOp36
 70
     1
102
RTVSPropertyOp37
 70
     1
102
RTVSPropertyOp38
 70
     1
102
RTVSPropertyOp39
 70
     1
102
RTVSPropertyOp40
 70
     1
102
RTVSPropertyOp41
 70
     1
102
RTVSPropertyOp42
 70
     1
102
RTVSPropertyOp43
 70
     1
102
RTVSPropertyOp44
 70
     1
102
RTVSPropertyOp45
 70
     1
102
RTVSPropertyOp46
 70
     1
102
RTVSPropertyOp47
 70
     1
102
RTVSPropertyOp48
 70
     1
102
RTVSPropertyOp49
 70
     1
102
RTVSPropertyOp50
 70
     1
102
RTVSPropertyOp51
 70
     0
102
RTVSPropertyOp52
 70
     0
102
RTVSPropertyOp53
 70
     1
102
RTVSPropertyOp54
 70
     1
102
RTVSPropertyOp55
 70
     1
102
RTVSPropertyOp56
 70
     1
102
RTVSPropertyOp57
 70
     1
102
RTVSPropertyOp58
 70
     1
102
RTVSPropertyOp59
 70
     1
102
RTVSPropertyOp60
 70
     1
102
RTVSPropertyOp61
 70
     1
102
RTVSPropertyOp62
 70
     1
  0
XRECORD
  5
3AE8
102
{ACAD_REACTORS
330
3AE7
102
}
330
3AE7
100
AcDbXrecord
280
     1
102
RTVSPost2010Prop28
280
     0
102
RTVSPost2010PropOp28
 70
     0
102
RTVSPost2010Prop29
280
     1
102
RTVSPost2010PropOp29
 70
     0
102
RTVSPost2010Prop30
280
     1
102
RTVSPost2010PropOp30
 70
     0
102
RTVSPost2010Prop31
280
     0
102
RTVSPost2010PropOp31
 70
     0
102
RTVSPost2010Prop32
280
     0
102
RTVSPost2010PropOp32
 70
     0
102
RTVSPost2010Prop33
280
     0
102
RTVSPost2010PropOp33
 70
     0
102
RTVSPost2010Prop34
280
     0
102
RTVSPost2010PropOp34
 70
     0
102
RTVSPost2010Prop35
280
     0
102
RTVSPost2010PropOp35
 70
     0
102
RTVSPost2010Prop36
280
     0
102
RTVSPost2010PropOp36
 70
     0
102
RTVSPost2010Prop37
 90
       50
102
RTVSPost2010PropOp37
 70
     0
102
RTVSPost2010Prop38
140
0.0
102
RTVSPost2010PropOp38
 70
     0
102
RTVSPost2010Prop39
140
1.0
102
RTVSPost2010PropOp39
 70
     0
102
RTVSPost2010Prop40
 90
        0
102
RTVSPost2010PropOp40
 70
     0
102
RTVSPost2010Prop41ColorIndex
 90
       18
102
RTVSPost2010Prop41ColorRGB
 90
        0
102
RTVSPost2010PropOp41
 70
     0
102
RTVSPost2010Prop42
 90
       50
102
RTVSPost2010PropOp42
 70
     0
102
RTVSPost2010Prop43
 90
        3
102
RTVSPost2010PropOp43
 70
     0
102
RTVSPost2010Prop44ColorIndex
 90
        5
102
RTVSPost2010Prop44ColorRGB
 90
      255
102
RTVSPost2010PropOp44
 70
     0
102
RTVSPost2010Prop45
280
     0
102
RTVSPost2010PropOp45
 70
     0
102
RTVSPost2010Prop46
 90
       50
102
RTVSPost2010PropOp46
 70
     0
102
RTVSPost2010Prop47
 90
       50
102
RTVSPost2010PropOp47
 70
     0
102
RTVSPost2010Prop48
 90
       50
102
RTVSPost2010PropOp48
 70
     0
102
RTVSPost2010Prop49
280
     0
102
RTVSPost2010PropOp49
 70
     0
102
RTVSPost2010Prop50
 90
       50
102
RTVSPost2010PropOp50
 70
     0
102
RTVSPost2010Prop51ColorIndex
 90
      256
102
RTVSPost2010Prop51ColorRGB
 90
-16777216
102
RTVSPost2010PropOp51
 70
     0
102
RTVSPost2010Prop52
140
1.0
102
RTVSPost2010PropOp52
 70
     0
102
RTVSPost2010Prop53
 90
        2
102
RTVSPost2010PropOp53
 70
     0
102
RTVSPost2010Prop54
  1
strokes_ogs.tif
102
RTVSPost2010PropOp54
 70
     0
102
RTVSPost2010Prop55
280
     0
102
RTVSPost2010PropOp55
 70
     0
102
RTVSPost2010Prop56
140
1.0
102
RTVSPost2010PropOp56
 70
     0
102
RTVSPost2010Prop57
140
1.0
102
RTVSPost2010PropOp57
 70
     0
102
RTVSPropertyOp0
 70
     0
102
RTVSPropertyOp1
 70
     0
102
RTVSPropertyOp2
 70
     0
102
RTVSPropertyOp3
 70
     0
102
RTVSPropertyOp4
 70
     0
102
RTVSPropertyOp5
 70
     0
102
RTVSPropertyOp6
 70
     0
102
RTVSPropertyOp7
 70
     0
102
RTVSPropertyOp8
 70
     0
102
RTVSPropertyOp9
 70
     0
102
RTVSPropertyOp10
 70
     0
102
RTVSPropertyOp11
 70
     0
102
RTVSPropertyOp12
 70
     0
102
RTVSPropertyOp13
 70
     0
102
RTVSPropertyOp14
 70
     2
102
RTVSPropertyOp15
 70
     0
102
RTVSPropertyOp16
 70
     0
102
RTVSPropertyOp17
 70
     0
102
RTVSPropertyOp18
 70
     0
102
RTVSPropertyOp19
 70
     0
102
RTVSPropertyOp20
 70
     0
102
RTVSPropertyOp21
 70
     0
102
RTVSPropertyOp22
 70
     0
102
RTVSPropertyOp23
 70
     0
102
RTVSPropertyOp24
 70
     0
102
RTVSPropertyOp25
 70
     0
102
RTVSPropertyOp26
 70
     0
102
RTVSPropertyOp27
 70
     0
102
RTVSPropertyOp28
 70
     0
102
RTVSPropertyOp29
 70
     0
102
RTVSPropertyOp30
 70
     0
102
RTVSPropertyOp31
 70
     0
102
RTVSPropertyOp32
 70
     0
102
RTVSPropertyOp33
 70
     0
102
RTVSPropertyOp34
 70
     0
102
RTVSPropertyOp35
 70
     0
102
RTVSPropertyOp36
 70
     0
102
RTVSPropertyOp37
 70
     0
102
RTVSPropertyOp38
 70
     0
102
RTVSPropertyOp39
 70
     0
102
RTVSPropertyOp40
 70
     0
102
RTVSPropertyOp41
 70
     0
102
RTVSPropertyOp42
 70
     0
102
RTVSPropertyOp43
 70
     0
102
RTVSPropertyOp44
 70
     0
102
RTVSPropertyOp45
 70
     0
102
RTVSPropertyOp46
 70
     0
102
RTVSPropertyOp47
 70
     0
102
RTVSPropertyOp48
 70
     0
102
RTVSPropertyOp49
 70
     0
102
RTVSPropertyOp50
 70
     0
102
RTVSPropertyOp51
 70
     0
102
RTVSPropertyOp52
 70
     0
102
RTVSPropertyOp53
 70
     0
102
RTVSPropertyOp54
 70
     0
102
RTVSPropertyOp55
 70
     0
102
RTVSPropertyOp56
 70
     0
102
RTVSPropertyOp57
 70
     0
102
RTVSPropertyOp58
 70
     0
102
RTVSPropertyOp59
 70
     0
102
RTVSPropertyOp60
 70
     0
102
RTVSPropertyOp61
 70
     0
102
RTVSPropertyOp62
 70
     0
  0
XRECORD
  5
3AD8
102
{ACAD_REACTORS
330
3AD7
102
}
330
3AD7
100
AcDbXrecord
280
     1
102
RTVSPost2010Prop28
280
     0
102
RTVSPost2010PropOp28
 70
     1
102
RTVSPost2010Prop29
280
     1
102
RTVSPost2010PropOp29
 70
     1
102
RTVSPost2010Prop30
280
     1
102
RTVSPost2010PropOp30
 70
     1
102
RTVSPost2010Prop31
280
     0
102
RTVSPost2010PropOp31
 70
     1
102
RTVSPost2010Prop32
280
     0
102
RTVSPost2010PropOp32
 70
     1
102
RTVSPost2010Prop33
280
     0
102
RTVSPost2010PropOp33
 70
     1
102
RTVSPost2010Prop34
280
     0
102
RTVSPost2010PropOp34
 70
     1
102
RTVSPost2010Prop35
280
     0
102
RTVSPost2010PropOp35
 70
     1
102
RTVSPost2010Prop36
280
     0
102
RTVSPost2010PropOp36
 70
     1
102
RTVSPost2010Prop37
 90
       50
102
RTVSPost2010PropOp37
 70
     1
102
RTVSPost2010Prop38
140
0.0
102
RTVSPost2010PropOp38
 70
     1
102
RTVSPost2010Prop39
140
1.0
102
RTVSPost2010PropOp39
 70
     1
102
RTVSPost2010Prop40
 90
        0
102
RTVSPost2010PropOp40
 70
     1
102
RTVSPost2010Prop41ColorIndex
 90
       18
102
RTVSPost2010Prop41ColorRGB
 90
        0
102
RTVSPost2010PropOp41
 70
     1
102
RTVSPost2010Prop42
 90
       50
102
RTVSPost2010PropOp42
 70
     1
102
RTVSPost2010Prop43
 90
        3
102
RTVSPost2010PropOp43
 70
     1
102
RTVSPost2010Prop44ColorIndex
 90
        5
102
RTVSPost2010Prop44ColorRGB
 90
      255
102
RTVSPost2010PropOp44
 70
     1
102
RTVSPost2010Prop45
280
     0
102
RTVSPost2010PropOp45
 70
     1
102
RTVSPost2010Prop46
 90
       50
102
RTVSPost2010PropOp46
 70
     1
102
RTVSPost2010Prop47
 90
       50
102
RTVSPost2010PropOp47
 70
     1
102
RTVSPost2010Prop48
 90
       50
102
RTVSPost2010PropOp48
 70
     1
102
RTVSPost2010Prop49
280
     0
102
RTVSPost2010PropOp49
 70
     1
102
RTVSPost2010Prop50
 90
       50
102
RTVSPost2010PropOp50
 70
     1
102
RTVSPost2010Prop51ColorIndex
 90
      256
102
RTVSPost2010Prop51ColorRGB
 90
-16777216
102
RTVSPost2010PropOp51
 70
     0
102
RTVSPost2010Prop52
140
1.0
102
RTVSPost2010PropOp52
 70
     0
102
RTVSPost2010Prop53
 90
        2
102
RTVSPost2010PropOp53
 70
     1
102
RTVSPost2010Prop54
  1
strokes_ogs.tif
102
RTVSPost2010PropOp54
 70
     1
102
RTVSPost2010Prop55
280
     0
102
RTVSPost2010PropOp55
 70
     1
102
RTVSPost2010Prop56
140
1.0
102
RTVSPost2010PropOp56
 70
     1
102
RTVSPost2010Prop57
140
1.0
102
RTVSPost2010PropOp57
 70
     1
102
RTVSPropertyOp0
 70
     1
102
RTVSPropertyOp1
 70
     1
102
RTVSPropertyOp2
 70
     1
102
RTVSPropertyOp3
 70
     1
102
RTVSPropertyOp4
 70
     1
102
RTVSPropertyOp5
 70
     1
102
RTVSPropertyOp6
 70
     1
102
RTVSPropertyOp7
 70
     1
102
RTVSPropertyOp8
 70
     1
102
RTVSPropertyOp9
 70
     1
102
RTVSPropertyOp10
 70
     1
102
RTVSPropertyOp11
 70
     1
102
RTVSPropertyOp12
 70
     1
102
RTVSPropertyOp13
 70
     1
102
RTVSPropertyOp14
 70
     1
102
RTVSPropertyOp15
 70
     1
102
RTVSPropertyOp16
 70
     1
102
RTVSPropertyOp17
 70
     1
102
RTVSPropertyOp18
 70
     1
102
RTVSPropertyOp19
 70
     1
102
RTVSPropertyOp20
 70
     1
102
RTVSPropertyOp21
 70
     1
102
RTVSPropertyOp22
 70
     1
102
RTVSPropertyOp23
 70
     1
102
RTVSPropertyOp24
 70
     1
102
RTVSPropertyOp25
 70
     1
102
RTVSPropertyOp26
 70
     1
102
RTVSPropertyOp27
 70
     1
102
RTVSPropertyOp28
 70
     1
102
RTVSPropertyOp29
 70
     1
102
RTVSPropertyOp30
 70
     1
102
RTVSPropertyOp31
 70
     1
102
RTVSPropertyOp32
 70
     1
102
RTVSPropertyOp33
 70
     1
102
RTVSPropertyOp34
 70
     1
102
RTVSPropertyOp35
 70
     1
102
RTVSPropertyOp36
 70
     1
102
RTVSPropertyOp37
 70
     1
102
RTVSPropertyOp38
 70
     1
102
RTVSPropertyOp39
 70
     1
102
RTVSPropertyOp40
 70
     1
102
RTVSPropertyOp41
 70
     1
102
RTVSPropertyOp42
 70
     1
102
RTVSPropertyOp43
 70
     1
102
RTVSPropertyOp44
 70
     1
102
RTVSPropertyOp45
 70
     1
102
RTVSPropertyOp46
 70
     1
102
RTVSPropertyOp47
 70
     1
102
RTVSPropertyOp48
 70
     1
102
RTVSPropertyOp49
 70
     1
102
RTVSPropertyOp50
 70
     1
102
RTVSPropertyOp51
 70
     0
102
RTVSPropertyOp52
 70
     0
102
RTVSPropertyOp53
 70
     1
102
RTVSPropertyOp54
 70
     1
102
RTVSPropertyOp55
 70
     1
102
RTVSPropertyOp56
 70
     1
102
RTVSPropertyOp57
 70
     1
102
RTVSPropertyOp58
 70
     1
102
RTVSPropertyOp59
 70
     1
102
RTVSPropertyOp60
 70
     1
102
RTVSPropertyOp61
 70
     1
102
RTVSPropertyOp62
 70
     1
  0
XRECORD
  5
3AEA
102
{ACAD_REACTORS
330
3AE9
102
}
330
3AE9
100
AcDbXrecord
280
     1
102
RTVSPost2010Prop28
280
     0
102
RTVSPost2010PropOp28
 70
     0
102
RTVSPost2010Prop29
280
     1
102
RTVSPost2010PropOp29
 70
     0
102
RTVSPost2010Prop30
280
     1
102
RTVSPost2010PropOp30
 70
     0
102
RTVSPost2010Prop31
280
     0
102
RTVSPost2010PropOp31
 70
     0
102
RTVSPost2010Prop32
280
     0
102
RTVSPost2010PropOp32
 70
     0
102
RTVSPost2010Prop33
280
     0
102
RTVSPost2010PropOp33
 70
     0
102
RTVSPost2010Prop34
280
     0
102
RTVSPost2010PropOp34
 70
     0
102
RTVSPost2010Prop35
280
     0
102
RTVSPost2010PropOp35
 70
     0
102
RTVSPost2010Prop36
280
     0
102
RTVSPost2010PropOp36
 70
     0
102
RTVSPost2010Prop37
 90
       50
102
RTVSPost2010PropOp37
 70
     0
102
RTVSPost2010Prop38
140
0.0
102
RTVSPost2010PropOp38
 70
     0
102
RTVSPost2010Prop39
140
1.0
102
RTVSPost2010PropOp39
 70
     0
102
RTVSPost2010Prop40
 90
        0
102
RTVSPost2010PropOp40
 70
     0
102
RTVSPost2010Prop41ColorIndex
 90
       18
102
RTVSPost2010Prop41ColorRGB
 90
        0
102
RTVSPost2010PropOp41
 70
     0
102
RTVSPost2010Prop42
 90
       50
102
RTVSPost2010PropOp42
 70
     0
102
RTVSPost2010Prop43
 90
        3
102
RTVSPost2010PropOp43
 70
     0
102
RTVSPost2010Prop44ColorIndex
 90
        5
102
RTVSPost2010Prop44ColorRGB
 90
      255
102
RTVSPost2010PropOp44
 70
     0
102
RTVSPost2010Prop45
280
     0
102
RTVSPost2010PropOp45
 70
     0
102
RTVSPost2010Prop46
 90
       50
102
RTVSPost2010PropOp46
 70
     0
102
RTVSPost2010Prop47
 90
       50
102
RTVSPost2010PropOp47
 70
     0
102
RTVSPost2010Prop48
 90
       50
102
RTVSPost2010PropOp48
 70
     0
102
RTVSPost2010Prop49
280
     0
102
RTVSPost2010PropOp49
 70
     0
102
RTVSPost2010Prop50
 90
       50
102
RTVSPost2010PropOp50
 70
     0
102
RTVSPost2010Prop51ColorIndex
 90
      256
102
RTVSPost2010Prop51ColorRGB
 90
-16777216
102
RTVSPost2010PropOp51
 70
     0
102
RTVSPost2010Prop52
140
1.0
102
RTVSPost2010PropOp52
 70
     0
102
RTVSPost2010Prop53
 90
        2
102
RTVSPost2010PropOp53
 70
     0
102
RTVSPost2010Prop54
  1
strokes_ogs.tif
102
RTVSPost2010PropOp54
 70
     0
102
RTVSPost2010Prop55
280
     0
102
RTVSPost2010PropOp55
 70
     0
102
RTVSPost2010Prop56
140
1.0
102
RTVSPost2010PropOp56
 70
     0
102
RTVSPost2010Prop57
140
1.0
102
RTVSPost2010PropOp57
 70
     0
102
RTVSPropertyOp0
 70
     0
102
RTVSPropertyOp1
 70
     0
102
RTVSPropertyOp2
 70
     0
102
RTVSPropertyOp3
 70
     0
102
RTVSPropertyOp4
 70
     0
102
RTVSPropertyOp5
 70
     0
102
RTVSPropertyOp6
 70
     0
102
RTVSPropertyOp7
 70
     0
102
RTVSPropertyOp8
 70
     0
102
RTVSPropertyOp9
 70
     0
102
RTVSPropertyOp10
 70
     0
102
RTVSPropertyOp11
 70
     0
102
RTVSPropertyOp12
 70
     0
102
RTVSPropertyOp13
 70
     0
102
RTVSPropertyOp14
 70
     2
102
RTVSPropertyOp15
 70
     0
102
RTVSPropertyOp16
 70
     0
102
RTVSPropertyOp17
 70
     0
102
RTVSPropertyOp18
 70
     0
102
RTVSPropertyOp19
 70
     0
102
RTVSPropertyOp20
 70
     0
102
RTVSPropertyOp21
 70
     0
102
RTVSPropertyOp22
 70
     0
102
RTVSPropertyOp23
 70
     0
102
RTVSPropertyOp24
 70
     0
102
RTVSPropertyOp25
 70
     0
102
RTVSPropertyOp26
 70
     0
102
RTVSPropertyOp27
 70
     0
102
RTVSPropertyOp28
 70
     0
102
RTVSPropertyOp29
 70
     0
102
RTVSPropertyOp30
 70
     0
102
RTVSPropertyOp31
 70
     0
102
RTVSPropertyOp32
 70
     0
102
RTVSPropertyOp33
 70
     0
102
RTVSPropertyOp34
 70
     0
102
RTVSPropertyOp35
 70
     0
102
RTVSPropertyOp36
 70
     0
102
RTVSPropertyOp37
 70
     0
102
RTVSPropertyOp38
 70
     0
102
RTVSPropertyOp39
 70
     0
102
RTVSPropertyOp40
 70
     0
102
RTVSPropertyOp41
 70
     0
102
RTVSPropertyOp42
 70
     0
102
RTVSPropertyOp43
 70
     0
102
RTVSPropertyOp44
 70
     0
102
RTVSPropertyOp45
 70
     0
102
RTVSPropertyOp46
 70
     0
102
RTVSPropertyOp47
 70
     0
102
RTVSPropertyOp48
 70
     0
102
RTVSPropertyOp49
 70
     0
102
RTVSPropertyOp50
 70
     0
102
RTVSPropertyOp51
 70
     0
102
RTVSPropertyOp52
 70
     0
102
RTVSPropertyOp53
 70
     0
102
RTVSPropertyOp54
 70
     0
102
RTVSPropertyOp55
 70
     0
102
RTVSPropertyOp56
 70
     0
102
RTVSPropertyOp57
 70
     0
102
RTVSPropertyOp58
 70
     0
102
RTVSPropertyOp59
 70
     0
102
RTVSPropertyOp60
 70
     0
102
RTVSPropertyOp61
 70
     0
102
RTVSPropertyOp62
 70
     0
  0
XRECORD
  5
3AD0
102
{ACAD_REACTORS
330
3ACF
102
}
330
3ACF
100
AcDbXrecord
280
     1
102
RTVSPost2010Prop28
280
     0
102
RTVSPost2010PropOp28
 70
     1
102
RTVSPost2010Prop29
280
     1
102
RTVSPost2010PropOp29
 70
     1
102
RTVSPost2010Prop30
280
     1
102
RTVSPost2010PropOp30
 70
     1
102
RTVSPost2010Prop31
280
     0
102
RTVSPost2010PropOp31
 70
     1
102
RTVSPost2010Prop32
280
     0
102
RTVSPost2010PropOp32
 70
     1
102
RTVSPost2010Prop33
280
     0
102
RTVSPost2010PropOp33
 70
     1
102
RTVSPost2010Prop34
280
     0
102
RTVSPost2010PropOp34
 70
     1
102
RTVSPost2010Prop35
280
     0
102
RTVSPost2010PropOp35
 70
     1
102
RTVSPost2010Prop36
280
     0
102
RTVSPost2010PropOp36
 70
     1
102
RTVSPost2010Prop37
 90
       50
102
RTVSPost2010PropOp37
 70
     1
102
RTVSPost2010Prop38
140
0.0
102
RTVSPost2010PropOp38
 70
     1
102
RTVSPost2010Prop39
140
1.0
102
RTVSPost2010PropOp39
 70
     1
102
RTVSPost2010Prop40
 90
        0
102
RTVSPost2010PropOp40
 70
     1
102
RTVSPost2010Prop41ColorIndex
 90
       18
102
RTVSPost2010Prop41ColorRGB
 90
        0
102
RTVSPost2010PropOp41
 70
     1
102
RTVSPost2010Prop42
 90
       50
102
RTVSPost2010PropOp42
 70
     1
102
RTVSPost2010Prop43
 90
        3
102
RTVSPost2010PropOp43
 70
     1
102
RTVSPost2010Prop44ColorIndex
 90
        5
102
RTVSPost2010Prop44ColorRGB
 90
      255
102
RTVSPost2010PropOp44
 70
     1
102
RTVSPost2010Prop45
280
     0
102
RTVSPost2010PropOp45
 70
     1
102
RTVSPost2010Prop46
 90
       50
102
RTVSPost2010PropOp46
 70
     1
102
RTVSPost2010Prop47
 90
       50
102
RTVSPost2010PropOp47
 70
     1
102
RTVSPost2010Prop48
 90
       50
102
RTVSPost2010PropOp48
 70
     1
102
RTVSPost2010Prop49
280
     0
102
RTVSPost2010PropOp49
 70
     1
102
RTVSPost2010Prop50
 90
       50
102
RTVSPost2010PropOp50
 70
     1
102
RTVSPost2010Prop51ColorIndex
 90
      256
102
RTVSPost2010Prop51ColorRGB
 90
-16777216
102
RTVSPost2010PropOp51
 70
     0
102
RTVSPost2010Prop52
140
1.0
102
RTVSPost2010PropOp52
 70
     0
102
RTVSPost2010Prop53
 90
        2
102
RTVSPost2010PropOp53
 70
     1
102
RTVSPost2010Prop54
  1
strokes_ogs.tif
102
RTVSPost2010PropOp54
 70
     1
102
RTVSPost2010Prop55
280
     0
102
RTVSPost2010PropOp55
 70
     1
102
RTVSPost2010Prop56
140
1.0
102
RTVSPost2010PropOp56
 70
     1
102
RTVSPost2010Prop57
140
1.0
102
RTVSPost2010PropOp57
 70
     1
102
RTVSPropertyOp0
 70
     1
102
RTVSPropertyOp1
 70
     1
102
RTVSPropertyOp2
 70
     1
102
RTVSPropertyOp3
 70
     1
102
RTVSPropertyOp4
 70
     1
102
RTVSPropertyOp5
 70
     1
102
RTVSPropertyOp6
 70
     1
102
RTVSPropertyOp7
 70
     1
102
RTVSPropertyOp8
 70
     1
102
RTVSPropertyOp9
 70
     1
102
RTVSPropertyOp10
 70
     1
102
RTVSPropertyOp11
 70
     1
102
RTVSPropertyOp12
 70
     1
102
RTVSPropertyOp13
 70
     1
102
RTVSPropertyOp14
 70
     1
102
RTVSPropertyOp15
 70
     1
102
RTVSPropertyOp16
 70
     1
102
RTVSPropertyOp17
 70
     1
102
RTVSPropertyOp18
 70
     1
102
RTVSPropertyOp19
 70
     1
102
RTVSPropertyOp20
 70
     1
102
RTVSPropertyOp21
 70
     1
102
RTVSPropertyOp22
 70
     1
102
RTVSPropertyOp23
 70
     1
102
RTVSPropertyOp24
 70
     1
102
RTVSPropertyOp25
 70
     1
102
RTVSPropertyOp26
 70
     1
102
RTVSPropertyOp27
 70
     1
102
RTVSPropertyOp28
 70
     1
102
RTVSPropertyOp29
 70
     1
102
RTVSPropertyOp30
 70
     1
102
RTVSPropertyOp31
 70
     1
102
RTVSPropertyOp32
 70
     1
102
RTVSPropertyOp33
 70
     1
102
RTVSPropertyOp34
 70
     1
102
RTVSPropertyOp35
 70
     1
102
RTVSPropertyOp36
 70
     1
102
RTVSPropertyOp37
 70
     1
102
RTVSPropertyOp38
 70
     1
102
RTVSPropertyOp39
 70
     1
102
RTVSPropertyOp40
 70
     1
102
RTVSPropertyOp41
 70
     1
102
RTVSPropertyOp42
 70
     1
102
RTVSPropertyOp43
 70
     1
102
RTVSPropertyOp44
 70
     1
102
RTVSPropertyOp45
 70
     1
102
RTVSPropertyOp46
 70
     1
102
RTVSPropertyOp47
 70
     1
102
RTVSPropertyOp48
 70
     1
102
RTVSPropertyOp49
 70
     1
102
RTVSPropertyOp50
 70
     1
102
RTVSPropertyOp51
 70
     0
102
RTVSPropertyOp52
 70
     0
102
RTVSPropertyOp53
 70
     1
102
RTVSPropertyOp54
 70
     1
102
RTVSPropertyOp55
 70
     1
102
RTVSPropertyOp56
 70
     1
102
RTVSPropertyOp57
 70
     1
102
RTVSPropertyOp58
 70
     1
102
RTVSPropertyOp59
 70
     1
102
RTVSPropertyOp60
 70
     1
102
RTVSPropertyOp61
 70
     1
102
RTVSPropertyOp62
 70
     1
  0
XRECORD
  5
3AE6
102
{ACAD_REACTORS
330
3AE5
102
}
330
3AE5
100
AcDbXrecord
280
     1
102
RTVSPost2010Prop28
280
     0
102
RTVSPost2010PropOp28
 70
     1
102
RTVSPost2010Prop29
280
     1
102
RTVSPost2010PropOp29
 70
     1
102
RTVSPost2010Prop30
280
     1
102
RTVSPost2010PropOp30
 70
     1
102
RTVSPost2010Prop31
280
     0
102
RTVSPost2010PropOp31
 70
     1
102
RTVSPost2010Prop32
280
     0
102
RTVSPost2010PropOp32
 70
     1
102
RTVSPost2010Prop33
280
     0
102
RTVSPost2010PropOp33
 70
     1
102
RTVSPost2010Prop34
280
     0
102
RTVSPost2010PropOp34
 70
     1
102
RTVSPost2010Prop35
280
     0
102
RTVSPost2010PropOp35
 70
     1
102
RTVSPost2010Prop36
280
     0
102
RTVSPost2010PropOp36
 70
     1
102
RTVSPost2010Prop37
 90
       50
102
RTVSPost2010PropOp37
 70
     1
102
RTVSPost2010Prop38
140
0.0
102
RTVSPost2010PropOp38
 70
     1
102
RTVSPost2010Prop39
140
1.0
102
RTVSPost2010PropOp39
 70
     1
102
RTVSPost2010Prop40
 90
        0
102
RTVSPost2010PropOp40
 70
     1
102
RTVSPost2010Prop41ColorIndex
 90
       18
102
RTVSPost2010Prop41ColorRGB
 90
        0
102
RTVSPost2010PropOp41
 70
     1
102
RTVSPost2010Prop42
 90
       50
102
RTVSPost2010PropOp42
 70
     1
102
RTVSPost2010Prop43
 90
        3
102
RTVSPost2010PropOp43
 70
     1
102
RTVSPost2010Prop44ColorIndex
 90
        5
102
RTVSPost2010Prop44ColorRGB
 90
      255
102
RTVSPost2010PropOp44
 70
     1
102
RTVSPost2010Prop45
280
     0
102
RTVSPost2010PropOp45
 70
     1
102
RTVSPost2010Prop46
 90
       50
102
RTVSPost2010PropOp46
 70
     1
102
RTVSPost2010Prop47
 90
       50
102
RTVSPost2010PropOp47
 70
     1
102
RTVSPost2010Prop48
 90
       50
102
RTVSPost2010PropOp48
 70
     1
102
RTVSPost2010Prop49
280
     0
102
RTVSPost2010PropOp49
 70
     1
102
RTVSPost2010Prop50
 90
       50
102
RTVSPost2010PropOp50
 70
     1
102
RTVSPost2010Prop51ColorIndex
 90
      256
102
RTVSPost2010Prop51ColorRGB
 90
-16777216
102
RTVSPost2010PropOp51
 70
     0
102
RTVSPost2010Prop52
140
1.0
102
RTVSPost2010PropOp52
 70
     0
102
RTVSPost2010Prop53
 90
        2
102
RTVSPost2010PropOp53
 70
     1
102
RTVSPost2010Prop54
  1
strokes_ogs.tif
102
RTVSPost2010PropOp54
 70
     1
102
RTVSPost2010Prop55
280
     0
102
RTVSPost2010PropOp55
 70
     1
102
RTVSPost2010Prop56
140
1.0
102
RTVSPost2010PropOp56
 70
     1
102
RTVSPost2010Prop57
140
1.0
102
RTVSPost2010PropOp57
 70
     1
102
RTVSPropertyOp0
 70
     1
102
RTVSPropertyOp1
 70
     1
102
RTVSPropertyOp2
 70
     1
102
RTVSPropertyOp3
 70
     1
102
RTVSPropertyOp4
 70
     1
102
RTVSPropertyOp5
 70
     1
102
RTVSPropertyOp6
 70
     1
102
RTVSPropertyOp7
 70
     1
102
RTVSPropertyOp8
 70
     1
102
RTVSPropertyOp9
 70
     1
102
RTVSPropertyOp10
 70
     1
102
RTVSPropertyOp11
 70
     1
102
RTVSPropertyOp12
 70
     1
102
RTVSPropertyOp13
 70
     1
102
RTVSPropertyOp14
 70
     1
102
RTVSPropertyOp15
 70
     1
102
RTVSPropertyOp16
 70
     1
102
RTVSPropertyOp17
 70
     1
102
RTVSPropertyOp18
 70
     1
102
RTVSPropertyOp19
 70
     1
102
RTVSPropertyOp20
 70
     1
102
RTVSPropertyOp21
 70
     1
102
RTVSPropertyOp22
 70
     1
102
RTVSPropertyOp23
 70
     1
102
RTVSPropertyOp24
 70
     1
102
RTVSPropertyOp25
 70
     1
102
RTVSPropertyOp26
 70
     1
102
RTVSPropertyOp27
 70
     1
102
RTVSPropertyOp28
 70
     1
102
RTVSPropertyOp29
 70
     1
102
RTVSPropertyOp30
 70
     1
102
RTVSPropertyOp31
 70
     1
102
RTVSPropertyOp32
 70
     1
102
RTVSPropertyOp33
 70
     1
102
RTVSPropertyOp34
 70
     1
102
RTVSPropertyOp35
 70
     1
102
RTVSPropertyOp36
 70
     1
102
RTVSPropertyOp37
 70
     1
102
RTVSPropertyOp38
 70
     1
102
RTVSPropertyOp39
 70
     1
102
RTVSPropertyOp40
 70
     1
102
RTVSPropertyOp41
 70
     1
102
RTVSPropertyOp42
 70
     1
102
RTVSPropertyOp43
 70
     1
102
RTVSPropertyOp44
 70
     1
102
RTVSPropertyOp45
 70
     1
102
RTVSPropertyOp46
 70
     1
102
RTVSPropertyOp47
 70
     1
102
RTVSPropertyOp48
 70
     1
102
RTVSPropertyOp49
 70
     1
102
RTVSPropertyOp50
 70
     1
102
RTVSPropertyOp51
 70
     0
102
RTVSPropertyOp52
 70
     0
102
RTVSPropertyOp53
 70
     1
102
RTVSPropertyOp54
 70
     1
102
RTVSPropertyOp55
 70
     1
102
RTVSPropertyOp56
 70
     1
102
RTVSPropertyOp57
 70
     1
102
RTVSPropertyOp58
 70
     1
102
RTVSPropertyOp59
 70
     1
102
RTVSPropertyOp60
 70
     1
102
RTVSPropertyOp61
 70
     1
102
RTVSPropertyOp62
 70
     1
  0
XRECORD
  5
3AE4
102
{ACAD_REACTORS
330
3AE3
102
}
330
3AE3
100
AcDbXrecord
280
     1
102
RTVSPost2010Prop28
280
     0
102
RTVSPost2010PropOp28
 70
     1
102
RTVSPost2010Prop29
280
     1
102
RTVSPost2010PropOp29
 70
     1
102
RTVSPost2010Prop30
280
     1
102
RTVSPost2010PropOp30
 70
     1
102
RTVSPost2010Prop31
280
     0
102
RTVSPost2010PropOp31
 70
     1
102
RTVSPost2010Prop32
280
     0
102
RTVSPost2010PropOp32
 70
     1
102
RTVSPost2010Prop33
280
     0
102
RTVSPost2010PropOp33
 70
     1
102
RTVSPost2010Prop34
280
     0
102
RTVSPost2010PropOp34
 70
     1
102
RTVSPost2010Prop35
280
     0
102
RTVSPost2010PropOp35
 70
     1
102
RTVSPost2010Prop36
280
     0
102
RTVSPost2010PropOp36
 70
     1
102
RTVSPost2010Prop37
 90
       50
102
RTVSPost2010PropOp37
 70
     1
102
RTVSPost2010Prop38
140
0.0
102
RTVSPost2010PropOp38
 70
     1
102
RTVSPost2010Prop39
140
1.0
102
RTVSPost2010PropOp39
 70
     1
102
RTVSPost2010Prop40
 90
        0
102
RTVSPost2010PropOp40
 70
     1
102
RTVSPost2010Prop41ColorIndex
 90
       18
102
RTVSPost2010Prop41ColorRGB
 90
        0
102
RTVSPost2010PropOp41
 70
     1
102
RTVSPost2010Prop42
 90
       50
102
RTVSPost2010PropOp42
 70
     1
102
RTVSPost2010Prop43
 90
        3
102
RTVSPost2010PropOp43
 70
     1
102
RTVSPost2010Prop44ColorIndex
 90
        5
102
RTVSPost2010Prop44ColorRGB
 90
      255
102
RTVSPost2010PropOp44
 70
     1
102
RTVSPost2010Prop45
280
     0
102
RTVSPost2010PropOp45
 70
     1
102
RTVSPost2010Prop46
 90
       50
102
RTVSPost2010PropOp46
 70
     1
102
RTVSPost2010Prop47
 90
       50
102
RTVSPost2010PropOp47
 70
     1
102
RTVSPost2010Prop48
 90
       50
102
RTVSPost2010PropOp48
 70
     1
102
RTVSPost2010Prop49
280
     0
102
RTVSPost2010PropOp49
 70
     1
102
RTVSPost2010Prop50
 90
       50
102
RTVSPost2010PropOp50
 70
     1
102
RTVSPost2010Prop51ColorIndex
 90
      256
102
RTVSPost2010Prop51ColorRGB
 90
-16777216
102
RTVSPost2010PropOp51
 70
     0
102
RTVSPost2010Prop52
140
1.0
102
RTVSPost2010PropOp52
 70
     0
102
RTVSPost2010Prop53
 90
        2
102
RTVSPost2010PropOp53
 70
     1
102
RTVSPost2010Prop54
  1
strokes_ogs.tif
102
RTVSPost2010PropOp54
 70
     1
102
RTVSPost2010Prop55
280
     0
102
RTVSPost2010PropOp55
 70
     1
102
RTVSPost2010Prop56
140
1.0
102
RTVSPost2010PropOp56
 70
     1
102
RTVSPost2010Prop57
140
1.0
102
RTVSPost2010PropOp57
 70
     1
102
RTVSPropertyOp0
 70
     1
102
RTVSPropertyOp1
 70
     1
102
RTVSPropertyOp2
 70
     1
102
RTVSPropertyOp3
 70
     1
102
RTVSPropertyOp4
 70
     1
102
RTVSPropertyOp5
 70
     1
102
RTVSPropertyOp6
 70
     1
102
RTVSPropertyOp7
 70
     1
102
RTVSPropertyOp8
 70
     1
102
RTVSPropertyOp9
 70
     1
102
RTVSPropertyOp10
 70
     1
102
RTVSPropertyOp11
 70
     1
102
RTVSPropertyOp12
 70
     1
102
RTVSPropertyOp13
 70
     1
102
RTVSPropertyOp14
 70
     1
102
RTVSPropertyOp15
 70
     1
102
RTVSPropertyOp16
 70
     1
102
RTVSPropertyOp17
 70
     1
102
RTVSPropertyOp18
 70
     1
102
RTVSPropertyOp19
 70
     1
102
RTVSPropertyOp20
 70
     1
102
RTVSPropertyOp21
 70
     1
102
RTVSPropertyOp22
 70
     1
102
RTVSPropertyOp23
 70
     1
102
RTVSPropertyOp24
 70
     1
102
RTVSPropertyOp25
 70
     1
102
RTVSPropertyOp26
 70
     1
102
RTVSPropertyOp27
 70
     1
102
RTVSPropertyOp28
 70
     1
102
RTVSPropertyOp29
 70
     1
102
RTVSPropertyOp30
 70
     1
102
RTVSPropertyOp31
 70
     1
102
RTVSPropertyOp32
 70
     1
102
RTVSPropertyOp33
 70
     1
102
RTVSPropertyOp34
 70
     1
102
RTVSPropertyOp35
 70
     1
102
RTVSPropertyOp36
 70
     1
102
RTVSPropertyOp37
 70
     1
102
RTVSPropertyOp38
 70
     1
102
RTVSPropertyOp39
 70
     1
102
RTVSPropertyOp40
 70
     1
102
RTVSPropertyOp41
 70
     1
102
RTVSPropertyOp42
 70
     1
102
RTVSPropertyOp43
 70
     1
102
RTVSPropertyOp44
 70
     1
102
RTVSPropertyOp45
 70
     1
102
RTVSPropertyOp46
 70
     1
102
RTVSPropertyOp47
 70
     1
102
RTVSPropertyOp48
 70
     1
102
RTVSPropertyOp49
 70
     1
102
RTVSPropertyOp50
 70
     1
102
RTVSPropertyOp51
 70
     0
102
RTVSPropertyOp52
 70
     0
102
RTVSPropertyOp53
 70
     1
102
RTVSPropertyOp54
 70
     1
102
RTVSPropertyOp55
 70
     1
102
RTVSPropertyOp56
 70
     1
102
RTVSPropertyOp57
 70
     1
102
RTVSPropertyOp58
 70
     1
102
RTVSPropertyOp59
 70
     1
102
RTVSPropertyOp60
 70
     1
102
RTVSPropertyOp61
 70
     1
102
RTVSPropertyOp62
 70
     1
  0
XRECORD
  5
3ADE
102
{ACAD_REACTORS
330
3ADD
102
}
330
3ADD
100
AcDbXrecord
280
     1
102
RTVSPost2010Prop28
280
     0
102
RTVSPost2010PropOp28
 70
     1
102
RTVSPost2010Prop29
280
     1
102
RTVSPost2010PropOp29
 70
     1
102
RTVSPost2010Prop30
280
     1
102
RTVSPost2010PropOp30
 70
     1
102
RTVSPost2010Prop31
280
     0
102
RTVSPost2010PropOp31
 70
     1
102
RTVSPost2010Prop32
280
     0
102
RTVSPost2010PropOp32
 70
     1
102
RTVSPost2010Prop33
280
     0
102
RTVSPost2010PropOp33
 70
     1
102
RTVSPost2010Prop34
280
     0
102
RTVSPost2010PropOp34
 70
     1
102
RTVSPost2010Prop35
280
     0
102
RTVSPost2010PropOp35
 70
     1
102
RTVSPost2010Prop36
280
     0
102
RTVSPost2010PropOp36
 70
     1
102
RTVSPost2010Prop37
 90
       50
102
RTVSPost2010PropOp37
 70
     1
102
RTVSPost2010Prop38
140
0.0
102
RTVSPost2010PropOp38
 70
     1
102
RTVSPost2010Prop39
140
1.0
102
RTVSPost2010PropOp39
 70
     1
102
RTVSPost2010Prop40
 90
        0
102
RTVSPost2010PropOp40
 70
     1
102
RTVSPost2010Prop41ColorIndex
 90
       18
102
RTVSPost2010Prop41ColorRGB
 90
        0
102
RTVSPost2010PropOp41
 70
     1
102
RTVSPost2010Prop42
 90
       50
102
RTVSPost2010PropOp42
 70
     1
102
RTVSPost2010Prop43
 90
        3
102
RTVSPost2010PropOp43
 70
     1
102
RTVSPost2010Prop44ColorIndex
 90
        5
102
RTVSPost2010Prop44ColorRGB
 90
      255
102
RTVSPost2010PropOp44
 70
     1
102
RTVSPost2010Prop45
280
     0
102
RTVSPost2010PropOp45
 70
     1
102
RTVSPost2010Prop46
 90
       50
102
RTVSPost2010PropOp46
 70
     1
102
RTVSPost2010Prop47
 90
       50
102
RTVSPost2010PropOp47
 70
     1
102
RTVSPost2010Prop48
 90
       50
102
RTVSPost2010PropOp48
 70
     1
102
RTVSPost2010Prop49
280
     0
102
RTVSPost2010PropOp49
 70
     1
102
RTVSPost2010Prop50
 90
       50
102
RTVSPost2010PropOp50
 70
     1
102
RTVSPost2010Prop51ColorIndex
 90
      256
102
RTVSPost2010Prop51ColorRGB
 90
-16777216
102
RTVSPost2010PropOp51
 70
     0
102
RTVSPost2010Prop52
140
1.0
102
RTVSPost2010PropOp52
 70
     0
102
RTVSPost2010Prop53
 90
        2
102
RTVSPost2010PropOp53
 70
     1
102
RTVSPost2010Prop54
  1
strokes_ogs.tif
102
RTVSPost2010PropOp54
 70
     1
102
RTVSPost2010Prop55
280
     0
102
RTVSPost2010PropOp55
 70
     1
102
RTVSPost2010Prop56
140
1.0
102
RTVSPost2010PropOp56
 70
     1
102
RTVSPost2010Prop57
140
1.0
102
RTVSPost2010PropOp57
 70
     1
102
RTVSPropertyOp0
 70
     1
102
RTVSPropertyOp1
 70
     1
102
RTVSPropertyOp2
 70
     1
102
RTVSPropertyOp3
 70
     1
102
RTVSPropertyOp4
 70
     1
102
RTVSPropertyOp5
 70
     1
102
RTVSPropertyOp6
 70
     1
102
RTVSPropertyOp7
 70
     1
102
RTVSPropertyOp8
 70
     1
102
RTVSPropertyOp9
 70
     1
102
RTVSPropertyOp10
 70
     1
102
RTVSPropertyOp11
 70
     1
102
RTVSPropertyOp12
 70
     1
102
RTVSPropertyOp13
 70
     1
102
RTVSPropertyOp14
 70
     1
102
RTVSPropertyOp15
 70
     1
102
RTVSPropertyOp16
 70
     1
102
RTVSPropertyOp17
 70
     1
102
RTVSPropertyOp18
 70
     1
102
RTVSPropertyOp19
 70
     1
102
RTVSPropertyOp20
 70
     1
102
RTVSPropertyOp21
 70
     1
102
RTVSPropertyOp22
 70
     1
102
RTVSPropertyOp23
 70
     1
102
RTVSPropertyOp24
 70
     1
102
RTVSPropertyOp25
 70
     1
102
RTVSPropertyOp26
 70
     1
102
RTVSPropertyOp27
 70
     1
102
RTVSPropertyOp28
 70
     1
102
RTVSPropertyOp29
 70
     1
102
RTVSPropertyOp30
 70
     1
102
RTVSPropertyOp31
 70
     1
102
RTVSPropertyOp32
 70
     1
102
RTVSPropertyOp33
 70
     1
102
RTVSPropertyOp34
 70
     1
102
RTVSPropertyOp35
 70
     1
102
RTVSPropertyOp36
 70
     1
102
RTVSPropertyOp37
 70
     1
102
RTVSPropertyOp38
 70
     1
102
RTVSPropertyOp39
 70
     1
102
RTVSPropertyOp40
 70
     1
102
RTVSPropertyOp41
 70
     1
102
RTVSPropertyOp42
 70
     1
102
RTVSPropertyOp43
 70
     1
102
RTVSPropertyOp44
 70
     1
102
RTVSPropertyOp45
 70
     1
102
RTVSPropertyOp46
 70
     1
102
RTVSPropertyOp47
 70
     1
102
RTVSPropertyOp48
 70
     1
102
RTVSPropertyOp49
 70
     1
102
RTVSPropertyOp50
 70
     1
102
RTVSPropertyOp51
 70
     0
102
RTVSPropertyOp52
 70
     0
102
RTVSPropertyOp53
 70
     1
102
RTVSPropertyOp54
 70
     1
102
RTVSPropertyOp55
 70
     1
102
RTVSPropertyOp56
 70
     1
102
RTVSPropertyOp57
 70
     1
102
RTVSPropertyOp58
 70
     1
102
RTVSPropertyOp59
 70
     1
102
RTVSPropertyOp60
 70
     1
102
RTVSPropertyOp61
 70
     1
102
RTVSPropertyOp62
 70
     1
  0
XRECORD
  5
3AE0
102
{ACAD_REACTORS
330
3ADF
102
}
330
3ADF
100
AcDbXrecord
280
     1
102
RTVSPost2010Prop28
280
     0
102
RTVSPost2010PropOp28
 70
     1
102
RTVSPost2010Prop29
280
     1
102
RTVSPost2010PropOp29
 70
     1
102
RTVSPost2010Prop30
280
     1
102
RTVSPost2010PropOp30
 70
     1
102
RTVSPost2010Prop31
280
     0
102
RTVSPost2010PropOp31
 70
     1
102
RTVSPost2010Prop32
280
     0
102
RTVSPost2010PropOp32
 70
     1
102
RTVSPost2010Prop33
280
     0
102
RTVSPost2010PropOp33
 70
     1
102
RTVSPost2010Prop34
280
     0
102
RTVSPost2010PropOp34
 70
     1
102
RTVSPost2010Prop35
280
     0
102
RTVSPost2010PropOp35
 70
     1
102
RTVSPost2010Prop36
280
     0
102
RTVSPost2010PropOp36
 70
     1
102
RTVSPost2010Prop37
 90
       50
102
RTVSPost2010PropOp37
 70
     1
102
RTVSPost2010Prop38
140
0.0
102
RTVSPost2010PropOp38
 70
     1
102
RTVSPost2010Prop39
140
1.0
102
RTVSPost2010PropOp39
 70
     1
102
RTVSPost2010Prop40
 90
        0
102
RTVSPost2010PropOp40
 70
     1
102
RTVSPost2010Prop41ColorIndex
 90
       18
102
RTVSPost2010Prop41ColorRGB
 90
        0
102
RTVSPost2010PropOp41
 70
     1
102
RTVSPost2010Prop42
 90
       50
102
RTVSPost2010PropOp42
 70
     1
102
RTVSPost2010Prop43
 90
        3
102
RTVSPost2010PropOp43
 70
     1
102
RTVSPost2010Prop44ColorIndex
 90
        5
102
RTVSPost2010Prop44ColorRGB
 90
      255
102
RTVSPost2010PropOp44
 70
     1
102
RTVSPost2010Prop45
280
     0
102
RTVSPost2010PropOp45
 70
     1
102
RTVSPost2010Prop46
 90
       50
102
RTVSPost2010PropOp46
 70
     1
102
RTVSPost2010Prop47
 90
       50
102
RTVSPost2010PropOp47
 70
     1
102
RTVSPost2010Prop48
 90
       50
102
RTVSPost2010PropOp48
 70
     1
102
RTVSPost2010Prop49
280
     0
102
RTVSPost2010PropOp49
 70
     1
102
RTVSPost2010Prop50
 90
       50
102
RTVSPost2010PropOp50
 70
     1
102
RTVSPost2010Prop51ColorIndex
 90
      256
102
RTVSPost2010Prop51ColorRGB
 90
-16777216
102
RTVSPost2010PropOp51
 70
     0
102
RTVSPost2010Prop52
140
1.0
102
RTVSPost2010PropOp52
 70
     0
102
RTVSPost2010Prop53
 90
        2
102
RTVSPost2010PropOp53
 70
     1
102
RTVSPost2010Prop54
  1
strokes_ogs.tif
102
RTVSPost2010PropOp54
 70
     1
102
RTVSPost2010Prop55
280
     0
102
RTVSPost2010PropOp55
 70
     1
102
RTVSPost2010Prop56
140
1.0
102
RTVSPost2010PropOp56
 70
     1
102
RTVSPost2010Prop57
140
1.0
102
RTVSPost2010PropOp57
 70
     1
102
RTVSPropertyOp0
 70
     1
102
RTVSPropertyOp1
 70
     1
102
RTVSPropertyOp2
 70
     1
102
RTVSPropertyOp3
 70
     1
102
RTVSPropertyOp4
 70
     1
102
RTVSPropertyOp5
 70
     1
102
RTVSPropertyOp6
 70
     1
102
RTVSPropertyOp7
 70
     1
102
RTVSPropertyOp8
 70
     1
102
RTVSPropertyOp9
 70
     1
102
RTVSPropertyOp10
 70
     1
102
RTVSPropertyOp11
 70
     1
102
RTVSPropertyOp12
 70
     1
102
RTVSPropertyOp13
 70
     1
102
RTVSPropertyOp14
 70
     1
102
RTVSPropertyOp15
 70
     1
102
RTVSPropertyOp16
 70
     1
102
RTVSPropertyOp17
 70
     1
102
RTVSPropertyOp18
 70
     1
102
RTVSPropertyOp19
 70
     1
102
RTVSPropertyOp20
 70
     1
102
RTVSPropertyOp21
 70
     1
102
RTVSPropertyOp22
 70
     1
102
RTVSPropertyOp23
 70
     1
102
RTVSPropertyOp24
 70
     1
102
RTVSPropertyOp25
 70
     1
102
RTVSPropertyOp26
 70
     1
102
RTVSPropertyOp27
 70
     1
102
RTVSPropertyOp28
 70
     1
102
RTVSPropertyOp29
 70
     1
102
RTVSPropertyOp30
 70
     1
102
RTVSPropertyOp31
 70
     1
102
RTVSPropertyOp32
 70
     1
102
RTVSPropertyOp33
 70
     1
102
RTVSPropertyOp34
 70
     1
102
RTVSPropertyOp35
 70
     1
102
RTVSPropertyOp36
 70
     1
102
RTVSPropertyOp37
 70
     1
102
RTVSPropertyOp38
 70
     1
102
RTVSPropertyOp39
 70
     1
102
RTVSPropertyOp40
 70
     1
102
RTVSPropertyOp41
 70
     1
102
RTVSPropertyOp42
 70
     1
102
RTVSPropertyOp43
 70
     1
102
RTVSPropertyOp44
 70
     1
102
RTVSPropertyOp45
 70
     1
102
RTVSPropertyOp46
 70
     1
102
RTVSPropertyOp47
 70
     1
102
RTVSPropertyOp48
 70
     1
102
RTVSPropertyOp49
 70
     1
102
RTVSPropertyOp50
 70
     1
102
RTVSPropertyOp51
 70
     0
102
RTVSPropertyOp52
 70
     0
102
RTVSPropertyOp53
 70
     1
102
RTVSPropertyOp54
 70
     1
102
RTVSPropertyOp55
 70
     1
102
RTVSPropertyOp56
 70
     1
102
RTVSPropertyOp57
 70
     1
102
RTVSPropertyOp58
 70
     1
102
RTVSPropertyOp59
 70
     1
102
RTVSPropertyOp60
 70
     1
102
RTVSPropertyOp61
 70
     1
102
RTVSPropertyOp62
 70
     1
  0
XRECORD
  5
3AD6
102
{ACAD_REACTORS
330
3AD5
102
}
330
3AD5
100
AcDbXrecord
280
     1
102
RTVSPost2010Prop28
280
     0
102
RTVSPost2010PropOp28
 70
     1
102
RTVSPost2010Prop29
280
     1
102
RTVSPost2010PropOp29
 70
     1
102
RTVSPost2010Prop30
280
     1
102
RTVSPost2010PropOp30
 70
     1
102
RTVSPost2010Prop31
280
     0
102
RTVSPost2010PropOp31
 70
     1
102
RTVSPost2010Prop32
280
     0
102
RTVSPost2010PropOp32
 70
     1
102
RTVSPost2010Prop33
280
     0
102
RTVSPost2010PropOp33
 70
     1
102
RTVSPost2010Prop34
280
     0
102
RTVSPost2010PropOp34
 70
     1
102
RTVSPost2010Prop35
280
     0
102
RTVSPost2010PropOp35
 70
     1
102
RTVSPost2010Prop36
280
     0
102
RTVSPost2010PropOp36
 70
     1
102
RTVSPost2010Prop37
 90
       50
102
RTVSPost2010PropOp37
 70
     1
102
RTVSPost2010Prop38
140
0.0
102
RTVSPost2010PropOp38
 70
     1
102
RTVSPost2010Prop39
140
1.0
102
RTVSPost2010PropOp39
 70
     1
102
RTVSPost2010Prop40
 90
        0
102
RTVSPost2010PropOp40
 70
     1
102
RTVSPost2010Prop41ColorIndex
 90
       18
102
RTVSPost2010Prop41ColorRGB
 90
        0
102
RTVSPost2010PropOp41
 70
     1
102
RTVSPost2010Prop42
 90
       50
102
RTVSPost2010PropOp42
 70
     1
102
RTVSPost2010Prop43
 90
        3
102
RTVSPost2010PropOp43
 70
     1
102
RTVSPost2010Prop44ColorIndex
 90
        5
102
RTVSPost2010Prop44ColorRGB
 90
      255
102
RTVSPost2010PropOp44
 70
     1
102
RTVSPost2010Prop45
280
     0
102
RTVSPost2010PropOp45
 70
     1
102
RTVSPost2010Prop46
 90
       50
102
RTVSPost2010PropOp46
 70
     1
102
RTVSPost2010Prop47
 90
       50
102
RTVSPost2010PropOp47
 70
     1
102
RTVSPost2010Prop48
 90
       50
102
RTVSPost2010PropOp48
 70
     1
102
RTVSPost2010Prop49
280
     0
102
RTVSPost2010PropOp49
 70
     1
102
RTVSPost2010Prop50
 90
       50
102
RTVSPost2010PropOp50
 70
     1
102
RTVSPost2010Prop51ColorIndex
 90
      256
102
RTVSPost2010Prop51ColorRGB
 90
-16777216
102
RTVSPost2010PropOp51
 70
     0
102
RTVSPost2010Prop52
140
1.0
102
RTVSPost2010PropOp52
 70
     0
102
RTVSPost2010Prop53
 90
        2
102
RTVSPost2010PropOp53
 70
     1
102
RTVSPost2010Prop54
  1
strokes_ogs.tif
102
RTVSPost2010PropOp54
 70
     1
102
RTVSPost2010Prop55
280
     0
102
RTVSPost2010PropOp55
 70
     1
102
RTVSPost2010Prop56
140
1.0
102
RTVSPost2010PropOp56
 70
     1
102
RTVSPost2010Prop57
140
1.0
102
RTVSPost2010PropOp57
 70
     1
102
RTVSPropertyOp0
 70
     1
102
RTVSPropertyOp1
 70
     1
102
RTVSPropertyOp2
 70
     1
102
RTVSPropertyOp3
 70
     1
102
RTVSPropertyOp4
 70
     1
102
RTVSPropertyOp5
 70
     1
102
RTVSPropertyOp6
 70
     1
102
RTVSPropertyOp7
 70
     1
102
RTVSPropertyOp8
 70
     1
102
RTVSPropertyOp9
 70
     1
102
RTVSPropertyOp10
 70
     1
102
RTVSPropertyOp11
 70
     1
102
RTVSPropertyOp12
 70
     1
102
RTVSPropertyOp13
 70
     1
102
RTVSPropertyOp14
 70
     1
102
RTVSPropertyOp15
 70
     1
102
RTVSPropertyOp16
 70
     1
102
RTVSPropertyOp17
 70
     1
102
RTVSPropertyOp18
 70
     1
102
RTVSPropertyOp19
 70
     1
102
RTVSPropertyOp20
 70
     1
102
RTVSPropertyOp21
 70
     1
102
RTVSPropertyOp22
 70
     1
102
RTVSPropertyOp23
 70
     1
102
RTVSPropertyOp24
 70
     1
102
RTVSPropertyOp25
 70
     1
102
RTVSPropertyOp26
 70
     1
102
RTVSPropertyOp27
 70
     1
102
RTVSPropertyOp28
 70
     1
102
RTVSPropertyOp29
 70
     1
102
RTVSPropertyOp30
 70
     1
102
RTVSPropertyOp31
 70
     1
102
RTVSPropertyOp32
 70
     1
102
RTVSPropertyOp33
 70
     1
102
RTVSPropertyOp34
 70
     1
102
RTVSPropertyOp35
 70
     1
102
RTVSPropertyOp36
 70
     1
102
RTVSPropertyOp37
 70
     1
102
RTVSPropertyOp38
 70
     1
102
RTVSPropertyOp39
 70
     1
102
RTVSPropertyOp40
 70
     1
102
RTVSPropertyOp41
 70
     1
102
RTVSPropertyOp42
 70
     1
102
RTVSPropertyOp43
 70
     1
102
RTVSPropertyOp44
 70
     1
102
RTVSPropertyOp45
 70
     1
102
RTVSPropertyOp46
 70
     1
102
RTVSPropertyOp47
 70
     1
102
RTVSPropertyOp48
 70
     1
102
RTVSPropertyOp49
 70
     1
102
RTVSPropertyOp50
 70
     1
102
RTVSPropertyOp51
 70
     0
102
RTVSPropertyOp52
 70
     0
102
RTVSPropertyOp53
 70
     1
102
RTVSPropertyOp54
 70
     1
102
RTVSPropertyOp55
 70
     1
102
RTVSPropertyOp56
 70
     1
102
RTVSPropertyOp57
 70
     1
102
RTVSPropertyOp58
 70
     1
102
RTVSPropertyOp59
 70
     1
102
RTVSPropertyOp60
 70
     1
102
RTVSPropertyOp61
 70
     1
102
RTVSPropertyOp62
 70
     1
  0
XRECORD
  5
3ACA
102
{ACAD_REACTORS
330
3AC9
102
}
330
3AC9
100
AcDbXrecord
280
     1
102
RTVSPost2010Prop28
280
     0
102
RTVSPost2010PropOp28
 70
     1
102
RTVSPost2010Prop29
280
     1
102
RTVSPost2010PropOp29
 70
     1
102
RTVSPost2010Prop30
280
     1
102
RTVSPost2010PropOp30
 70
     1
102
RTVSPost2010Prop31
280
     0
102
RTVSPost2010PropOp31
 70
     1
102
RTVSPost2010Prop32
280
     0
102
RTVSPost2010PropOp32
 70
     1
102
RTVSPost2010Prop33
280
     0
102
RTVSPost2010PropOp33
 70
     1
102
RTVSPost2010Prop34
280
     0
102
RTVSPost2010PropOp34
 70
     1
102
RTVSPost2010Prop35
280
     0
102
RTVSPost2010PropOp35
 70
     1
102
RTVSPost2010Prop36
280
     0
102
RTVSPost2010PropOp36
 70
     1
102
RTVSPost2010Prop37
 90
       50
102
RTVSPost2010PropOp37
 70
     1
102
RTVSPost2010Prop38
140
0.0
102
RTVSPost2010PropOp38
 70
     1
102
RTVSPost2010Prop39
140
1.0
102
RTVSPost2010PropOp39
 70
     1
102
RTVSPost2010Prop40
 90
        0
102
RTVSPost2010PropOp40
 70
     1
102
RTVSPost2010Prop41ColorIndex
 90
       18
102
RTVSPost2010Prop41ColorRGB
 90
        0
102
RTVSPost2010PropOp41
 70
     1
102
RTVSPost2010Prop42
 90
       50
102
RTVSPost2010PropOp42
 70
     1
102
RTVSPost2010Prop43
 90
        3
102
RTVSPost2010PropOp43
 70
     1
102
RTVSPost2010Prop44ColorIndex
 90
        5
102
RTVSPost2010Prop44ColorRGB
 90
      255
102
RTVSPost2010PropOp44
 70
     1
102
RTVSPost2010Prop45
280
     0
102
RTVSPost2010PropOp45
 70
     1
102
RTVSPost2010Prop46
 90
       50
102
RTVSPost2010PropOp46
 70
     1
102
RTVSPost2010Prop47
 90
       50
102
RTVSPost2010PropOp47
 70
     1
102
RTVSPost2010Prop48
 90
       50
102
RTVSPost2010PropOp48
 70
     1
102
RTVSPost2010Prop49
280
     0
102
RTVSPost2010PropOp49
 70
     1
102
RTVSPost2010Prop50
 90
       50
102
RTVSPost2010PropOp50
 70
     1
102
RTVSPost2010Prop51ColorIndex
 90
      256
102
RTVSPost2010Prop51ColorRGB
 90
-16777216
102
RTVSPost2010PropOp51
 70
     0
102
RTVSPost2010Prop52
140
1.0
102
RTVSPost2010PropOp52
 70
     0
102
RTVSPost2010Prop53
 90
        2
102
RTVSPost2010PropOp53
 70
     1
102
RTVSPost2010Prop54
  1
strokes_ogs.tif
102
RTVSPost2010PropOp54
 70
     1
102
RTVSPost2010Prop55
280
     0
102
RTVSPost2010PropOp55
 70
     1
102
RTVSPost2010Prop56
140
1.0
102
RTVSPost2010PropOp56
 70
     1
102
RTVSPost2010Prop57
140
1.0
102
RTVSPost2010PropOp57
 70
     1
102
RTVSPropertyOp0
 70
     1
102
RTVSPropertyOp1
 70
     1
102
RTVSPropertyOp2
 70
     1
102
RTVSPropertyOp3
 70
     1
102
RTVSPropertyOp4
 70
     1
102
RTVSPropertyOp5
 70
     1
102
RTVSPropertyOp6
 70
     1
102
RTVSPropertyOp7
 70
     1
102
RTVSPropertyOp8
 70
     1
102
RTVSPropertyOp9
 70
     1
102
RTVSPropertyOp10
 70
     1
102
RTVSPropertyOp11
 70
     1
102
RTVSPropertyOp12
 70
     1
102
RTVSPropertyOp13
 70
     1
102
RTVSPropertyOp14
 70
     1
102
RTVSPropertyOp15
 70
     1
102
RTVSPropertyOp16
 70
     1
102
RTVSPropertyOp17
 70
     1
102
RTVSPropertyOp18
 70
     1
102
RTVSPropertyOp19
 70
     1
102
RTVSPropertyOp20
 70
     1
102
RTVSPropertyOp21
 70
     1
102
RTVSPropertyOp22
 70
     1
102
RTVSPropertyOp23
 70
     1
102
RTVSPropertyOp24
 70
     1
102
RTVSPropertyOp25
 70
     1
102
RTVSPropertyOp26
 70
     1
102
RTVSPropertyOp27
 70
     1
102
RTVSPropertyOp28
 70
     1
102
RTVSPropertyOp29
 70
     1
102
RTVSPropertyOp30
 70
     1
102
RTVSPropertyOp31
 70
     1
102
RTVSPropertyOp32
 70
     1
102
RTVSPropertyOp33
 70
     1
102
RTVSPropertyOp34
 70
     1
102
RTVSPropertyOp35
 70
     1
102
RTVSPropertyOp36
 70
     1
102
RTVSPropertyOp37
 70
     1
102
RTVSPropertyOp38
 70
     1
102
RTVSPropertyOp39
 70
     1
102
RTVSPropertyOp40
 70
     1
102
RTVSPropertyOp41
 70
     1
102
RTVSPropertyOp42
 70
     1
102
RTVSPropertyOp43
 70
     1
102
RTVSPropertyOp44
 70
     1
102
RTVSPropertyOp45
 70
     1
102
RTVSPropertyOp46
 70
     1
102
RTVSPropertyOp47
 70
     1
102
RTVSPropertyOp48
 70
     1
102
RTVSPropertyOp49
 70
     1
102
RTVSPropertyOp50
 70
     1
102
RTVSPropertyOp51
 70
     0
102
RTVSPropertyOp52
 70
     0
102
RTVSPropertyOp53
 70
     1
102
RTVSPropertyOp54
 70
     1
102
RTVSPropertyOp55
 70
     1
102
RTVSPropertyOp56
 70
     1
102
RTVSPropertyOp57
 70
     1
102
RTVSPropertyOp58
 70
     1
102
RTVSPropertyOp59
 70
     1
102
RTVSPropertyOp60
 70
     1
102
RTVSPropertyOp61
 70
     1
102
RTVSPropertyOp62
 70
     1
  0
XRECORD
  5
3AE2
102
{ACAD_REACTORS
330
3AE1
102
}
330
3AE1
100
AcDbXrecord
280
     1
102
RTVSPost2010Prop28
280
     0
102
RTVSPost2010PropOp28
 70
     1
102
RTVSPost2010Prop29
280
     1
102
RTVSPost2010PropOp29
 70
     1
102
RTVSPost2010Prop30
280
     1
102
RTVSPost2010PropOp30
 70
     1
102
RTVSPost2010Prop31
280
     0
102
RTVSPost2010PropOp31
 70
     1
102
RTVSPost2010Prop32
280
     0
102
RTVSPost2010PropOp32
 70
     1
102
RTVSPost2010Prop33
280
     0
102
RTVSPost2010PropOp33
 70
     1
102
RTVSPost2010Prop34
280
     0
102
RTVSPost2010PropOp34
 70
     1
102
RTVSPost2010Prop35
280
     0
102
RTVSPost2010PropOp35
 70
     1
102
RTVSPost2010Prop36
280
     0
102
RTVSPost2010PropOp36
 70
     1
102
RTVSPost2010Prop37
 90
       50
102
RTVSPost2010PropOp37
 70
     1
102
RTVSPost2010Prop38
140
0.0
102
RTVSPost2010PropOp38
 70
     1
102
RTVSPost2010Prop39
140
1.0
102
RTVSPost2010PropOp39
 70
     1
102
RTVSPost2010Prop40
 90
        0
102
RTVSPost2010PropOp40
 70
     1
102
RTVSPost2010Prop41ColorIndex
 90
       18
102
RTVSPost2010Prop41ColorRGB
 90
        0
102
RTVSPost2010PropOp41
 70
     1
102
RTVSPost2010Prop42
 90
       50
102
RTVSPost2010PropOp42
 70
     1
102
RTVSPost2010Prop43
 90
        3
102
RTVSPost2010PropOp43
 70
     1
102
RTVSPost2010Prop44ColorIndex
 90
        5
102
RTVSPost2010Prop44ColorRGB
 90
      255
102
RTVSPost2010PropOp44
 70
     1
102
RTVSPost2010Prop45
280
     0
102
RTVSPost2010PropOp45
 70
     1
102
RTVSPost2010Prop46
 90
       50
102
RTVSPost2010PropOp46
 70
     1
102
RTVSPost2010Prop47
 90
       50
102
RTVSPost2010PropOp47
 70
     1
102
RTVSPost2010Prop48
 90
       50
102
RTVSPost2010PropOp48
 70
     1
102
RTVSPost2010Prop49
280
     0
102
RTVSPost2010PropOp49
 70
     1
102
RTVSPost2010Prop50
 90
       50
102
RTVSPost2010PropOp50
 70
     1
102
RTVSPost2010Prop51ColorIndex
 90
      256
102
RTVSPost2010Prop51ColorRGB
 90
-16777216
102
RTVSPost2010PropOp51
 70
     0
102
RTVSPost2010Prop52
140
1.0
102
RTVSPost2010PropOp52
 70
     0
102
RTVSPost2010Prop53
 90
        2
102
RTVSPost2010PropOp53
 70
     1
102
RTVSPost2010Prop54
  1
strokes_ogs.tif
102
RTVSPost2010PropOp54
 70
     1
102
RTVSPost2010Prop55
280
     0
102
RTVSPost2010PropOp55
 70
     1
102
RTVSPost2010Prop56
140
1.0
102
RTVSPost2010PropOp56
 70
     1
102
RTVSPost2010Prop57
140
1.0
102
RTVSPost2010PropOp57
 70
     1
102
RTVSPropertyOp0
 70
     1
102
RTVSPropertyOp1
 70
     1
102
RTVSPropertyOp2
 70
     1
102
RTVSPropertyOp3
 70
     1
102
RTVSPropertyOp4
 70
     1
102
RTVSPropertyOp5
 70
     1
102
RTVSPropertyOp6
 70
     1
102
RTVSPropertyOp7
 70
     1
102
RTVSPropertyOp8
 70
     1
102
RTVSPropertyOp9
 70
     1
102
RTVSPropertyOp10
 70
     1
102
RTVSPropertyOp11
 70
     1
102
RTVSPropertyOp12
 70
     1
102
RTVSPropertyOp13
 70
     1
102
RTVSPropertyOp14
 70
     1
102
RTVSPropertyOp15
 70
     1
102
RTVSPropertyOp16
 70
     1
102
RTVSPropertyOp17
 70
     1
102
RTVSPropertyOp18
 70
     1
102
RTVSPropertyOp19
 70
     1
102
RTVSPropertyOp20
 70
     1
102
RTVSPropertyOp21
 70
     1
102
RTVSPropertyOp22
 70
     1
102
RTVSPropertyOp23
 70
     1
102
RTVSPropertyOp24
 70
     1
102
RTVSPropertyOp25
 70
     1
102
RTVSPropertyOp26
 70
     1
102
RTVSPropertyOp27
 70
     1
102
RTVSPropertyOp28
 70
     1
102
RTVSPropertyOp29
 70
     1
102
RTVSPropertyOp30
 70
     1
102
RTVSPropertyOp31
 70
     1
102
RTVSPropertyOp32
 70
     1
102
RTVSPropertyOp33
 70
     1
102
RTVSPropertyOp34
 70
     1
102
RTVSPropertyOp35
 70
     1
102
RTVSPropertyOp36
 70
     1
102
RTVSPropertyOp37
 70
     1
102
RTVSPropertyOp38
 70
     1
102
RTVSPropertyOp39
 70
     1
102
RTVSPropertyOp40
 70
     1
102
RTVSPropertyOp41
 70
     1
102
RTVSPropertyOp42
 70
     1
102
RTVSPropertyOp43
 70
     1
102
RTVSPropertyOp44
 70
     1
102
RTVSPropertyOp45
 70
     1
102
RTVSPropertyOp46
 70
     1
102
RTVSPropertyOp47
 70
     1
102
RTVSPropertyOp48
 70
     1
102
RTVSPropertyOp49
 70
     1
102
RTVSPropertyOp50
 70
     1
102
RTVSPropertyOp51
 70
     0
102
RTVSPropertyOp52
 70
     0
102
RTVSPropertyOp53
 70
     1
102
RTVSPropertyOp54
 70
     1
102
RTVSPropertyOp55
 70
     1
102
RTVSPropertyOp56
 70
     1
102
RTVSPropertyOp57
 70
     1
102
RTVSPropertyOp58
 70
     1
102
RTVSPropertyOp59
 70
     1
102
RTVSPropertyOp60
 70
     1
102
RTVSPropertyOp61
 70
     1
102
RTVSPropertyOp62
 70
     1
  0
ENDSEC
  0
EOF
